  0
SECTION
  2
HEADER
  9
$ACADVER
  1
AC1015
  9
$ACADMAINTVER
 70
     6
  9
$DWGCODEPAGE
  3
ANSI_1252
  9
$INSBASE
 10
0.0
 20
0.0
 30
0.0
  9
$EXTMIN
 10
0.0
 20
0.0
 30
0.0
  9
$EXTMAX
 10
500.0
 20
500.0
 30
0.0
  9
$LIMMIN
 10
0.0
 20
0.0
  9
$LIMMAX
 10
0.0
 20
0.0
  9
$ORTHOMODE
 70
     0
  9
$REGENMODE
 70
     1
  9
$FILLMODE
 70
     1
  9
$QTEXTMODE
 70
     0
  9
$MIRRTEXT
 70
     1
  9
$LTSCALE
 40
1.0
  9
$ATTMODE
 70
     1
  9
$TEXTSIZE
 40
3.5
  9
$TRACEWID
 40
1.0
  9
$TEXTSTYLE
  7
Standard
  9
$CLAYER
  8
0
  9
$CELTYPE
  6
ByLayer
  9
$CECOLOR
 62
   256
  9
$CELTSCALE
 40
1.0
  9
$DISPSILH
 70
     0
  9
$DIMSCALE
 40
1.0
  9
$DIMASZ
 40
6.0
  9
$DIMEXO
 40
1.0
  9
$DIMDLI
 40
3.75
  9
$DIMRND
 40
0.0
  9
$DIMDLE
 40
0.0
  9
$DIMEXE
 40
1.0
  9
$DIMTP
 40
0.0
  9
$DIMTM
 40
0.0
  9
$DIMTXT
 40
3.5
  9
$DIMCEN
 40
2.5
  9
$DIMTSZ
 40
0.0
  9
$DIMTOL
 70
     0
  9
$DIMLIM
 70
     0
  9
$DIMTIH
 70
     1
  9
$DIMTOH
 70
     1
  9
$DIMSE1
 70
     0
  9
$DIMSE2
 70
     0
  9
$DIMTAD
 70
     1
  9
$DIMZIN
 70
     0
  9
$DIMBLK
  1

  9
$DIMASO
 70
     1
  9
$DIMSHO
 70
     1
  9
$DIMPOST
  1

  9
$DIMAPOST
  1

  9
$DIMALT
 70
     0
  9
$DIMALTD
 70
     3
  9
$DIMALTF
 40
0.0393700787
  9
$DIMLFAC
 40
1.0
  9
$DIMTOFL
 70
     1
  9
$DIMTVP
 40
0.0
  9
$DIMTIX
 70
     0
  9
$DIMSOXD
 70
     0
  9
$DIMSAH
 70
     0
  9
$DIMBLK1
  1

  9
$DIMBLK2
  1

  9
$DIMSTYLE
  2
ISO-25
  9
$DIMCLRD
 70
     0
  9
$DIMCLRE
 70
     0
  9
$DIMCLRT
 70
     0
  9
$DIMTFAC
 40
1.0
  9
$DIMGAP
 40
1.524
  9
$DIMJUST
 70
     0
  9
$DIMSD1
 70
     0
  9
$DIMSD2
 70
     0
  9
$DIMTOLJ
 70
     0
  9
$DIMTZIN
 70
     0
  9
$DIMALTZ
 70
     0
  9
$DIMALTTZ
 70
     0
  9
$DIMUPT
 70
     0
  9
$DIMDEC
 70
     2
  9
$DIMTDEC
 70
     2
  9
$DIMALTU
 70
     2
  9
$DIMALTTD
 70
     3
  9
$DIMTXSTY
  7
Standard
  9
$DIMAUNIT
 70
     0
  9
$DIMADEC
 70
     0
  9
$DIMALTRND
 40
0.0
  9
$DIMAZIN
 70
     0
  9
$DIMDSEP
 70
    44
  9
$DIMATFIT
 70
     3
  9
$DIMFRAC
 70
     0
  9
$DIMLDRBLK
  1

  9
$DIMLUNIT
 70
     2
  9
$DIMLWD
 70
    -2
  9
$DIMLWE
 70
    -2
  9
$DIMTMOVE
 70
     0
  9
$LUNITS
 70
     2
  9
$LUPREC
 70
     2
  9
$SKETCHINC
 40
1.0
  9
$FILLETRAD
 40
10.0
  9
$AUNITS
 70
     0
  9
$AUPREC
 70
     0
  9
$MENU
  1
.
  9
$ELEVATION
 40
0.0
  9
$PELEVATION
 40
0.0
  9
$THICKNESS
 40
0.0
  9
$LIMCHECK
 70
     0
  9
$CHAMFERA
 40
10.0
  9
$CHAMFERB
 40
10.0
  9
$CHAMFERC
 40
20.0
  9
$CHAMFERD
 40
0.0
  9
$SKPOLY
 70
     0
  9
$TDCREATE
 40
2455282.372404109
  9
$TDUCREATE
 40
2455282.330737442
  9
$TDUPDATE
 40
2455282.37240412
  9
$TDUUPDATE
 40
2455282.330737454
  9
$TDINDWG
 40
0.0000000116
  9
$TDUSRTIMER
 40
0.0000000116
  9
$USRTIMER
 70
     1
  9
$ANGBASE
 50
0.0
  9
$ANGDIR
 70
     0
  9
$PDMODE
 70
     0
  9
$PDSIZE
 40
-1.0
  9
$PLINEWID
 40
0.0
  9
$SPLFRAME
 70
     0
  9
$SPLINETYPE
 70
     6
  9
$SPLINESEGS
 70
     8
  9
$HANDSEED
  5
3FF
  9
$SURFTAB1
 70
     6
  9
$SURFTAB2
 70
     6
  9
$SURFTYPE
 70
     6
  9
$SURFU
 70
     6
  9
$SURFV
 70
     6
  9
$UCSBASE
  2

  9
$UCSNAME
  2

  9
$UCSORG
 10
0.0
 20
0.0
 30
0.0
  9
$UCSXDIR
 10
1.0
 20
0.0
 30
0.0
  9
$UCSYDIR
 10
0.0
 20
1.0
 30
0.0
  9
$UCSORTHOREF
  2

  9
$UCSORTHOVIEW
 70
     0
  9
$UCSORGTOP
 10
0.0
 20
0.0
 30
0.0
  9
$UCSORGBOTTOM
 10
0.0
 20
0.0
 30
0.0
  9
$UCSORGLEFT
 10
0.0
 20
0.0
 30
0.0
  9
$UCSORGRIGHT
 10
0.0
 20
0.0
 30
0.0
  9
$UCSORGFRONT
 10
0.0
 20
0.0
 30
0.0
  9
$UCSORGBACK
 10
0.0
 20
0.0
 30
0.0
  9
$PUCSBASE
  2

  9
$PUCSNAME
  2

  9
$PUCSORG
 10
0.0
 20
0.0
 30
0.0
  9
$PUCSXDIR
 10
1.0
 20
0.0
 30
0.0
  9
$PUCSYDIR
 10
0.0
 20
1.0
 30
0.0
  9
$PUCSORTHOREF
  2

  9
$PUCSORTHOVIEW
 70
     0
  9
$PUCSORGTOP
 10
0.0
 20
0.0
 30
0.0
  9
$PUCSORGBOTTOM
 10
0.0
 20
0.0
 30
0.0
  9
$PUCSORGLEFT
 10
0.0
 20
0.0
 30
0.0
  9
$PUCSORGRIGHT
 10
0.0
 20
0.0
 30
0.0
  9
$PUCSORGFRONT
 10
0.0
 20
0.0
 30
0.0
  9
$PUCSORGBACK
 10
0.0
 20
0.0
 30
0.0
  9
$USERI1
 70
     0
  9
$USERI2
 70
     0
  9
$USERI3
 70
     0
  9
$USERI4
 70
     0
  9
$USERI5
 70
     0
  9
$USERR1
 40
0.0
  9
$USERR2
 40
0.0
  9
$USERR3
 40
0.0
  9
$USERR4
 40
0.0
  9
$USERR5
 40
0.0
  9
$WORLDVIEW
 70
     1
  9
$SHADEDGE
 70
     3
  9
$SHADEDIF
 70
    70
  9
$TILEMODE
 70
     1
  9
$MAXACTVP
 70
    64
  9
$PINSBASE
 10
0.0
 20
0.0
 30
0.0
  9
$PLIMCHECK
 70
     0
  9
$PEXTMIN
 10
1.0000000000E+20
 20
1.0000000000E+20
 30
1.0000000000E+20
  9
$PEXTMAX
 10
-1.0000000000E+20
 20
-1.0000000000E+20
 30
-1.0000000000E+20
  9
$PLIMMIN
 10
0.0
 20
0.0
  9
$PLIMMAX
 10
420.0
 20
297.0
  9
$UNITMODE
 70
     0
  9
$VISRETAIN
 70
     1
  9
$PLINEGEN
 70
     0
  9
$PSLTSCALE
 70
     1
  9
$TREEDEPTH
 70
  3020
  9
$CMLSTYLE
  2
Standard
  9
$CMLJUST
 70
     0
  9
$CMLSCALE
 40
20.0
  9
$PROXYGRAPHICS
 70
     1
  9
$MEASUREMENT
 70
     1
  9
$CELWEIGHT
370
    -1
  9
$ENDCAPS
280
     0
  9
$JOINSTYLE
280
     0
  9
$LWDISPLAY
290
     1
  9
$INSUNITS
 70
     4
  9
$HYPERLINKBASE
  1

  9
$STYLESHEET
  1

  9
$XEDIT
290
     1
  9
$CEPSNTYPE
380
     0
  9
$PSTYLEMODE
290
     1
  9
$FINGERPRINTGUID
  2
{5119E845-8766-451B-9F51-2FB08F4DE1C6}
  9
$VERSIONGUID
  2
{FAEB1C32-E019-11D5-929B-00C0DF256EC4}
  9
$EXTNAMES
290
     1
  9
$PSVPSCALE
 40
0.0
  9
$OLESTARTUP
290
     0
  0
ENDSEC
  0
SECTION
  2
CLASSES
  0
CLASS
  1
ACDBDICTIONARYWDFLT
  2
AcDbDictionaryWithDefault
  3
ObjectDBX Classes
 90
        0
280
     0
281
     0
  0
CLASS
  1
ACDBPLACEHOLDER
  2
AcDbPlaceHolder
  3
ObjectDBX Classes
 90
        0
280
     0
281
     0
  0
CLASS
  1
LAYOUT
  2
AcDbLayout
  3
ObjectDBX Classes
 90
        0
280
     0
281
     0
  0
ENDSEC
  0
SECTION
  2
TABLES
  0
TABLE
  2
VPORT
  5
8
330
0
100
AcDbSymbolTable
 70
     1
  0
VPORT
  5
29
330
8
100
AcDbSymbolTableRecord
100
AcDbViewportTableRecord
  2
*Active
 70
     0
 10
0.0
 20
0.0
 11
1.0
 21
1.0
 12
250.0
 22
250.0
 13
0.0
 23
0.0
 14
10.0
 24
10.0
 15
10.0
 25
10.0
 16
0.0
 26
0.0
 36
1.0
 17
0.0
 27
0.0
 37
0.0
 40
500.0
 41
1.0
 42
50.0
 43
0.0
 44
0.0
 50
0.0
 51
0.0
 71
     0
 72
  2000
 73
     1
 74
     3
 75
     0
 76
     0
 77
     0
 78
     0
281
     0
 65
     1
110
0.0
120
0.0
130
0.0
111
1.0
121
0.0
131
0.0
112
0.0
122
1.0
132
0.0
 79
     0
146
0.0
  0
ENDTAB
  0
TABLE
  2
LTYPE
  5
5
330
0
100
AcDbSymbolTable
 70
     6
  0
LTYPE
  5
14
330
5
100
AcDbSymbolTableRecord
100
AcDbLinetypeTableRecord
  2
ByBlock
 70
     0
  3

 72
    65
 73
     0
 40
0.0
  0
LTYPE
  5
15
330
5
100
AcDbSymbolTableRecord
100
AcDbLinetypeTableRecord
  2
ByLayer
 70
     0
  3

 72
    65
 73
     0
 40
0.0
  0
LTYPE
  5
16
330
5
100
AcDbSymbolTableRecord
100
AcDbLinetypeTableRecord
  2
Continuous
 70
     0
  3
Solid line
 72
    65
 73
     0
 40
0.0
  0
LTYPE
  5
2A
330
5
100
AcDbSymbolTableRecord
100
AcDbLinetypeTableRecord
  2
HIDDEN
 70
     0
  3
Hidden __ __ __ __ __ __ __ __ __ __ __ __ __ __
 72
    65
 73
     2
 40
1.905
 49
1.27
 74
     0
 49
-0.635
 74
     0
  0
LTYPE
  5
2B
330
5
100
AcDbSymbolTableRecord
100
AcDbLinetypeTableRecord
  2
PHANTOM
 70
     0
  3
Phantom ______  __  __  ______  __  __  ______
 72
    65
 73
     6
 40
12.7
 49
6.35
 74
     0
 49
-1.27
 74
     0
 49
1.27
 74
     0
 49
-1.27
 74
     0
 49
1.27
 74
     0
 49
-1.27
 74
     0
  0
LTYPE
  5
2C
330
5
100
AcDbSymbolTableRecord
100
AcDbLinetypeTableRecord
  2
CENTER
 70
     0
  3
Center ____ _ ____ _ ____ _ ____ _ ____ _ ____
 72
    65
 73
     4
 40
10.16
 49
6.35
 74
     0
 49
-1.27
 74
     0
 49
1.27
 74
     0
 49
-1.27
 74
     0
  0
LTYPE
  5
2D
330
5
100
AcDbSymbolTableRecord
100
AcDbLinetypeTableRecord
  2
CENTERX2
 70
     0
  3
Center (2x) ________  __  ________  __  _____
 72
    65
 73
     4
 40
20.32
 49
12.7
 74
     0
 49
-2.54
 74
     0
 49
2.54
 74
     0
 49
-2.54
 74
     0
  0
LTYPE
  5
2E
330
5
100
AcDbSymbolTableRecord
100
AcDbLinetypeTableRecord
  2
DOT2
 70
     0
  3
Dot (.5x) ........................................
 72
    65
 73
     2
 40
0.635
 49
0.0
 74
     0
 49
-0.635
 74
     0
  0
ENDTAB
  0
TABLE
  2
LAYER
  5
2
330
0
100
AcDbSymbolTable
 70
     2
  0
LAYER
  5
10
330
2
100
AcDbSymbolTableRecord
100
AcDbLayerTableRecord
  2
0
 70
     0
 62
     7
  6
Continuous
370
    -3
390
F
  0
LAYER
  5
2F
330
2
100
AcDbSymbolTableRecord
100
AcDbLayerTableRecord
  2
FORMAT
 70
     0
 62
     7
  6
Continuous
370
    -3
390
F
  0
ENDTAB
  0
TABLE
  2
STYLE
  5
3
330
0
100
AcDbSymbolTable
 70
     1
  0
STYLE
  5
11
330
3
100
AcDbSymbolTableRecord
100
AcDbTextStyleTableRecord
  2
Standard
 70
     0
 40
0.0
 41
1.0
 50
0.0
 71
     0
 42
2.5
  3
txt
  4

  0
ENDTAB
  0
TABLE
  2
VIEW
  5
6
330
0
100
AcDbSymbolTable
 70
     0
  0
ENDTAB
  0
TABLE
  2
UCS
  5
7
330
0
100
AcDbSymbolTable
 70
     0
  0
ENDTAB
  0
TABLE
  2
APPID
  5
9
330
0
100
AcDbSymbolTable
 70
     1
  0
APPID
  5
12
330
9
100
AcDbSymbolTableRecord
100
AcDbRegAppTableRecord
  2
ACAD
 70
     0
  0
ENDTAB
  0
TABLE
  2
DIMSTYLE
  5
A
330
0
100
AcDbSymbolTable
 70
     1
100
AcDbDimStyleTable
  0
DIMSTYLE
105
27
330
A
100
AcDbSymbolTableRecord
100
AcDbDimStyleTableRecord
  2
ISO-25
 70
     0
 41
2.5
 42
0.625
 43
3.75
 44
1.25
 73
     0
 74
     0
 77
     1
 78
     8
140
2.5
141
2.5
143
0.0393700787
147
0.625
171
     3
172
     1
271
     2
272
     2
274
     3
278
    44
283
     0
284
     8
340
11
  0
ENDTAB
  0
TABLE
  2
BLOCK_RECORD
  5
1
330
0
100
AcDbSymbolTable
 70
     1
  0
BLOCK_RECORD
  5
1F
330
1
100
AcDbSymbolTableRecord
100
AcDbBlockTableRecord
  2
*Model_Space
340
22
  0
BLOCK_RECORD
  5
1B
330
1
100
AcDbSymbolTableRecord
100
AcDbBlockTableRecord
  2
*Paper_Space
340
1E
  0
BLOCK_RECORD
  5
23
330
1
100
AcDbSymbolTableRecord
100
AcDbBlockTableRecord
  2
*Paper_Space0
340
26
  0
ENDTAB
  0
ENDSEC
  0
SECTION
  2
BLOCKS
  0
BLOCK
  5
20
330
1F
100
AcDbEntity
  8
0
100
AcDbBlockBegin
  2
*Model_Space
 70
     0
 71
     0
 10
0.0
 20
0.0
 30
0.0
  3
*Model_Space
  1

  0
ENDBLK
  5
21
330
1F
100
AcDbEntity
  8
0
100
AcDbBlockEnd
  0
BLOCK
  5
1C
330
1B
100
AcDbEntity
 67
     1
  8
0
100
AcDbBlockBegin
  2
*Paper_Space
 70
     0
 71
     0
 10
0.0
 20
0.0
 30
0.0
  3
*Paper_Space
  1

  0
ENDBLK
  5
1D
330
1B
100
AcDbEntity
 67
     1
  8
0
100
AcDbBlockEnd
  0
BLOCK
  5
24
330
23
100
AcDbEntity
  8
0
100
AcDbBlockBegin
  2
*Paper_Space0
 70
     0
 71
     0
 10
0.0
 20
0.0
 30
0.0
  3
*Paper_Space0
  1

  0
ENDBLK
  5
25
330
23
100
AcDbEntity
  8
0
100
AcDbBlockEnd
  0
ENDSEC
  0
SECTION
  2
ENTITIES
  0
ARC
  5
30
330
1F
100
AcDbEntity
  8
0
  6
Continuous
 62
     7
370
    15
100
AcDbCircle
 10
269.4580828642
 20
383.4009504132
 30
0.0
 40
2.0
100
AcDbArc
 50
214.3297726759
 51
270.0
  0
ARC
  5
31
330
1F
100
AcDbEntity
  8
0
  6
Continuous
 62
     7
370
    15
100
AcDbCircle
 10
280.4691898631
 20
383.4009504132
 30
0.0
 40
2.0
100
AcDbArc
 50
270.0
 51
325.5529438571
  0
LWPOLYLINE
  5
32
330
1F
100
AcDbEntity
  8
0
  6
Continuous
 62
     7
370
    15
100
AcDbPolyline
 90
        3
 70
   128
 43
0.0
 10
282.3547279339
 20
382.7340491109
 10
282.4493111919
 20
383.1196613603
 10
282.465205143
 20
383.5271336131
  0
LINE
  5
33
330
1F
100
AcDbEntity
  8
0
  6
Continuous
 62
     7
370
    15
100
AcDbLine
 10
268.4636363636
 20
386.7009468369
 30
0.0
 11
268.4636363636
 21
386.300954967
 31
0.0
  0
LINE
  5
34
330
1F
100
AcDbEntity
  8
0
  6
Continuous
 62
     7
370
    15
100
AcDbLine
 10
281.4636366318
 20
386.300954967
 30
0.0
 11
281.4636366318
 21
386.7009468369
 31
0.0
  0
ARC
  5
35
330
1F
100
AcDbEntity
  8
0
  6
Continuous
 62
     7
370
    15
100
AcDbCircle
 10
318.9580828642
 20
383.4009504132
 30
0.0
 40
2.0
100
AcDbArc
 50
213.283252272
 51
270.0
  0
ARC
  5
36
330
1F
100
AcDbEntity
  8
0
  6
Continuous
 62
     7
370
    15
100
AcDbCircle
 10
329.9691898631
 20
383.4009504132
 30
0.0
 40
2.000000000000003
100
AcDbArc
 50
270.0
 51
322.8366800302
  0
LWPOLYLINE
  5
37
330
1F
100
AcDbEntity
  8
0
  6
Continuous
 62
     7
370
    15
100
AcDbPolyline
 90
        3
 70
   128
 43
0.0
 10
331.8560967098
 20
382.737938314
 10
331.949251319
 20
383.1192441277
 10
331.9652365397
 20
383.5266418748
  0
LINE
  5
38
330
1F
100
AcDbEntity
  8
0
  6
Continuous
 62
     7
370
    15
100
AcDbLine
 10
317.9636360954
 20
386.7009468369
 30
0.0
 11
317.9636360954
 21
386.300954967
 31
0.0
  0
LINE
  5
39
330
1F
100
AcDbEntity
  8
0
  6
Continuous
 62
     7
370
    15
100
AcDbLine
 10
330.9636363636
 20
386.300954967
 30
0.0
 11
330.9636363636
 21
386.7009468369
 31
0.0
  0
LINE
  5
3A
330
1F
100
AcDbEntity
  8
0
  6
Continuous
 62
     7
370
    15
100
AcDbLine
 10
220.4136351
 20
457.1091867976
 30
0.0
 11
215.8275047194
 21
456.9490291171
 31
0.0
  0
LINE
  5
3B
330
1F
100
AcDbEntity
  8
0
  6
Continuous
 62
     7
370
    15
100
AcDbLine
 10
383.5997680079
 20
456.9490291171
 30
0.0
 11
379.0136376272
 21
457.1091867976
 31
0.0
  0
LINE
  5
3C
330
1F
100
AcDbEntity
  8
0
  6
Continuous
 62
     7
370
    15
100
AcDbLine
 10
379.0136376272
 20
460.5612643056
 30
0.0
 11
383.7766969453
 21
460.7275910668
 31
0.0
  0
LINE
  5
3D
330
1F
100
AcDbEntity
  8
0
  6
Continuous
 62
     7
370
    15
100
AcDbLine
 10
215.6484449159
 20
460.7276655726
 30
0.0
 11
220.4136351
 21
460.5612643056
 31
0.0
  0
LWPOLYLINE
  5
3E
330
1F
100
AcDbEntity
  8
0
  6
Continuous
 62
     7
370
    15
100
AcDbPolyline
 90
        3
 70
   128
 43
0.0
 10
215.4420116793
 20
461.1374773078
 10
215.4328474652
 20
461.0960371785
 10
215.4136398684
 20
460.9009511762
  0
LWPOLYLINE
  5
3F
330
1F
100
AcDbEntity
  8
0
  6
Continuous
 62
     7
370
    15
100
AcDbPolyline
 90
        3
 70
   128
 43
0.0
 10
384.0136328589
 20
460.9009511762
 10
383.9944252621
 20
461.0960371785
 10
383.9904690038
 20
461.1149467521
  0
LINE
  5
40
330
1F
100
AcDbEntity
  8
0
  6
Continuous
 62
     7
370
    15
100
AcDbLine
 10
286.2136360134
 20
470.9409512572
 30
0.0
 11
286.2136360134
 21
468.1409485631
 31
0.0
  0
LINE
  5
41
330
1F
100
AcDbEntity
  8
0
  6
Continuous
 62
     7
370
    15
100
AcDbLine
 10
313.2136367138
 20
468.1409485631
 30
0.0
 11
313.2136367138
 21
470.9409512572
 31
0.0
  0
LINE
  5
42
330
1F
100
AcDbEntity
  8
0
  6
Continuous
 62
     7
370
    15
100
AcDbLine
 10
313.2136367138
 20
470.9409512572
 30
0.0
 11
311.0136367257
 21
473.1409437947
 31
0.0
  0
LINE
  5
43
330
1F
100
AcDbEntity
  8
0
  6
Continuous
 62
     7
370
    15
100
AcDbLine
 10
288.4136360015
 20
473.1409437947
 30
0.0
 11
286.2136360134
 21
470.9409512572
 31
0.0
  0
LINE
  5
44
330
1F
100
AcDbEntity
  8
0
  6
Continuous
 62
     7
370
    15
100
AcDbLine
 10
390.3411799918
 20
424.0377731614
 30
0.0
 11
390.8136362086
 21
425.0509478145
 31
0.0
  0
LINE
  5
45
330
1F
100
AcDbEntity
  8
0
  6
Continuous
 62
     7
370
    15
100
AcDbLine
 10
390.8136362086
 20
436.7509521537
 30
0.0
 11
390.3411799918
 21
437.7641268067
 31
0.0
  0
LINE
  5
46
330
1F
100
AcDbEntity
  8
0
  6
Continuous
 62
     7
370
    15
100
AcDbLine
 10
209.0860927354
 20
437.7641268067
 30
0.0
 11
208.6136365186
 21
436.7509521537
 31
0.0
  0
LINE
  5
47
330
1F
100
AcDbEntity
  8
0
  6
Continuous
 62
     7
370
    15
100
AcDbLine
 10
208.6136365186
 20
425.0509478145
 30
0.0
 11
209.0860927354
 21
424.0377731614
 31
0.0
  0
LINE
  5
48
330
1F
100
AcDbEntity
  8
0
  6
Continuous
 62
     7
370
    15
100
AcDbLine
 10
384.4801062595
 20
437.7512969069
 30
0.0
 11
384.0136328589
 21
436.7509521537
 31
0.0
  0
LINE
  5
49
330
1F
100
AcDbEntity
  8
0
  6
Continuous
 62
     7
370
    15
100
AcDbLine
 10
384.0136328589
 20
425.0509478145
 30
0.0
 11
384.4801062595
 21
424.0506030612
 31
0.0
  0
LINE
  5
4A
330
1F
100
AcDbEntity
  8
0
  6
Continuous
 62
     7
370
    15
100
AcDbLine
 10
214.9471664678
 20
424.0506030612
 30
0.0
 11
215.4136398684
 21
425.0509478145
 31
0.0
  0
LINE
  5
4B
330
1F
100
AcDbEntity
  8
0
  6
Continuous
 62
     7
370
    15
100
AcDbLine
 10
215.4136398684
 20
436.7509521537
 30
0.0
 11
214.9471664678
 21
437.7512969069
 31
0.0
  0
LINE
  5
4C
330
1F
100
AcDbEntity
  8
0
  6
Continuous
 62
     7
370
    15
100
AcDbLine
 10
307.7136367436
 20
466.4009548717
 30
0.0
 11
307.7136367436
 21
466.8409563594
 31
0.0
  0
LINE
  5
4D
330
1F
100
AcDbEntity
  8
0
  6
Continuous
 62
     7
370
    15
100
AcDbLine
 10
291.7136359836
 20
466.8409563594
 30
0.0
 11
291.7136359836
 21
466.4009548716
 31
0.0
  0
LINE
  5
4E
330
1F
100
AcDbEntity
  8
0
  6
Continuous
 62
     7
370
    15
100
AcDbLine
 10
307.6986359309
 20
466.8409563594
 30
0.0
 11
307.6986359309
 21
467.2409482293
 31
0.0
  0
LINE
  5
4F
330
1F
100
AcDbEntity
  8
0
  6
Continuous
 62
     7
370
    15
100
AcDbLine
 10
291.7286367963
 20
467.2409482293
 30
0.0
 11
291.7286367963
 21
466.8409563594
 31
0.0
  0
LINE
  5
50
330
1F
100
AcDbEntity
  8
0
  6
Continuous
 62
     7
370
    15
100
AcDbLine
 10
307.2636365767
 20
467.2409482293
 30
0.0
 11
307.2636365767
 21
468.1409485631
 31
0.0
  0
LINE
  5
51
330
1F
100
AcDbEntity
  8
0
  6
Continuous
 62
     7
370
    15
100
AcDbLine
 10
292.1636361505
 20
468.1409485631
 30
0.0
 11
292.1636361505
 21
467.2409482293
 31
0.0
  0
LINE
  5
52
330
1F
100
AcDbEntity
  8
0
  6
Continuous
 62
     7
370
    15
100
AcDbLine
 10
207.2136351715
 20
434.9009431891
 30
0.0
 11
206.7136341582
 21
434.4009496264
 31
0.0
  0
LINE
  5
53
330
1F
100
AcDbEntity
  8
0
  6
Continuous
 62
     7
370
    15
100
AcDbLine
 10
206.7136341582
 20
427.4009503417
 30
0.0
 11
207.2136351715
 21
426.900956779
 31
0.0
  0
LINE
  5
54
330
1F
100
AcDbEntity
  8
0
  6
Continuous
 62
     7
370
    15
100
AcDbLine
 10
208.6136365186
 20
434.9009431891
 30
0.0
 11
207.2136351715
 21
434.9009431891
 31
0.0
  0
LINE
  5
55
330
1F
100
AcDbEntity
  8
0
  6
Continuous
 62
     7
370
    15
100
AcDbLine
 10
207.2136351715
 20
426.900956779
 30
0.0
 11
208.6136365186
 21
426.900956779
 31
0.0
  0
LINE
  5
56
330
1F
100
AcDbEntity
  8
0
  6
Continuous
 62
     7
370
    15
100
AcDbLine
 10
392.2136375557
 20
426.900956779
 30
0.0
 11
392.713638569
 21
427.4009503417
 31
0.0
  0
LINE
  5
57
330
1F
100
AcDbEntity
  8
0
  6
Continuous
 62
     7
370
    15
100
AcDbLine
 10
392.713638569
 20
434.4009496264
 30
0.0
 11
392.2136375557
 21
434.9009431891
 31
0.0
  0
LINE
  5
58
330
1F
100
AcDbEntity
  8
0
  6
Continuous
 62
     7
370
    15
100
AcDbLine
 10
390.8136362086
 20
426.900956779
 30
0.0
 11
392.2136375557
 21
426.900956779
 31
0.0
  0
LINE
  5
59
330
1F
100
AcDbEntity
  8
0
  6
Continuous
 62
     7
370
    15
100
AcDbLine
 10
392.2136375557
 20
434.9009431891
 30
0.0
 11
390.8136362086
 21
434.9009431891
 31
0.0
  0
LINE
  5
5A
330
1F
100
AcDbEntity
  8
0
  6
Continuous
 62
     7
370
    15
100
AcDbLine
 10
280.3136357914
 20
135.2509520941
 30
0.0
 11
284.3136364471
 21
131.2509514384
 31
0.0
  0
LINE
  5
5B
330
1F
100
AcDbEntity
  8
0
  6
Continuous
 62
     7
370
    15
100
AcDbLine
 10
315.1136362802
 20
131.2509514384
 30
0.0
 11
319.1136369358
 21
135.2509520941
 31
0.0
  0
LINE
  5
5C
330
1F
100
AcDbEntity
  8
0
  6
Continuous
 62
     7
370
    15
100
AcDbLine
 10
319.1136369358
 20
135.2509520941
 30
0.0
 11
319.1136369358
 21
138.7509517364
 31
0.0
  0
LINE
  5
5D
330
1F
100
AcDbEntity
  8
0
  6
Continuous
 62
     7
370
    15
100
AcDbLine
 10
280.3136357914
 20
138.7509517364
 30
0.0
 11
280.3136357914
 21
135.2509520941
 31
0.0
  0
LINE
  5
5E
330
1F
100
AcDbEntity
  8
0
  6
Continuous
 62
     7
370
    15
100
AcDbLine
 10
315.6136372935
 20
138.7509517364
 30
0.0
 11
313.6136360343
 21
140.750948339
 31
0.0
  0
LINE
  5
5F
330
1F
100
AcDbEntity
  8
0
  6
Continuous
 62
     7
370
    15
100
AcDbLine
 10
285.8136366929
 20
140.750948339
 30
0.0
 11
283.8136354338
 21
138.7509517364
 31
0.0
  0
LINE
  5
60
330
1F
100
AcDbEntity
  8
0
  6
Continuous
 62
     7
370
    15
100
AcDbLine
 10
312.2136365499
 20
178.2886572175
 30
0.0
 11
312.2136365499
 21
178.853299468
 31
0.0
  0
LINE
  5
61
330
1F
100
AcDbEntity
  8
0
  6
Continuous
 62
     7
370
    15
100
AcDbLine
 10
287.2136361774
 20
178.853299468
 30
0.0
 11
287.2136361774
 21
178.2886572175
 31
0.0
  0
LINE
  5
62
330
1F
100
AcDbEntity
  8
0
  6
Continuous
 62
     7
370
    15
100
AcDbLine
 10
287.2136361774
 20
275.1132436089
 30
0.0
 11
287.2136361774
 21
274.5486013584
 31
0.0
  0
LINE
  5
63
330
1F
100
AcDbEntity
  8
0
  6
Continuous
 62
     7
370
    15
100
AcDbLine
 10
312.2136365499
 20
274.5486013584
 30
0.0
 11
312.2136365499
 21
275.1132436089
 31
0.0
  0
LINE
  5
64
330
1F
100
AcDbEntity
  8
0
  6
Continuous
 62
     7
370
    15
100
AcDbLine
 10
307.7136367436
 20
316.7009539895
 30
0.0
 11
307.7136367436
 21
386.7009468369
 31
0.0
  0
LINE
  5
65
330
1F
100
AcDbEntity
  8
0
  6
Continuous
 62
     7
370
    15
100
AcDbLine
 10
291.7136359836
 20
386.7009468369
 30
0.0
 11
291.7136359836
 21
316.7009539895
 31
0.0
  0
LINE
  5
66
330
1F
100
AcDbEntity
  8
0
  6
Continuous
 62
     7
370
    15
100
AcDbLine
 10
291.7136359836
 20
141.7009495192
 30
0.0
 11
291.7136359836
 21
140.750948339
 31
0.0
  0
LINE
  5
67
330
1F
100
AcDbEntity
  8
0
  6
Continuous
 62
     7
370
    15
100
AcDbLine
 10
307.7136367436
 20
140.750948339
 30
0.0
 11
307.7136367436
 21
141.7009495192
 31
0.0
  0
LWPOLYLINE
  5
68
330
1F
100
AcDbEntity
  8
0
  6
Continuous
 62
     7
370
    15
100
AcDbPolyline
 90
        3
 70
   128
 43
0.0
 10
270.2680235605
 20
320.4869218163
 10
270.2279617886
 20
320.2822320156
 10
270.2080836396
 20
320.0009502463
  0
ARC
  5
69
330
1F
100
AcDbEntity
  8
0
  6
Continuous
 62
     7
370
    15
100
AcDbCircle
 10
283.2191898631
 20
320.0009504132
 30
0.0
 40
2.000000000000025
100
AcDbArc
 50
13.8265922911
 51
90.0
  0
ARC
  5
6A
330
1F
100
AcDbEntity
  8
0
  6
Continuous
 62
     7
370
    15
100
AcDbCircle
 10
272.2080828642
 20
320.0009504132
 30
0.0
 40
2.000000000000017
100
AcDbArc
 50
90.0
 51
165.9370840711
  0
LINE
  5
6B
330
1F
100
AcDbEntity
  8
0
  6
Continuous
 62
     7
370
    15
100
AcDbLine
 10
284.2136366169
 20
316.7009539895
 30
0.0
 11
284.2136366169
 21
317.10095331
 31
0.0
  0
LINE
  5
6C
330
1F
100
AcDbEntity
  8
0
  6
Continuous
 62
     7
370
    15
100
AcDbLine
 10
271.2136363487
 20
317.10095331
 30
0.0
 11
271.2136363487
 21
316.7009539895
 31
0.0
  0
ARC
  5
6D
330
1F
100
AcDbEntity
  8
0
  6
Continuous
 62
     7
370
    15
100
AcDbCircle
 10
327.2191898631
 20
320.0009504132
 30
0.0
 40
2.000000000000057
100
AcDbArc
 50
34.3297726759
 51
90.0
  0
ARC
  5
6E
330
1F
100
AcDbEntity
  8
0
  6
Continuous
 62
     7
370
    15
100
AcDbCircle
 10
316.2080828642
 20
320.0009504132
 30
0.0
 40
2.000000000000057
100
AcDbArc
 50
90.0
 51
145.5529438571
  0
LWPOLYLINE
  5
6F
330
1F
100
AcDbEntity
  8
0
  6
Continuous
 62
     7
370
    15
100
AcDbPolyline
 90
        3
 70
   128
 43
0.0
 10
314.3225448083
 20
320.667844265
 10
314.2279615502
 20
320.2822320156
 10
314.2120675992
 20
319.8747672133
  0
LINE
  5
70
330
1F
100
AcDbEntity
  8
0
  6
Continuous
 62
     7
370
    15
100
AcDbLine
 10
328.2136363785
 20
316.7009539895
 30
0.0
 11
328.2136363785
 21
317.10095331
 31
0.0
  0
LINE
  5
71
330
1F
100
AcDbEntity
  8
0
  6
Continuous
 62
     7
370
    15
100
AcDbLine
 10
315.2136361103
 20
317.10095331
 30
0.0
 11
315.2136361103
 21
316.7009539895
 31
0.0
  0
ARC
  5
72
330
1F
100
AcDbEntity
  8
0
  6
Continuous
 62
     7
370
    15
100
AcDbCircle
 10
251.7136363636
 20
323.7009504132
 30
0.0
 40
12.00000000000006
100
AcDbArc
 50
180.0
 51
270.0
  0
LINE
  5
73
330
1F
100
AcDbEntity
  8
0
  6
Continuous
 62
     7
370
    15
100
AcDbLine
 10
239.7136377047
 20
379.7009475522
 30
0.0
 11
239.7136377047
 21
323.7009532742
 31
0.0
  0
ARC
  5
74
330
1F
100
AcDbEntity
  8
0
  6
Continuous
 62
     7
370
    15
100
AcDbCircle
 10
251.7136363636
 20
379.7009504132
 30
0.0
 40
12.00000000000006
100
AcDbArc
 50
90.0
 51
180.0
  0
LINE
  5
75
330
1F
100
AcDbEntity
  8
0
  6
Continuous
 62
     7
370
    15
100
AcDbLine
 10
347.7136367809
 20
391.7009569697
 30
0.0
 11
251.7136359464
 21
391.7009569697
 31
0.0
  0
ARC
  5
76
330
1F
100
AcDbEntity
  8
0
  6
Continuous
 62
     7
370
    15
100
AcDbCircle
 10
347.7136363636
 20
379.7009504132
 30
0.0
 40
12.0
100
AcDbArc
 50
0.0
 51
90.0
  0
LINE
  5
77
330
1F
100
AcDbEntity
  8
0
  6
Continuous
 62
     7
370
    15
100
AcDbLine
 10
359.7136350225
 20
379.7009475522
 30
0.0
 11
359.7136350225
 21
323.7009532742
 31
0.0
  0
ARC
  5
78
330
1F
100
AcDbEntity
  8
0
  6
Continuous
 62
     7
370
    15
100
AcDbCircle
 10
347.7136363636
 20
323.7009504132
 30
0.0
 40
12.0
100
AcDbArc
 50
270.0
 51
0.0
  0
LINE
  5
79
330
1F
100
AcDbEntity
  8
0
  6
Continuous
 62
     7
370
    15
100
AcDbLine
 10
347.7136367809
 20
311.7009513073
 30
0.0
 11
251.7136359464
 21
311.7009513073
 31
0.0
  0
LINE
  5
7A
330
1F
100
AcDbEntity
  8
0
  6
Continuous
 62
     7
370
    15
100
AcDbLine
 10
347.7136367809
 20
316.7009539895
 30
0.0
 11
251.7136359464
 21
316.7009539895
 31
0.0
  0
ARC
  5
7B
330
1F
100
AcDbEntity
  8
0
  6
Continuous
 62
     7
370
    15
100
AcDbCircle
 10
347.7136363636
 20
323.7009504132
 30
0.0
 40
7.0
100
AcDbArc
 50
270.0
 51
0.0
  0
LINE
  5
7C
330
1F
100
AcDbEntity
  8
0
  6
Continuous
 62
     7
370
    15
100
AcDbLine
 10
354.7136360656
 20
379.7009475522
 30
0.0
 11
354.7136360656
 21
323.7009532742
 31
0.0
  0
ARC
  5
7D
330
1F
100
AcDbEntity
  8
0
  6
Continuous
 62
     7
370
    15
100
AcDbCircle
 10
347.7136363636
 20
379.7009504132
 30
0.0
 40
7.000000000000057
100
AcDbArc
 50
0.0
 51
90.0
  0
LINE
  5
7E
330
1F
100
AcDbEntity
  8
0
  6
Continuous
 62
     7
370
    15
100
AcDbLine
 10
251.7136359464
 20
386.7009468369
 30
0.0
 11
347.7136367809
 21
386.7009468369
 31
0.0
  0
ARC
  5
7F
330
1F
100
AcDbEntity
  8
0
  6
Continuous
 62
     7
370
    15
100
AcDbCircle
 10
251.7136363636
 20
379.7009504132
 30
0.0
 40
7.000000000000057
100
AcDbArc
 50
90.0
 51
180.0
  0
LINE
  5
80
330
1F
100
AcDbEntity
  8
0
  6
Continuous
 62
     7
370
    15
100
AcDbLine
 10
244.7136366616
 20
323.7009532742
 30
0.0
 11
244.7136366616
 21
379.7009475522
 31
0.0
  0
ARC
  5
81
330
1F
100
AcDbEntity
  8
0
  6
Continuous
 62
     7
370
    15
100
AcDbCircle
 10
251.7136363636
 20
323.7009504132
 30
0.0
 40
7.000000000000057
100
AcDbArc
 50
180.0
 51
270.0
  0
SPLINE
  5
82
330
1F
100
AcDbEntity
  8
0
  6
Continuous
 62
     7
370
    15
100
AcDbSpline
210
0.0
220
0.0
230
1.0
 70
     8
 71
     3
 72
    19
 73
    15
 74
     0
 42
0.00000001
 43
0.00000001
 40
0.0
 40
0.0
 40
0.0
 40
0.0
 40
0.0390832153120782
 40
0.0780297213998827
 40
0.138808906427283
 40
0.2381077684099134
 40
0.491042029608228
 40
0.6249648671991899
 40
0.761667912303798
 40
0.8316199269226602
 40
0.9020119163945441
 40
0.9480831259129759
 40
0.9875353964930035
 40
0.9999999999999999
 40
0.9999999999999999
 40
0.9999999999999999
 40
0.9999999999999999
 10
271.2108591448007
 20
383.4009505801154
 30
0.0
 10
271.2232521840619
 20
383.2832299588534
 30
0.0
 10
271.2479949129578
 20
383.0482004914274
 30
0.0
 10
271.4595051800125
 20
382.6785248283507
 30
0.0
 10
271.9019277780093
 20
382.2655006446367
 30
0.0
 10
273.0529639675581
 20
381.7551569095665
 30
0.0
 10
274.533423677809
 20
381.6345537781031
 30
0.0
 10
276.0994712520335
 20
381.6975835297475
 30
0.0
 10
277.1140368654944
 20
381.8810547319673
 30
0.0
 10
277.8847741103618
 20
382.2005531646719
 30
0.0
 10
278.3458176411947
 20
382.5342692073395
 30
0.0
 10
278.6210630179734
 20
382.920262119618
 30
0.0
 10
278.709730713676
 20
383.2078419357675
 30
0.0
 10
278.7151199590649
 20
383.3635636984296
 30
0.0
 10
278.7164138506589
 20
383.4009505801155
 30
0.0
  0
SPLINE
  5
83
330
1F
100
AcDbEntity
  8
0
  6
Continuous
 62
     7
370
    15
100
AcDbSpline
210
0.0
220
0.0
230
1.0
 70
     8
 71
     3
 72
    18
 73
    14
 74
     0
 42
0.00000001
 43
0.00000001
 40
0.0
 40
0.0
 40
0.0
 40
0.0
 40
0.0344337079130697
 40
0.0724914181829481
 40
0.1306345584990412
 40
0.223618631890847
 40
0.4104356238860751
 40
0.500195620862581
 40
0.7376507459532355
 40
0.8568705884359491
 40
0.9094902769681328
 40
0.9625702475603868
 40
1.0
 40
1.0
 40
1.0
 40
1.0
 10
278.7164138506589
 20
383.4009505801155
 30
0.0
 10
278.7212108625906
 20
383.2973591488326
 30
0.0
 10
278.7313097517035
 20
383.0792737255532
 30
0.0
 10
278.8236076856236
 20
382.7239615110306
 30
0.0
 10
279.0264476966562
 20
382.3158997373445
 30
0.0
 10
279.4891035472995
 20
381.8630338745652
 30
0.0
 10
280.0444504533876
 20
381.6947219038734
 30
0.0
 10
280.8133263392816
 20
381.6428667111674
 30
0.0
 10
281.4882320981961
 20
381.7418695855534
 30
0.0
 10
282.0725517987764
 20
382.197545279999
 30
0.0
 10
282.3295465563309
 20
382.6403117712713
 30
0.0
 10
282.4494518159728
 20
383.0158983232892
 30
0.0
 10
282.4634149646554
 20
383.2883003554979
 30
0.0
 10
282.4691893409429
 20
383.4009505801155
 30
0.0
  0
SPLINE
  5
84
330
1F
100
AcDbEntity
  8
0
  6
Continuous
 62
     7
370
    15
100
AcDbSpline
210
0.0
220
0.0
230
1.0
 70
     8
 71
     3
 72
    19
 73
    15
 74
     0
 42
0.00000001
 43
0.00000001
 40
0.0
 40
0.0
 40
0.0
 40
0.0
 40
0.0390832034690977
 40
0.078029697285162
 40
0.1388088018061084
 40
0.2381077883489403
 40
0.4910420503018239
 40
0.6249647614579436
 40
0.7616678689371081
 40
0.8316199570175752
 40
0.9020119643695621
 40
0.9480831196502363
 40
0.9875354031551453
 40
1.0
 40
1.0
 40
1.0
 40
1.0
 10
267.4580836545167
 20
383.4009505801154
 30
0.0
 10
267.4642791538016
 20
383.2832299535814
 30
0.0
 10
267.4766484810525
 20
383.048200477046
 30
0.0
 10
267.5824084401157
 20
382.6785250737101
 30
0.0
 10
267.8036130675776
 20
382.2654998902752
 30
0.0
 10
268.3791362504291
 20
381.755157826266
 30
0.0
 10
269.1193658020955
 20
381.6345535833533
 30
0.0
 10
269.9023891715021
 20
381.6975836443643
 30
0.0
 10
270.4096711926857
 20
381.8810548295814
 30
0.0
 10
270.7950411136451
 20
382.2005531106391
 30
0.0
 10
271.0255634188294
 20
382.5342687696966
 30
0.0
 10
271.1631840905502
 20
382.9202625057519
 30
0.0
 10
271.2075193994276
 20
383.2078418036285
 30
0.0
 10
271.2102125523108
 20
383.3635636925975
 30
0.0
 10
271.2108591448007
 20
383.4009505801154
 30
0.0
  0
LINE
  5
85
330
1F
100
AcDbEntity
  8
0
  6
Continuous
 62
     7
370
    15
100
AcDbLine
 10
269.4580821197
 20
381.400946527
 30
0.0
 11
280.4691890131
 21
381.400946527
 31
0.0
  0
LINE
  5
86
330
1F
100
AcDbEntity
  8
0
  6
Continuous
 62
     7
370
    15
100
AcDbLine
 10
274.9636364977
 20
386.300954967
 30
0.0
 11
278.7164138507
 21
386.300954967
 31
0.0
  0
LINE
  5
87
330
1F
100
AcDbEntity
  8
0
  6
Continuous
 62
     7
370
    15
100
AcDbLine
 10
278.7164138507
 20
383.4009505801
 30
0.0
 11
278.7164138507
 21
386.300954967
 31
0.0
  0
LINE
  5
88
330
1F
100
AcDbEntity
  8
0
  6
Continuous
 62
     7
370
    15
100
AcDbLine
 10
271.2108591448
 20
383.4009505801
 30
0.0
 11
271.2108591448
 21
386.300954967
 31
0.0
  0
LINE
  5
89
330
1F
100
AcDbEntity
  8
0
  6
Continuous
 62
     7
370
    15
100
AcDbLine
 10
271.2108591448
 20
386.300954967
 30
0.0
 11
274.9636364977
 21
386.300954967
 31
0.0
  0
LINE
  5
8A
330
1F
100
AcDbEntity
  8
0
  6
Continuous
 62
     7
370
    15
100
AcDbLine
 10
267.4580836545
 20
383.4009505801
 30
0.0
 11
267.4580836545
 21
386.300954967
 31
0.0
  0
LINE
  5
8B
330
1F
100
AcDbEntity
  8
0
  6
Continuous
 62
     7
370
    15
100
AcDbLine
 10
267.4580836545
 20
386.300954967
 30
0.0
 11
269.3344713997
 21
386.300954967
 31
0.0
  0
LINE
  5
8C
330
1F
100
AcDbEntity
  8
0
  6
Continuous
 62
     7
370
    15
100
AcDbLine
 10
269.3344713997
 20
386.300954967
 30
0.0
 11
271.2108591448
 21
386.300954967
 31
0.0
  0
LINE
  5
8D
330
1F
100
AcDbEntity
  8
0
  6
Continuous
 62
     7
370
    15
100
AcDbLine
 10
280.5928015958
 20
386.300954967
 30
0.0
 11
282.4691893409
 21
386.300954967
 31
0.0
  0
LINE
  5
8E
330
1F
100
AcDbEntity
  8
0
  6
Continuous
 62
     7
370
    15
100
AcDbLine
 10
282.4691893409
 20
383.4009505801
 30
0.0
 11
282.4691893409
 21
386.300954967
 31
0.0
  0
LINE
  5
8F
330
1F
100
AcDbEntity
  8
0
  6
Continuous
 62
     7
370
    15
100
AcDbLine
 10
278.7164138507
 20
386.300954967
 30
0.0
 11
280.5928015958
 21
386.300954967
 31
0.0
  0
LINE
  5
90
330
1F
100
AcDbEntity
  8
0
  6
Continuous
 62
     7
370
    15
100
AcDbLine
 10
324.4636362295
 20
386.300954967
 30
0.0
 11
328.2164135824
 21
386.300954967
 31
0.0
  0
LINE
  5
91
330
1F
100
AcDbEntity
  8
0
  6
Continuous
 62
     7
370
    15
100
AcDbLine
 10
328.2164135824
 20
383.4009505801
 30
0.0
 11
328.2164135824
 21
386.300954967
 31
0.0
  0
SPLINE
  5
92
330
1F
100
AcDbEntity
  8
0
  6
Continuous
 62
     7
370
    15
100
AcDbSpline
210
0.0
220
0.0
230
1.0
 70
     8
 71
     3
 72
    19
 73
    15
 74
     0
 42
0.00000001
 43
0.00000001
 40
0.0
 40
0.0
 40
0.0
 40
0.0
 40
0.0390832153120782
 40
0.0780297213998827
 40
0.138808906427283
 40
0.2381077684099134
 40
0.491042029608228
 40
0.6249648671991899
 40
0.761667912303798
 40
0.8316199269226602
 40
0.9020119163945441
 40
0.9480831259129759
 40
0.9875353964930035
 40
0.9999999999999999
 40
0.9999999999999999
 40
0.9999999999999999
 40
0.9999999999999999
 10
320.7108588765798
 20
383.4009505801156
 30
0.0
 10
320.723251915841
 20
383.2832299588537
 30
0.0
 10
320.7479946447369
 20
383.0482004914276
 30
0.0
 10
320.9595049117916
 20
382.6785248283509
 30
0.0
 10
321.4019275097884
 20
382.2655006446368
 30
0.0
 10
322.5529636993372
 20
381.7551569095666
 30
0.0
 10
324.0334234095881
 20
381.6345537781033
 30
0.0
 10
325.5994709838126
 20
381.6975835297476
 30
0.0
 10
326.6140365972735
 20
381.8810547319675
 30
0.0
 10
327.3847738421409
 20
382.200553164672
 30
0.0
 10
327.8458173729738
 20
382.5342692073398
 30
0.0
 10
328.1210627497525
 20
382.9202621196182
 30
0.0
 10
328.2097304454551
 20
383.2078419357678
 30
0.0
 10
328.2151196908439
 20
383.3635636984297
 30
0.0
 10
328.216413582438
 20
383.4009505801156
 30
0.0
  0
LINE
  5
93
330
1F
100
AcDbEntity
  8
0
  6
Continuous
 62
     7
370
    15
100
AcDbLine
 10
320.7108588766
 20
383.4009505801
 30
0.0
 11
320.7108588766
 21
386.300954967
 31
0.0
  0
LINE
  5
94
330
1F
100
AcDbEntity
  8
0
  6
Continuous
 62
     7
370
    15
100
AcDbLine
 10
320.7108588766
 20
386.300954967
 30
0.0
 11
324.4636362295
 21
386.300954967
 31
0.0
  0
SPLINE
  5
95
330
1F
100
AcDbEntity
  8
0
  6
Continuous
 62
     7
370
    15
100
AcDbSpline
210
0.0
220
0.0
230
1.0
 70
     8
 71
     3
 72
    19
 73
    15
 74
     0
 42
0.00000001
 43
0.00000001
 40
0.0
 40
0.0
 40
0.0
 40
0.0
 40
0.0390832244552633
 40
0.0780296725402259
 40
0.1388088561526676
 40
0.238107850540611
 40
0.491042029905261
 40
0.624964751641938
 40
0.7616678699213248
 40
0.831619868506787
 40
0.9020119636471261
 40
0.9480830637454453
 40
0.9875354079628512
 40
1.0
 40
1.0
 40
1.0
 40
1.0
 10
328.216413582438
 20
383.4009505801156
 30
0.0
 10
328.2226100701991
 20
383.2832300112501
 30
0.0
 10
328.2349813603787
 20
383.0482008505846
 30
0.0
 10
328.3407369235857
 20
382.6785244377231
 30
0.0
 10
328.56194643421
 20
382.2655004350717
 30
0.0
 10
329.1374665532799
 20
381.7551575614607
 30
0.0
 10
329.8776961869711
 20
381.6345535540323
 30
0.0
 10
330.6607185149205
 20
381.6975837836927
 30
0.0
 10
331.1680027964032
 20
381.881054324396
 30
0.0
 10
331.5533676559939
 20
382.200553776938
 30
0.0
 10
331.7838958212165
 20
382.5342679582654
 30
0.0
 10
331.9215091063103
 20
382.9202632314005
 30
0.0
 10
331.9658533136583
 20
383.2078415117949
 30
0.0
 10
331.9685432527646
 20
383.3635636801902
 30
0.0
 10
331.969189072722
 20
383.4009505801156
 30
0.0
  0
SPLINE
  5
96
330
1F
100
AcDbEntity
  8
0
  6
Continuous
 62
     7
370
    15
100
AcDbSpline
210
0.0
220
0.0
230
1.0
 70
     8
 71
     3
 72
    18
 73
    14
 74
     0
 42
0.00000001
 43
0.00000001
 40
0.0
 40
0.0
 40
0.0
 40
0.0
 40
0.0344337057050925
 40
0.0724914135346134
 40
0.1306345501224198
 40
0.2236186175518496
 40
0.4104356992124826
 40
0.5001957661865013
 40
0.737650697864692
 40
0.8568706967529507
 40
0.9094902477695934
 40
0.9625702671253975
 40
1.0
 40
1.0
 40
1.0
 40
1.0
 10
316.9580833862958
 20
383.4009505801156
 30
0.0
 10
316.9628803987016
 20
383.2973591488572
 30
0.0
 10
316.9729792888126
 20
383.0792737256295
 30
0.0
 10
317.0652772131712
 20
382.7239615106121
 30
0.0
 10
317.2681172935299
 20
382.315899740515
 30
0.0
 10
317.7307726749165
 20
381.8630337100264
 30
0.0
 10
318.2861237238697
 20
381.6947219770632
 30
0.0
 10
319.0549930698478
 20
381.6428665551814
 30
0.0
 10
319.7299031371483
 20
381.7418710542693
 30
0.0
 10
320.3142209972304
 20
382.1975438830223
 30
0.0
 10
320.5712155987482
 20
382.6403126468666
 30
0.0
 10
320.6911242830202
 20
383.0158979310574
 30
0.0
 10
320.7050853613533
 20
383.2883003081133
 30
0.0
 10
320.7108588765798
 20
383.4009505801156
 30
0.0
  0
LINE
  5
97
330
1F
100
AcDbEntity
  8
0
  6
Continuous
 62
     7
370
    15
100
AcDbLine
 10
319.6956874679
 20
381.400946527
 30
0.0
 11
329.9691906075
 21
381.400946527
 31
0.0
  0
LINE
  5
98
330
1F
100
AcDbEntity
  8
0
  6
Continuous
 62
     7
370
    15
100
AcDbLine
 10
318.9580837141
 20
381.400946527
 30
0.0
 11
319.6956874679
 21
381.400946527
 31
0.0
  0
LINE
  5
99
330
1F
100
AcDbEntity
  8
0
  6
Continuous
 62
     7
370
    15
100
AcDbLine
 10
330.0928013276
 20
386.300954967
 30
0.0
 11
331.9691890727
 21
386.300954967
 31
0.0
  0
LINE
  5
9A
330
1F
100
AcDbEntity
  8
0
  6
Continuous
 62
     7
370
    15
100
AcDbLine
 10
331.9691890727
 20
383.4009505801
 30
0.0
 11
331.9691890727
 21
386.300954967
 31
0.0
  0
LINE
  5
9B
330
1F
100
AcDbEntity
  8
0
  6
Continuous
 62
     7
370
    15
100
AcDbLine
 10
328.2164135824
 20
386.300954967
 30
0.0
 11
330.0928013276
 21
386.300954967
 31
0.0
  0
LINE
  5
9C
330
1F
100
AcDbEntity
  8
0
  6
Continuous
 62
     7
370
    15
100
AcDbLine
 10
316.9580833863
 20
383.4009505801
 30
0.0
 11
316.9580833863
 21
386.300954967
 31
0.0
  0
LINE
  5
9D
330
1F
100
AcDbEntity
  8
0
  6
Continuous
 62
     7
370
    15
100
AcDbLine
 10
316.9580833863
 20
386.300954967
 30
0.0
 11
318.8344711314
 21
386.300954967
 31
0.0
  0
LINE
  5
9E
330
1F
100
AcDbEntity
  8
0
  6
Continuous
 62
     7
370
    15
100
AcDbLine
 10
318.8344711314
 20
386.300954967
 30
0.0
 11
320.7108588766
 21
386.300954967
 31
0.0
  0
LINE
  5
9F
330
1F
100
AcDbEntity
  8
0
  6
Continuous
 62
     7
370
    15
100
AcDbLine
 10
222.7136367809
 20
399.3412293487
 30
0.0
 11
376.7136359464
 21
399.3412293487
 31
0.0
  0
LINE
  5
A0
330
1F
100
AcDbEntity
  8
0
  6
Continuous
 62
     7
370
    15
100
AcDbLine
 10
376.7136359464
 20
401.3336189084
 30
0.0
 11
222.7136367809
 21
401.3336189084
 31
0.0
  0
LINE
  5
A1
330
1F
100
AcDbEntity
  8
0
  6
Continuous
 62
     7
370
    15
100
AcDbLine
 10
376.7136359464
 20
401.3336189084
 30
0.0
 11
376.7136359464
 21
399.3412293487
 31
0.0
  0
LINE
  5
A2
330
1F
100
AcDbEntity
  8
0
  6
Continuous
 62
     7
370
    15
100
AcDbLine
 10
222.7136367809
 20
401.3336189084
 30
0.0
 11
222.7136367809
 21
399.3412293487
 31
0.0
  0
LINE
  5
A3
330
1F
100
AcDbEntity
  8
0
  6
Continuous
 62
     7
370
    15
100
AcDbLine
 10
222.7136367809
 20
441.3682855658
 30
0.0
 11
376.7136359464
 21
441.3682855658
 31
0.0
  0
LINE
  5
A4
330
1F
100
AcDbEntity
  8
0
  6
Continuous
 62
     7
370
    15
100
AcDbLine
 10
376.7136359464
 20
443.3606751256
 30
0.0
 11
222.7136367809
 21
443.3606751256
 31
0.0
  0
LINE
  5
A5
330
1F
100
AcDbEntity
  8
0
  6
Continuous
 62
     7
370
    15
100
AcDbLine
 10
376.7136359464
 20
443.3606751256
 30
0.0
 11
376.7136359464
 21
441.3682855658
 31
0.0
  0
LINE
  5
A6
330
1F
100
AcDbEntity
  8
0
  6
Continuous
 62
     7
370
    15
100
AcDbLine
 10
222.7136367809
 20
443.3606751256
 30
0.0
 11
222.7136367809
 21
441.3682855658
 31
0.0
  0
CIRCLE
  5
A7
330
1F
100
AcDbEntity
  8
0
  6
Continuous
 62
     7
370
    15
100
AcDbCircle
 10
311.7136363636
 20
437.1009504132
 30
0.0
 40
2.000000000000057
  0
CIRCLE
  5
A8
330
1F
100
AcDbEntity
  8
0
  6
Continuous
 62
     7
370
    15
100
AcDbCircle
 10
311.7136363636
 20
405.1009504132
 30
0.0
 40
2.000000000000057
  0
CIRCLE
  5
A9
330
1F
100
AcDbEntity
  8
0
  6
Continuous
 62
     7
370
    15
100
AcDbCircle
 10
323.7136363636
 20
422.8009504132
 30
0.0
 40
4.300000000000011
  0
CIRCLE
  5
AA
330
1F
100
AcDbEntity
  8
0
  6
Continuous
 62
     7
370
    15
100
AcDbCircle
 10
299.7136363636
 20
419.4009504132
 30
0.0
 40
4.300000000000011
  0
CIRCLE
  5
AB
330
1F
100
AcDbEntity
  8
0
  6
Continuous
 62
     7
370
    15
100
AcDbCircle
 10
299.7136363636
 20
437.1009504132
 30
0.0
 40
2.0
  0
CIRCLE
  5
AC
330
1F
100
AcDbEntity
  8
0
  6
Continuous
 62
     7
370
    15
100
AcDbCircle
 10
323.7136363636
 20
405.1009504132
 30
0.0
 40
2.0
  0
LINE
  5
AD
330
1F
100
AcDbEntity
  8
0
  6
Continuous
 62
     7
370
    15
100
AcDbLine
 10
376.7136359464
 20
441.3682855658
 30
0.0
 11
376.7136359464
 21
401.3336189084
 31
0.0
  0
LINE
  5
AE
330
1F
100
AcDbEntity
  8
0
  6
Continuous
 62
     7
370
    15
100
AcDbLine
 10
222.7136367809
 20
441.3682855658
 30
0.0
 11
222.7136367809
 21
401.3336189084
 31
0.0
  0
LINE
  5
AF
330
1F
100
AcDbEntity
  8
0
  6
Continuous
 62
     7
370
    15
100
AcDbLine
 10
222.7136367809
 20
398.7780548625
 30
0.0
 11
376.7136359464
 21
398.7780548625
 31
0.0
  0
LINE
  5
B0
330
1F
100
AcDbEntity
  8
0
  6
Continuous
 62
     7
370
    15
100
AcDbLine
 10
376.7136359464
 20
399.3412293487
 30
0.0
 11
376.7136359464
 21
398.7780548625
 31
0.0
  0
LINE
  5
B1
330
1F
100
AcDbEntity
  8
0
  6
Continuous
 62
     7
370
    15
100
AcDbLine
 10
222.7136367809
 20
399.3412293487
 30
0.0
 11
222.7136367809
 21
398.7780548625
 31
0.0
  0
LINE
  5
B2
330
1F
100
AcDbEntity
  8
0
  6
Continuous
 62
     7
370
    15
100
AcDbLine
 10
222.7136367809
 20
443.9075179391
 30
0.0
 11
376.7136359464
 21
443.9075179391
 31
0.0
  0
LINE
  5
B3
330
1F
100
AcDbEntity
  8
0
  6
Continuous
 62
     7
370
    15
100
AcDbLine
 10
376.7136359464
 20
443.9075179391
 30
0.0
 11
376.7136359464
 21
443.3606751256
 31
0.0
  0
LINE
  5
B4
330
1F
100
AcDbEntity
  8
0
  6
Continuous
 62
     7
370
    15
100
AcDbLine
 10
222.7136367809
 20
443.9075179391
 30
0.0
 11
222.7136367809
 21
443.3606751256
 31
0.0
  0
LINE
  5
B5
330
1F
100
AcDbEntity
  8
0
  6
Continuous
 62
     7
370
    15
100
AcDbLine
 10
222.7136367809
 20
447.8424973779
 30
0.0
 11
376.7136359464
 21
447.8424973779
 31
0.0
  0
LINE
  5
B6
330
1F
100
AcDbEntity
  8
0
  6
Continuous
 62
     7
370
    15
100
AcDbLine
 10
376.7136359464
 20
447.8424973779
 30
0.0
 11
376.7136359464
 21
443.9075179391
 31
0.0
  0
LINE
  5
B7
330
1F
100
AcDbEntity
  8
0
  6
Continuous
 62
     7
370
    15
100
AcDbLine
 10
222.7136367809
 20
447.8424973779
 30
0.0
 11
222.7136367809
 21
443.9075179391
 31
0.0
  0
LINE
  5
B8
330
1F
100
AcDbEntity
  8
0
  6
Continuous
 62
     7
370
    15
100
AcDbLine
 10
222.7136367809
 20
396.7507518821
 30
0.0
 11
376.7136359464
 21
396.7507518821
 31
0.0
  0
LINE
  5
B9
330
1F
100
AcDbEntity
  8
0
  6
Continuous
 62
     7
370
    15
100
AcDbLine
 10
376.7136359464
 20
398.7780548625
 30
0.0
 11
376.7136359464
 21
396.7507518821
 31
0.0
  0
LINE
  5
BA
330
1F
100
AcDbEntity
  8
0
  6
Continuous
 62
     7
370
    15
100
AcDbLine
 10
222.7136367809
 20
398.7780548625
 30
0.0
 11
222.7136367809
 21
396.7507518821
 31
0.0
  0
LINE
  5
BB
330
1F
100
AcDbEntity
  8
0
  6
Continuous
 62
     7
370
    15
100
AcDbLine
 10
216.8743708979
 20
435.3278018527
 30
0.0
 11
222.7136367809
 21
435.3589601808
 31
0.0
  0
LINE
  5
BC
330
1F
100
AcDbEntity
  8
0
  6
Continuous
 62
     7
370
    15
100
AcDbLine
 10
216.8743708979
 20
417.2449745231
 30
0.0
 11
222.7136367809
 21
417.2092713408
 31
0.0
  0
LINE
  5
BD
330
1F
100
AcDbEntity
  8
0
  6
Continuous
 62
     7
370
    15
100
AcDbLine
 10
216.8743708979
 20
435.3278018527
 30
0.0
 11
216.8743708979
 21
417.2449745231
 31
0.0
  0
LINE
  5
BE
330
1F
100
AcDbEntity
  8
0
  6
Continuous
 62
     7
370
    15
100
AcDbLine
 10
382.5529018294
 20
435.3278018527
 30
0.0
 11
376.7136359464
 21
435.3589601808
 31
0.0
  0
LINE
  5
BF
330
1F
100
AcDbEntity
  8
0
  6
Continuous
 62
     7
370
    15
100
AcDbLine
 10
382.5529018294
 20
417.2449745231
 30
0.0
 11
382.5529018294
 21
435.3278018527
 31
0.0
  0
LINE
  5
C0
330
1F
100
AcDbEntity
  8
0
  6
Continuous
 62
     7
370
    15
100
AcDbLine
 10
376.7136359464
 20
417.2092713408
 30
0.0
 11
382.5529018294
 21
417.2449745231
 31
0.0
  0
LINE
  5
C1
330
1F
100
AcDbEntity
  8
0
  6
Continuous
 62
     7
370
    15
100
AcDbLine
 10
215.4136398684
 20
426.900956779
 30
0.0
 11
215.4136398684
 21
417.5951518111
 31
0.0
  0
SPLINE
  5
C2
330
1F
100
AcDbEntity
  8
0
  6
Continuous
 62
     7
370
    15
100
AcDbSpline
210
0.0
220
0.0
230
1.0
 70
    24
 71
     3
 72
     9
 73
     5
 74
     0
 42
0.00000001
 43
0.00000001
 40
0.0
 40
0.0
 40
0.0
 40
0.0
 40
0.5000003005249044
 40
1.0
 40
1.0
 40
1.0
 40
1.0
 10
215.4136398683723
 20
435.0221939377736
 30
0.0
 10
215.4136398683723
 20
433.6794171860686
 30
0.0
 10
215.4136398683723
 20
430.9938652968091
 30
0.0
 10
215.4136398683724
 20
428.2652590715924
 30
0.0
 10
215.4136398683724
 20
426.9009567789983
 30
0.0
  0
ARC
  5
C3
330
1F
100
AcDbEntity
  8
0
  6
Continuous
 62
     7
370
    15
100
AcDbCircle
 10
216.5319977062
 20
433.32048956
 30
0.0
 40
2.036301068751619
100
AcDbArc
 50
80.3206065496
 51
123.3128637764
  0
ARC
  5
C4
330
1F
100
AcDbEntity
  8
0
  6
Continuous
 62
     7
370
    15
100
AcDbCircle
 10
216.5371465572
 20
419.0600139336
 30
0.0
 40
1.846100841667435
100
AcDbArc
 50
232.5128419501
 51
280.52522699
  0
SPLINE
  5
C5
330
1F
100
AcDbEntity
  8
0
  6
Continuous
 62
     7
370
    15
100
AcDbSpline
210
0.0
220
0.0
230
1.0
 70
    24
 71
     3
 72
    11
 73
     7
 74
     0
 42
0.00000001
 43
0.00000001
 40
0.0
 40
0.0
 40
0.0
 40
0.0
 40
0.2499585302802623
 40
0.5005248915405738
 40
0.7501021212792864
 40
1.0
 40
1.0
 40
1.0
 40
1.0
 10
384.0136328588661
 20
417.5951518111186
 30
0.0
 10
384.0136328588661
 20
419.0296374953052
 30
0.0
 10
384.0136328588661
 20
421.902097141667
 30
0.0
 10
384.0136328588661
 20
426.2963867301125
 30
0.0
 10
384.0136328588661
 20
430.6964769039027
 30
0.0
 10
384.0136328588661
 20
433.5796712832304
 30
0.0
 10
384.0136328588661
 20
435.0221939377742
 30
0.0
  0
ARC
  5
C6
330
1F
100
AcDbEntity
  8
0
  6
Continuous
 62
     7
370
    15
100
AcDbCircle
 10
382.89012617
 20
419.0600139336
 30
0.0
 40
1.846100841667385
100
AcDbArc
 50
259.47477301
 51
307.4871580499
  0
ARC
  5
C7
330
1F
100
AcDbEntity
  8
0
  6
Continuous
 62
     7
370
    15
100
AcDbCircle
 10
382.895275021
 20
433.3204895601
 30
0.0
 40
2.036301068751666
100
AcDbArc
 50
56.6871362236
 51
99.6793934504
  0
LINE
  5
C8
330
1F
100
AcDbEntity
  8
0
  6
Continuous
 62
     7
370
    15
100
AcDbLine
 10
222.7136367809
 20
391.7009569697
 30
0.0
 11
251.7136359464
 21
391.7009569697
 31
0.0
  0
LINE
  5
C9
330
1F
100
AcDbEntity
  8
0
  6
Continuous
 62
     7
370
    15
100
AcDbLine
 10
347.7136367809
 20
391.7009569697
 30
0.0
 11
376.7136359464
 21
391.7009569697
 31
0.0
  0
LINE
  5
CA
330
1F
100
AcDbEntity
  8
0
  6
Continuous
 62
     7
370
    15
100
AcDbLine
 10
376.7136359464
 20
393.7358595424
 30
0.0
 11
222.7136367809
 21
393.7358595424
 31
0.0
  0
LINE
  5
CB
330
1F
100
AcDbEntity
  8
0
  6
Continuous
 62
     7
370
    15
100
AcDbLine
 10
376.7136359464
 20
393.7358595424
 30
0.0
 11
376.7136359464
 21
391.7009569697
 31
0.0
  0
LINE
  5
CC
330
1F
100
AcDbEntity
  8
0
  6
Continuous
 62
     7
370
    15
100
AcDbLine
 10
222.7136367809
 20
393.7358595424
 30
0.0
 11
222.7136367809
 21
391.7009569697
 31
0.0
  0
LINE
  5
CD
330
1F
100
AcDbEntity
  8
0
  6
Continuous
 62
     7
370
    15
100
AcDbLine
 10
376.7136359464
 20
396.7507518821
 30
0.0
 11
376.7136359464
 21
393.7358595424
 31
0.0
  0
LINE
  5
CE
330
1F
100
AcDbEntity
  8
0
  6
Continuous
 62
     7
370
    15
100
AcDbLine
 10
222.7136367809
 20
396.7507518821
 30
0.0
 11
222.7136367809
 21
393.7358595424
 31
0.0
  0
LINE
  5
CF
330
1F
100
AcDbEntity
  8
0
  6
Continuous
 62
     7
370
    15
100
AcDbLine
 10
216.8743708979
 20
456.6272385411
 30
0.0
 11
216.8743708979
 21
435.3278018527
 31
0.0
  0
SPLINE
  5
D0
330
1F
100
AcDbEntity
  8
0
  6
Continuous
 62
     7
370
    15
100
AcDbSpline
210
0.0
220
0.0
230
1.0
 70
     8
 71
     3
 72
     9
 73
     5
 74
     0
 42
0.00000001
 43
0.00000001
 40
0.0
 40
0.0
 40
0.0
 40
0.0
 40
0.3935754048000664
 40
1.0
 40
1.0
 40
1.0
 40
1.0
 10
220.4136351000007
 20
456.7678607993078
 30
0.0
 10
219.9492334158663
 20
456.7516634167418
 30
0.0
 10
218.7692773554253
 20
456.7105089584893
 30
0.0
 10
217.5896972722987
 20
456.6586730879376
 30
0.0
 10
216.8743708978828
 20
456.6272385411214
 30
0.0
  0
LINE
  5
D1
330
1F
100
AcDbEntity
  8
0
  6
Continuous
 62
     7
370
    15
100
AcDbLine
 10
220.4136351
 20
461.1788727336
 30
0.0
 11
220.4136351
 21
456.7678607993
 31
0.0
  0
SPLINE
  5
D2
330
1F
100
AcDbEntity
  8
0
  6
Continuous
 62
     7
370
    15
100
AcDbSpline
210
0.0
220
0.0
230
1.0
 70
     8
 71
     3
 72
     9
 73
     5
 74
     0
 42
0.00000001
 43
0.00000001
 40
0.0
 40
0.0
 40
0.0
 40
0.0
 40
0.3261576344156082
 40
0.9999999999999999
 40
0.9999999999999999
 40
0.9999999999999999
 40
0.9999999999999999
 10
216.8743708978827
 20
461.2817205481481
 30
0.0
 10
217.2590695763924
 20
461.2681894335466
 30
0.0
 10
218.4385565419482
 20
461.226703007433
 30
0.0
 10
219.6185234245303
 20
461.1981278710711
 30
0.0
 10
220.4136351000006
 20
461.1788727335882
 30
0.0
  0
LINE
  5
D3
330
1F
100
AcDbEntity
  8
0
  6
Continuous
 62
     7
370
    15
100
AcDbLine
 10
216.8743708979
 20
464.2562009387
 30
0.0
 11
216.8743708979
 21
461.2817205481
 31
0.0
  0
LINE
  5
D4
330
1F
100
AcDbEntity
  8
0
  6
Continuous
 62
     7
370
    15
100
AcDbLine
 10
216.8743708979
 20
464.2562009387
 30
0.0
 11
222.7136367809
 21
464.4091166549
 31
0.0
  0
LINE
  5
D5
330
1F
100
AcDbEntity
  8
0
  6
Continuous
 62
     7
370
    15
100
AcDbLine
 10
379.0136376272
 20
456.7678607993
 30
0.0
 11
379.0136376272
 21
461.1788727336
 31
0.0
  0
SPLINE
  5
D6
330
1F
100
AcDbEntity
  8
0
  6
Continuous
 62
     7
370
    15
100
AcDbSpline
210
0.0
220
0.0
230
1.0
 70
     8
 71
     3
 72
     9
 73
     5
 74
     0
 42
0.00000001
 43
0.00000001
 40
0.0
 40
0.0
 40
0.0
 40
0.0
 40
0.3261575386455923
 40
1.0
 40
1.0
 40
1.0
 40
1.0
 10
382.5529018293555
 20
456.627238541122
 30
0.0
 10
382.1682031234945
 20
456.6448714697744
 30
0.0
 10
380.9887157277454
 20
456.6989340823563
 30
0.0
 10
379.8087491860258
 20
456.7401128184342
 30
0.0
 10
379.0136376272376
 20
456.7678607993083
 30
0.0
  0
LINE
  5
D7
330
1F
100
AcDbEntity
  8
0
  6
Continuous
 62
     7
370
    15
100
AcDbLine
 10
382.5529018294
 20
435.3278018527
 30
0.0
 11
382.5529018294
 21
456.6272385411
 31
0.0
  0
LINE
  5
D8
330
1F
100
AcDbEntity
  8
0
  6
Continuous
 62
     7
370
    15
100
AcDbLine
 10
376.7136359464
 20
464.4091166549
 30
0.0
 11
382.5529018294
 21
464.2562009387
 31
0.0
  0
LINE
  5
D9
330
1F
100
AcDbEntity
  8
0
  6
Continuous
 62
     7
370
    15
100
AcDbLine
 10
382.5529018294
 20
461.2817205481
 30
0.0
 11
382.5529018294
 21
464.2562009387
 31
0.0
  0
SPLINE
  5
DA
330
1F
100
AcDbEntity
  8
0
  6
Continuous
 62
     7
370
    15
100
AcDbSpline
210
0.0
220
0.0
230
1.0
 70
     8
 71
     3
 72
     9
 73
     5
 74
     0
 42
0.00000001
 43
0.00000001
 40
0.0
 40
0.0
 40
0.0
 40
0.0
 40
0.3935753824039972
 40
1.0
 40
1.0
 40
1.0
 40
1.0
 10
379.0136376272376
 20
461.1788727335887
 30
0.0
 10
379.4780393199441
 20
461.1901125352854
 30
0.0
 10
380.6579954693099
 20
461.2186707281989
 30
0.0
 10
381.8375754752994
 20
461.2579192676319
 30
0.0
 10
382.5529018293555
 20
461.2817205481487
 30
0.0
  0
SPLINE
  5
DB
330
1F
100
AcDbEntity
  8
0
  6
Continuous
 62
     7
370
    15
100
AcDbSpline
210
0.0
220
0.0
230
1.0
 70
    24
 71
     1
 72
     4
 73
     2
 74
     0
 42
0.00000001
 43
0.00000001
 40
0.0
 40
0.0
 40
1.0
 40
1.0
 10
215.4772752772506
 20
456.5468318753194
 30
0.0
 10
215.4136398683723
 20
455.8139778666448
 30
0.0
  0
SPLINE
  5
DC
330
1F
100
AcDbEntity
  8
0
  6
Continuous
 62
     7
370
    15
100
AcDbSpline
210
0.0
220
0.0
230
1.0
 70
     8
 71
     3
 72
    15
 73
    11
 74
     0
 42
0.00000001
 43
0.00000001
 40
0.0
 40
0.0
 40
0.0
 40
0.0
 40
0.0717201582935023
 40
0.2907709821802957
 40
0.5089958934196105
 40
0.6521923107853275
 40
0.7677916785516988
 40
0.8640154389358167
 40
0.960567909604767
 40
1.0
 40
1.0
 40
1.0
 40
1.0
 10
216.8743708978828
 20
456.6272385411214
 30
0.0
 10
216.8253480769669
 20
456.6328356512205
 30
0.0
 10
216.6265976262414
 20
456.6555276981934
 30
0.0
 10
216.3336057229579
 20
456.8329441654273
 30
0.0
 10
216.0090901145908
 20
456.9397387069583
 30
0.0
 10
215.7751761913257
 20
456.9584555528692
 30
0.0
 10
215.6309567998778
 20
456.9013939041466
 30
0.0
 10
215.5395422920188
 20
456.7877119000615
 30
0.0
 10
215.4961226306305
 20
456.6592929218605
 30
0.0
 10
215.4815119932978
 20
456.572112110213
 30
0.0
 10
215.4772752772506
 20
456.5468318753194
 30
0.0
  0
LINE
  5
DD
330
1F
100
AcDbEntity
  8
0
  6
Continuous
 62
     7
370
    15
100
AcDbLine
 10
215.4136398684
 20
455.8139778666
 30
0.0
 11
215.4136398684
 21
435.0221939378
 31
0.0
  0
SPLINE
  5
DE
330
1F
100
AcDbEntity
  8
0
  6
Continuous
 62
     7
370
    15
100
AcDbSpline
210
0.0
220
0.0
230
1.0
 70
     8
 71
     3
 72
    15
 73
    11
 74
     0
 42
0.00000001
 43
0.00000001
 40
0.0
 40
0.0
 40
0.0
 40
0.0
 40
0.0717201582935023
 40
0.2907709821802957
 40
0.5089958934196105
 40
0.6521923107853275
 40
0.7677916785516988
 40
0.8640154389358167
 40
0.960567909604767
 40
1.0
 40
1.0
 40
1.0
 40
1.0
 10
382.5529018293555
 20
456.627238541122
 30
0.0
 10
382.6019246502713
 20
456.6328356512211
 30
0.0
 10
382.8006751009968
 20
456.655527698194
 30
0.0
 10
383.0936670042803
 20
456.8329441654279
 30
0.0
 10
383.4181826126475
 20
456.9397387069589
 30
0.0
 10
383.6520965359126
 20
456.9584555528699
 30
0.0
 10
383.7963159273605
 20
456.9013939041473
 30
0.0
 10
383.8877304352195
 20
456.7877119000621
 30
0.0
 10
383.9311500966078
 20
456.6592929218611
 30
0.0
 10
383.9457607339405
 20
456.5721121102136
 30
0.0
 10
383.9499974499877
 20
456.54683187532
 30
0.0
  0
SPLINE
  5
DF
330
1F
100
AcDbEntity
  8
0
  6
Continuous
 62
     7
370
    15
100
AcDbSpline
210
0.0
220
0.0
230
1.0
 70
    24
 71
     1
 72
     4
 73
     2
 74
     0
 42
0.00000001
 43
0.00000001
 40
0.0
 40
0.0
 40
1.0
 40
1.0
 10
384.013632858866
 20
455.8139778666454
 30
0.0
 10
383.9499974499877
 20
456.54683187532
 30
0.0
  0
LINE
  5
E0
330
1F
100
AcDbEntity
  8
0
  6
Continuous
 62
     7
370
    15
100
AcDbLine
 10
384.0136328589
 20
435.0221939378
 30
0.0
 11
384.0136328589
 21
455.8139778666
 31
0.0
  0
LINE
  5
E1
330
1F
100
AcDbEntity
  8
0
  6
Continuous
 62
     7
370
    15
100
AcDbLine
 10
382.5529018294
 20
393.4862650924
 30
0.0
 11
382.5529018294
 21
417.2449745231
 31
0.0
  0
LINE
  5
E2
330
1F
100
AcDbEntity
  8
0
  6
Continuous
 62
     7
370
    15
100
AcDbLine
 10
376.7136359464
 20
393.3333493762
 30
0.0
 11
382.5529018294
 21
393.4862650924
 31
0.0
  0
LINE
  5
E3
330
1F
100
AcDbEntity
  8
0
  6
Continuous
 62
     7
370
    15
100
AcDbLine
 10
216.8743708979
 20
393.4862650924
 30
0.0
 11
222.7136367809
 21
393.3333493762
 31
0.0
  0
LINE
  5
E4
330
1F
100
AcDbEntity
  8
0
  6
Continuous
 62
     7
370
    15
100
AcDbLine
 10
216.8743708979
 20
417.2449745231
 30
0.0
 11
216.8743708979
 21
393.4862650924
 31
0.0
  0
LINE
  5
E5
330
1F
100
AcDbEntity
  8
0
  6
Continuous
 62
     7
370
    15
100
AcDbLine
 10
384.0136328589
 20
393.8364423804
 30
0.0
 11
384.0136328589
 21
417.5951518111
 31
0.0
  0
SPLINE
  5
E6
330
1F
100
AcDbEntity
  8
0
  6
Continuous
 62
     7
370
    15
100
AcDbSpline
210
0.0
220
0.0
230
1.0
 70
     8
 71
     3
 72
    11
 73
     7
 74
     0
 42
0.00000001
 43
0.00000001
 40
0.0
 40
0.0
 40
0.0
 40
0.0
 40
0.2499990469014109
 40
0.5000006236904482
 40
0.750000876555083
 40
0.9999999999999999
 40
0.9999999999999999
 40
0.9999999999999999
 40
0.9999999999999999
 10
382.5529018293557
 20
393.4862650923686
 30
0.0
 10
382.7455415828488
 20
393.4925318292483
 30
0.0
 10
383.1308230392702
 20
393.5050653664243
 30
0.0
 10
383.6123630481851
 20
393.5864815051681
 30
0.0
 10
383.9482785244063
 20
393.7010298975088
 30
0.0
 10
383.9918481135185
 20
393.7913049540913
 30
0.0
 10
384.0136328588662
 20
393.836442380424
 30
0.0
  0
LINE
  5
E7
330
1F
100
AcDbEntity
  8
0
  6
Continuous
 62
     7
370
    15
100
AcDbLine
 10
215.4136398684
 20
417.5951518111
 30
0.0
 11
215.4136398684
 21
393.8364423804
 31
0.0
  0
SPLINE
  5
E8
330
1F
100
AcDbEntity
  8
0
  6
Continuous
 62
     7
370
    15
100
AcDbSpline
210
0.0
220
0.0
230
1.0
 70
     8
 71
     3
 72
    11
 73
     7
 74
     0
 42
0.00000001
 43
0.00000001
 40
0.0
 40
0.0
 40
0.0
 40
0.0
 40
0.2499991234449171
 40
0.4999993763095518
 40
0.750000953098589
 40
0.9999999999999999
 40
0.9999999999999999
 40
0.9999999999999999
 40
0.9999999999999999
 10
215.4136398683725
 20
393.8364423804235
 30
0.0
 10
215.4354246137202
 20
393.7913049540908
 30
0.0
 10
215.4789942028324
 20
393.7010298975081
 30
0.0
 10
215.8149096790536
 20
393.5864815051675
 30
0.0
 10
216.2964496879684
 20
393.5050653664237
 30
0.0
 10
216.6817311443898
 20
393.4925318292477
 30
0.0
 10
216.874370897883
 20
393.4862650923681
 30
0.0
  0
LINE
  5
E9
330
1F
100
AcDbEntity
  8
0
  6
Continuous
 62
     7
370
    15
100
AcDbLine
 10
222.7136367809
 20
464.8193456225
 30
0.0
 11
376.7136359464
 21
464.8193456225
 31
0.0
  0
LINE
  5
EA
330
1F
100
AcDbEntity
  8
0
  6
Continuous
 62
     7
370
    15
100
AcDbLine
 10
376.7136359464
 20
464.8193456225
 30
0.0
 11
376.7136359464
 21
447.8424973779
 31
0.0
  0
LINE
  5
EB
330
1F
100
AcDbEntity
  8
0
  6
Continuous
 62
     7
370
    15
100
AcDbLine
 10
222.7136367809
 20
464.8193456225
 30
0.0
 11
222.7136367809
 21
447.8424973779
 31
0.0
  0
SPLINE
  5
EC
330
1F
100
AcDbEntity
  8
0
  6
Continuous
 62
     7
370
    15
100
AcDbSpline
210
0.0
220
0.0
230
1.0
 70
     8
 71
     3
 72
    15
 73
    11
 74
     0
 42
0.00000001
 43
0.00000001
 40
0.0
 40
0.0
 40
0.0
 40
0.0
 40
0.0064135613662394
 40
0.0860676469084287
 40
0.3399063348020275
 40
0.546855600561762
 40
0.6832070465972154
 40
0.7924616111272901
 40
0.9024270327883828
 40
1.0
 40
1.0
 40
1.0
 40
1.0
 10
382.5529018293555
 20
461.2817205481487
 30
0.0
 10
382.557297470264
 20
461.2818365621098
 30
0.0
 10
382.6162853629559
 20
461.2833934270207
 30
0.0
 10
382.8443770944934
 20
461.211576244893
 30
0.0
 10
383.1522072886648
 20
461.0049088549827
 30
0.0
 10
383.4794120842863
 20
460.8193105032004
 30
0.0
 10
383.6932764297101
 20
460.729590356353
 30
0.0
 10
383.8281254626049
 20
460.7219067280817
 30
0.0
 10
383.9125738549785
 20
460.7828949888569
 30
0.0
 10
383.9380295860064
 20
460.8809959966275
 30
0.0
 10
383.9499974499877
 20
460.9271176152187
 30
0.0
  0
SPLINE
  5
ED
330
1F
100
AcDbEntity
  8
0
  6
Continuous
 62
     7
370
    15
100
AcDbSpline
210
0.0
220
0.0
230
1.0
 70
     8
 71
     3
 72
    15
 73
    11
 74
     0
 42
0.00000001
 43
0.00000001
 40
0.0
 40
0.0
 40
0.0
 40
0.0
 40
0.0885158855875776
 40
0.1769411378713458
 40
0.268309683995762
 40
0.3961926676720193
 40
0.5755497359364812
 40
0.8430860882844632
 40
0.9422965510031799
 40
1.0
 40
1.0
 40
1.0
 40
1.0
 10
215.4772752772506
 20
460.9271176152181
 30
0.0
 10
215.4879106757535
 20
460.8848449505837
 30
0.0
 10
215.5091705829478
 20
460.8003429051982
 30
0.0
 10
215.5738962582053
 20
460.7359159759777
 30
0.0
 10
215.6779033647491
 20
460.718953791858
 30
0.0
 10
215.8532745533806
 20
460.7725660852139
 30
0.0
 10
216.1532000209621
 20
460.9347319592506
 30
0.0
 10
216.4667470050722
 20
461.1265197780451
 30
0.0
 10
216.7267620991369
 20
461.2680073208857
 30
0.0
 10
216.8346838158981
 20
461.278033518789
 30
0.0
 10
216.8743708978827
 20
461.2817205481481
 30
0.0
  0
SPLINE
  5
EE
330
1F
100
AcDbEntity
  8
0
  6
Continuous
 62
     7
370
    15
100
AcDbSpline
210
0.0
220
0.0
230
1.0
 70
    24
 71
     1
 72
     4
 73
     2
 74
     0
 42
0.00000001
 43
0.00000001
 40
0.0
 40
0.0
 40
1.0
 40
1.0
 10
215.4136398683722
 20
461.4837653927755
 30
0.0
 10
215.4772752772506
 20
460.9271176152181
 30
0.0
  0
SPLINE
  5
EF
330
1F
100
AcDbEntity
  8
0
  6
Continuous
 62
     7
370
    15
100
AcDbSpline
210
0.0
220
0.0
230
1.0
 70
     8
 71
     3
 72
    11
 73
     7
 74
     0
 42
0.00000001
 43
0.00000001
 40
0.0
 40
0.0
 40
0.0
 40
0.0
 40
0.2499988483805212
 40
0.5000007746485685
 40
0.7500008222212621
 40
1.0
 40
1.0
 40
1.0
 40
1.0
 10
216.8743708978827
 20
464.2562009386968
 30
0.0
 10
216.6817310343818
 20
464.2507343313737
 30
0.0
 10
216.2964489356737
 20
464.2398010494249
 30
0.0
 10
215.8149103350331
 20
464.1687346897006
 30
0.0
 10
215.4789939794138
 20
464.06876980007
 30
0.0
 10
215.4354245467884
 20
463.9899852368537
 30
0.0
 10
215.4136398683722
 20
463.9505930237722
 30
0.0
  0
LINE
  5
F0
330
1F
100
AcDbEntity
  8
0
  6
Continuous
 62
     7
370
    15
100
AcDbLine
 10
215.4136398684
 20
463.9505930238
 30
0.0
 11
215.4136398684
 21
461.4837653928
 31
0.0
  0
SPLINE
  5
F1
330
1F
100
AcDbEntity
  8
0
  6
Continuous
 62
     7
370
    15
100
AcDbSpline
210
0.0
220
0.0
230
1.0
 70
     8
 71
     3
 72
    11
 73
     7
 74
     0
 42
0.00000001
 43
0.00000001
 40
0.0
 40
0.0
 40
0.0
 40
0.0
 40
0.249999177778738
 40
0.4999992253514315
 40
0.7500011516194789
 40
1.0
 40
1.0
 40
1.0
 40
1.0
 10
384.0136328588659
 20
463.9505930237727
 30
0.0
 10
383.9918481804498
 20
463.9899852368544
 30
0.0
 10
383.9482787478244
 20
464.0687698000706
 30
0.0
 10
383.6123623922051
 20
464.1687346897012
 30
0.0
 10
383.1308237915645
 20
464.2398010494255
 30
0.0
 10
382.7455416928564
 20
464.2507343313743
 30
0.0
 10
382.5529018293554
 20
464.2562009386974
 30
0.0
  0
SPLINE
  5
F2
330
1F
100
AcDbEntity
  8
0
  6
Continuous
 62
     7
370
    15
100
AcDbSpline
210
0.0
220
0.0
230
1.0
 70
    24
 71
     1
 72
     4
 73
     2
 74
     0
 42
0.00000001
 43
0.00000001
 40
0.0
 40
0.0
 40
1.0
 40
1.0
 10
383.9499974499877
 20
460.9271176152187
 30
0.0
 10
384.013632858866
 20
461.483765392776
 30
0.0
  0
LINE
  5
F3
330
1F
100
AcDbEntity
  8
0
  6
Continuous
 62
     7
370
    15
100
AcDbLine
 10
384.0136328589
 20
461.4837653928
 30
0.0
 11
384.0136328589
 21
463.9505930238
 31
0.0
  0
LINE
  5
F4
330
1F
100
AcDbEntity
  8
0
  6
Continuous
 62
     7
370
    15
100
AcDbLine
 10
384.0136328589
 20
462.5755585723
 30
0.0
 11
384.0136328589
 21
460.870523005
 31
0.0
  0
LINE
  5
F5
330
1F
100
AcDbEntity
  8
0
  6
Continuous
 62
     7
370
    15
100
AcDbLine
 10
384.0136328589
 20
454.900953918
 30
0.0
 11
384.0136328589
 21
453.2263465219
 31
0.0
  0
LINE
  5
F6
330
1F
100
AcDbEntity
  8
0
  6
Continuous
 62
     7
370
    15
100
AcDbLine
 10
215.4136398684
 20
453.2263465218
 30
0.0
 11
215.4136398684
 21
454.900953918
 31
0.0
  0
LINE
  5
F7
330
1F
100
AcDbEntity
  8
0
  6
Continuous
 62
     7
370
    15
100
AcDbLine
 10
215.4136398684
 20
460.9107114367
 30
0.0
 11
215.4136398684
 21
462.5755585723
 31
0.0
  0
LINE
  5
F8
330
1F
100
AcDbEntity
  8
0
  6
Continuous
 62
     7
370
    15
100
AcDbLine
 10
376.7136359464
 20
466.4009548717
 30
0.0
 11
222.7136367809
 21
466.4009548716
 31
0.0
  0
LINE
  5
F9
330
1F
100
AcDbEntity
  8
0
  6
Continuous
 62
     7
370
    15
100
AcDbLine
 10
376.7136359464
 20
466.4009548717
 30
0.0
 11
376.7136359464
 21
464.8193456225
 31
0.0
  0
LINE
  5
FA
330
1F
100
AcDbEntity
  8
0
  6
Continuous
 62
     7
370
    15
100
AcDbLine
 10
222.7136367809
 20
466.4009548716
 30
0.0
 11
222.7136367809
 21
464.8193456225
 31
0.0
  0
LINE
  5
FB
330
1F
100
AcDbEntity
  8
0
  6
Continuous
 62
     7
370
    15
100
AcDbLine
 10
216.8743708979
 20
391.9538594775
 30
0.0
 11
222.7136367809
 21
391.8009437613
 31
0.0
  0
SPLINE
  5
FC
330
1F
100
AcDbEntity
  8
0
  6
Continuous
 62
     7
370
    15
100
AcDbSpline
210
0.0
220
0.0
230
1.0
 70
     8
 71
     3
 72
     9
 73
     5
 74
     0
 42
0.00000001
 43
0.00000001
 40
0.0
 40
0.0
 40
0.0
 40
0.0
 40
0.5096097570244783
 40
1.0
 40
1.0
 40
1.0
 40
1.0
 10
216.874370897883
 20
391.9538594775152
 30
0.0
 10
216.8712262373166
 20
391.9741151148137
 30
0.0
 10
216.8650555144783
 20
392.0138624646619
 30
0.0
 10
216.8641121360034
 20
392.2617195455288
 30
0.0
 10
216.863649512404
 20
392.3832662396383
 30
0.0
  0
SPLINE
  5
FD
330
1F
100
AcDbEntity
  8
0
  6
Continuous
 62
     7
370
    15
100
AcDbSpline
210
0.0
220
0.0
230
1.0
 70
     8
 71
     3
 72
     9
 73
     5
 74
     0
 42
0.00000001
 43
0.00000001
 40
0.0
 40
0.0
 40
0.0
 40
0.0
 40
0.4903813329867179
 40
1.0
 40
1.0
 40
1.0
 40
1.0
 10
216.863649512404
 20
392.3832662396383
 30
0.0
 10
216.8641121662631
 20
392.534072941797
 30
0.0
 10
216.865055623585
 20
392.8416023928881
 30
0.0
 10
216.8712262377285
 20
393.2686391761277
 30
0.0
 10
216.874370897883
 20
393.4862650923681
 30
0.0
  0
LINE
  5
FE
330
1F
100
AcDbEntity
  8
0
  6
Continuous
 62
     7
370
    15
100
AcDbLine
 10
376.7136359464
 20
391.8009437613
 30
0.0
 11
382.5529018294
 21
391.9538594775
 31
0.0
  0
SPLINE
  5
FF
330
1F
100
AcDbEntity
  8
0
  6
Continuous
 62
     7
370
    15
100
AcDbSpline
210
0.0
220
0.0
230
1.0
 70
     8
 71
     3
 72
     9
 73
     5
 74
     0
 42
0.00000001
 43
0.00000001
 40
0.0
 40
0.0
 40
0.0
 40
0.0
 40
0.5096186670132821
 40
1.0
 40
1.0
 40
1.0
 40
1.0
 10
382.5529018293557
 20
393.4862650923686
 30
0.0
 10
382.5560464895103
 20
393.2686391761284
 30
0.0
 10
382.5622171036537
 20
392.8416023928887
 30
0.0
 10
382.5631605609756
 20
392.5340729417975
 30
0.0
 10
382.5636232148347
 20
392.3832662396388
 30
0.0
  0
SPLINE
  5
100
330
1F
100
AcDbEntity
  8
0
  6
Continuous
 62
     7
370
    15
100
AcDbSpline
210
0.0
220
0.0
230
1.0
 70
     8
 71
     3
 72
     9
 73
     5
 74
     0
 42
0.00000001
 43
0.00000001
 40
0.0
 40
0.0
 40
0.0
 40
0.0
 40
0.4903824229748813
 40
1.0
 40
1.0
 40
1.0
 40
1.0
 10
382.5636232148347
 20
392.3832662396388
 30
0.0
 10
382.5631605646773
 20
392.2617195289989
 30
0.0
 10
382.562217117001
 20
392.0138584619107
 30
0.0
 10
382.5560464895606
 20
391.974113969459
 30
0.0
 10
382.5529018293557
 20
391.9538594775157
 30
0.0
  0
LINE
  5
101
330
1F
100
AcDbEntity
  8
0
  6
Continuous
 62
     7
370
    15
100
AcDbLine
 10
222.7136367809
 20
466.0009481006
 30
0.0
 11
216.8743708979
 21
465.8480472856
 31
0.0
  0
SPLINE
  5
102
330
1F
100
AcDbEntity
  8
0
  6
Continuous
 62
     7
370
    15
100
AcDbSpline
210
0.0
220
0.0
230
1.0
 70
     8
 71
     3
 72
     9
 73
     5
 74
     0
 42
0.00000001
 43
0.00000001
 40
0.0
 40
0.0
 40
0.0
 40
0.0
 40
0.5100812550666306
 40
1.0
 40
1.0
 40
1.0
 40
1.0
 10
216.8743708978827
 20
464.2562009386968
 30
0.0
 10
216.8710424234057
 20
464.4811485013367
 30
0.0
 10
216.86451704251
 20
464.9221518912978
 30
0.0
 10
216.8635247214722
 20
465.2426022176991
 30
0.0
 10
216.8630385647948
 20
465.3995968394231
 30
0.0
  0
SPLINE
  5
103
330
1F
100
AcDbEntity
  8
0
  6
Continuous
 62
     7
370
    15
100
AcDbSpline
210
0.0
220
0.0
230
1.0
 70
     8
 71
     3
 72
     9
 73
     5
 74
     0
 42
0.00000001
 43
0.00000001
 40
0.0
 40
0.0
 40
0.0
 40
0.0
 40
0.4899203737623068
 40
0.9999999999999999
 40
0.9999999999999999
 40
0.9999999999999999
 40
0.9999999999999999
 10
216.8630385647948
 20
465.3995968394231
 30
0.0
 10
216.863524715632
 20
465.5263490307586
 30
0.0
 10
216.8645170214499
 20
465.7850690149105
 30
0.0
 10
216.8710424233304
 20
465.8267742796841
 30
0.0
 10
216.8743708978827
 20
465.848047285552
 30
0.0
  0
LINE
  5
104
330
1F
100
AcDbEntity
  8
0
  6
Continuous
 62
     7
370
    15
100
AcDbLine
 10
376.7136359464
 20
466.0009481006
 30
0.0
 11
382.5529018294
 21
465.8480472856
 31
0.0
  0
SPLINE
  5
105
330
1F
100
AcDbEntity
  8
0
  6
Continuous
 62
     7
370
    15
100
AcDbSpline
210
0.0
220
0.0
230
1.0
 70
     8
 71
     3
 72
     9
 73
     5
 74
     0
 42
0.00000001
 43
0.00000001
 40
0.0
 40
0.0
 40
0.0
 40
0.0
 40
0.5100720061295035
 40
1.0
 40
1.0
 40
1.0
 40
1.0
 10
382.5529018293554
 20
465.8480472855525
 30
0.0
 10
382.5562303042594
 20
465.8267731128291
 30
0.0
 10
382.5627558043143
 20
465.7850649373797
 30
0.0
 10
382.5637480389291
 20
465.5263490131593
 30
0.0
 10
382.5642341624434
 20
465.3995968394237
 30
0.0
  0
SPLINE
  5
106
330
1F
100
AcDbEntity
  8
0
  6
Continuous
 62
     7
370
    15
100
AcDbSpline
210
0.0
220
0.0
230
1.0
 70
     8
 71
     3
 72
     9
 73
     5
 74
     0
 42
0.00000001
 43
0.00000001
 40
0.0
 40
0.0
 40
0.0
 40
0.0
 40
0.4899187449333694
 40
1.0
 40
1.0
 40
1.0
 40
1.0
 10
382.5642341624434
 20
465.3995968394237
 30
0.0
 10
382.563748005766
 20
465.2426022176996
 30
0.0
 10
382.5627556847282
 20
464.9221518912984
 30
0.0
 10
382.5562303038326
 20
464.4811485013373
 30
0.0
 10
382.5529018293554
 20
464.2562009386974
 30
0.0
  0
LINE
  5
107
330
1F
100
AcDbEntity
  8
0
  6
Continuous
 62
     7
370
    15
100
AcDbLine
 10
215.4136398684
 20
457.9009450965
 30
0.0
 11
215.4136398684
 21
455.8139778666
 31
0.0
  0
LINE
  5
108
330
1F
100
AcDbEntity
  8
0
  6
Continuous
 62
     7
370
    15
100
AcDbLine
 10
215.4136398684
 20
460.9009511762
 30
0.0
 11
215.4136398684
 21
457.9009450965
 31
0.0
  0
LINE
  5
109
330
1F
100
AcDbEntity
  8
0
  6
Continuous
 62
     7
370
    15
100
AcDbLine
 10
384.0136328589
 20
455.8139778666
 30
0.0
 11
384.0136328589
 21
460.9009511762
 31
0.0
  0
SPLINE
  5
10A
330
1F
100
AcDbEntity
  8
0
  6
Continuous
 62
     7
370
    15
100
AcDbSpline
210
0.0
220
0.0
230
1.0
 70
     8
 71
     3
 72
    11
 73
     7
 74
     0
 42
0.00000001
 43
0.00000001
 40
0.0
 40
0.0
 40
0.0
 40
0.0
 40
0.279637570528322
 40
0.5592670568573918
 40
0.7796345369103745
 40
1.0
 40
1.0
 40
1.0
 40
1.0
 10
215.4136398683725
 20
393.5606218867254
 30
0.0
 10
215.4407144512562
 20
393.3914320924917
 30
0.0
 10
215.4948628343095
 20
393.0530573952272
 30
0.0
 10
215.880612448354
 20
392.6703743214943
 30
0.0
 10
216.3576514090884
 20
392.4359161431506
 30
0.0
 10
216.6949839925533
 20
392.400816153932
 30
0.0
 10
216.863649512404
 20
392.3832662396383
 30
0.0
  0
SPLINE
  5
10B
330
1F
100
AcDbEntity
  8
0
  6
Continuous
 62
     7
370
    15
100
AcDbSpline
210
0.0
220
0.0
230
1.0
 70
    24
 71
     3
 72
     9
 73
     5
 74
     0
 42
0.00000001
 43
0.00000001
 40
0.0
 40
0.0
 40
0.0
 40
0.0
 40
0.4999946654777452
 40
1.0
 40
1.0
 40
1.0
 40
1.0
 10
215.4136398683725
 20
393.5606218867254
 30
0.0
 10
215.4136398683725
 20
393.5990522802965
 30
0.0
 10
215.4136398683725
 20
393.6759138874788
 30
0.0
 10
215.4136398683725
 20
393.7829325021798
 30
0.0
 10
215.4136398683725
 20
393.8364423804235
 30
0.0
  0
SPLINE
  5
10C
330
1F
100
AcDbEntity
  8
0
  6
Continuous
 62
     7
370
    15
100
AcDbSpline
210
0.0
220
0.0
230
1.0
 70
     8
 71
     3
 72
    11
 73
     7
 74
     0
 42
0.00000001
 43
0.00000001
 40
0.0
 40
0.0
 40
0.0
 40
0.0
 40
0.2796368285230993
 40
0.5592671289176215
 40
0.7796313252374029
 40
1.0
 40
1.0
 40
1.0
 40
1.0
 10
382.5636232148347
 20
392.3832662396388
 30
0.0
 10
382.7780314265677
 20
392.4101580493004
 30
0.0
 10
383.206842844669
 20
392.4639410408337
 30
0.0
 10
383.6810158248418
 20
392.7794534242938
 30
0.0
 10
383.9634738066319
 20
393.1617030426124
 30
0.0
 10
383.9969130615254
 20
393.427648037901
 30
0.0
 10
384.0136328588662
 20
393.5606218867259
 30
0.0
  0
SPLINE
  5
10D
330
1F
100
AcDbEntity
  8
0
  6
Continuous
 62
     7
370
    15
100
AcDbSpline
210
0.0
220
0.0
230
1.0
 70
    24
 71
     3
 72
     9
 73
     5
 74
     0
 42
0.00000001
 43
0.00000001
 40
0.0
 40
0.0
 40
0.0
 40
0.0
 40
0.5000053345222549
 40
1.0
 40
1.0
 40
1.0
 40
1.0
 10
384.0136328588662
 20
393.836442380424
 30
0.0
 10
384.0136328588662
 20
393.7829325021804
 30
0.0
 10
384.0136328588662
 20
393.6759138874795
 30
0.0
 10
384.0136328588662
 20
393.5990522802971
 30
0.0
 10
384.0136328588662
 20
393.5606218867259
 30
0.0
  0
SPLINE
  5
10E
330
1F
100
AcDbEntity
  8
0
  6
Continuous
 62
     7
370
    15
100
AcDbSpline
210
0.0
220
0.0
230
1.0
 70
     8
 71
     3
 72
    11
 73
     7
 74
     0
 42
0.00000001
 43
0.00000001
 40
0.0
 40
0.0
 40
0.0
 40
0.0
 40
0.2796376916759565
 40
0.5592699300005486
 40
0.7796340715365582
 40
1.0
 40
1.0
 40
1.0
 40
1.0
 10
216.8630385647948
 20
465.3995968394231
 30
0.0
 10
216.6487004924713
 20
465.3729731167107
 30
0.0
 10
216.2200285277359
 20
465.319726190488
 30
0.0
 10
215.7460826246472
 20
465.008037153319
 30
0.0
 10
215.4637736742216
 20
464.6304892439526
 30
0.0
 10
215.4303511821589
 20
464.3678411061237
 30
0.0
 10
215.4136398683722
 20
464.2365165047597
 30
0.0
  0
SPLINE
  5
10F
330
1F
100
AcDbEntity
  8
0
  6
Continuous
 62
     7
370
    15
100
AcDbSpline
210
0.0
220
0.0
230
1.0
 70
    24
 71
     3
 72
     9
 73
     5
 74
     0
 42
0.00000001
 43
0.00000001
 40
0.0
 40
0.0
 40
0.0
 40
0.0
 40
0.4999418434928976
 40
1.0
 40
1.0
 40
1.0
 40
1.0
 10
215.4136398683722
 20
464.2365165047597
 30
0.0
 10
215.4136398683722
 20
464.1964811735198
 30
0.0
 10
215.4136398683723
 20
464.1164011966964
 30
0.0
 10
215.4136398683722
 20
464.0058667002804
 30
0.0
 10
215.4136398683722
 20
463.9505930237722
 30
0.0
  0
SPLINE
  5
110
330
1F
100
AcDbEntity
  8
0
  6
Continuous
 62
     7
370
    15
100
AcDbSpline
210
0.0
220
0.0
230
1.0
 70
     8
 71
     3
 72
    11
 73
     7
 74
     0
 42
0.00000001
 43
0.00000001
 40
0.0
 40
0.0
 40
0.0
 40
0.0
 40
0.2796376916759565
 40
0.5592699300005486
 40
0.7796340715365582
 40
1.0
 40
1.0
 40
1.0
 40
1.0
 10
382.5642341624434
 20
465.3995968394237
 30
0.0
 10
382.7785722347668
 20
465.3729731167112
 30
0.0
 10
383.2072441995023
 20
465.3197261904886
 30
0.0
 10
383.6811901025911
 20
465.0080371533196
 30
0.0
 10
383.9634990530166
 20
464.6304892439531
 30
0.0
 10
383.9969215450794
 20
464.3678411061243
 30
0.0
 10
384.0136328588659
 20
464.2365165047603
 30
0.0
  0
SPLINE
  5
111
330
1F
100
AcDbEntity
  8
0
  6
Continuous
 62
     7
370
    15
100
AcDbSpline
210
0.0
220
0.0
230
1.0
 70
    24
 71
     3
 72
     9
 73
     5
 74
     0
 42
0.00000001
 43
0.00000001
 40
0.0
 40
0.0
 40
0.0
 40
0.0
 40
0.4999418434928976
 40
1.0
 40
1.0
 40
1.0
 40
1.0
 10
384.0136328588659
 20
464.2365165047603
 30
0.0
 10
384.013632858866
 20
464.1964811735204
 30
0.0
 10
384.0136328588659
 20
464.116401196697
 30
0.0
 10
384.013632858866
 20
464.005866700281
 30
0.0
 10
384.0136328588659
 20
463.9505930237727
 30
0.0
  0
SPLINE
  5
112
330
1F
100
AcDbEntity
  8
0
  6
Continuous
 62
     7
370
    15
100
AcDbSpline
210
0.0
220
0.0
230
1.0
 70
     8
 71
     3
 72
    11
 73
     7
 74
     0
 42
0.00000001
 43
0.00000001
 40
0.0
 40
0.0
 40
0.0
 40
0.0
 40
0.2499981117618879
 40
0.5000010076519561
 40
0.7499989583379677
 40
1.0
 40
1.0
 40
1.0
 40
1.0
 10
216.874370897883
 20
391.9538594775152
 30
0.0
 10
216.6817306490504
 20
391.9806965822275
 30
0.0
 10
216.2964464648948
 20
392.0343713052246
 30
0.0
 10
215.8149137511024
 20
392.3830167872727
 30
0.0
 10
215.4789916145275
 20
392.8735128020086
 30
0.0
 10
215.4354238735355
 20
393.2600690889709
 30
0.0
 10
215.4136398683725
 20
393.4533484272908
 30
0.0
  0
SPLINE
  5
113
330
1F
100
AcDbEntity
  8
0
  6
Continuous
 62
     7
370
    15
100
AcDbSpline
210
0.0
220
0.0
230
1.0
 70
    24
 71
     3
 72
     9
 73
     5
 74
     0
 42
0.00000001
 43
0.00000001
 40
0.0
 40
0.0
 40
0.0
 40
0.0
 40
0.5000304013594775
 40
1.0
 40
1.0
 40
1.0
 40
1.0
 10
215.4136398683725
 20
393.4533484272908
 30
0.0
 10
215.4136398683725
 20
393.4580126532507
 30
0.0
 10
215.4136398683725
 20
393.4673405380097
 30
0.0
 10
215.4136398683725
 20
393.5295293642367
 30
0.0
 10
215.4136398683725
 20
393.5606218867254
 30
0.0
  0
SPLINE
  5
114
330
1F
100
AcDbEntity
  8
0
  6
Continuous
 62
     7
370
    15
100
AcDbSpline
210
0.0
220
0.0
230
1.0
 70
     8
 71
     3
 72
    11
 73
     7
 74
     0
 42
0.00000001
 43
0.00000001
 40
0.0
 40
0.0
 40
0.0
 40
0.0
 40
0.2500010416620322
 40
0.4999989923480438
 40
0.7500018882381121
 40
1.0
 40
1.0
 40
1.0
 40
1.0
 10
384.0136328588662
 20
393.4533484272914
 30
0.0
 10
383.9918488537031
 20
393.2600690889716
 30
0.0
 10
383.9482811127112
 20
392.8735128020091
 30
0.0
 10
383.6123589761364
 20
392.3830167872734
 30
0.0
 10
383.1308262623439
 20
392.0343713052251
 30
0.0
 10
382.7455420781884
 20
391.980696582228
 30
0.0
 10
382.5529018293557
 20
391.9538594775157
 30
0.0
  0
SPLINE
  5
115
330
1F
100
AcDbEntity
  8
0
  6
Continuous
 62
     7
370
    15
100
AcDbSpline
210
0.0
220
0.0
230
1.0
 70
    24
 71
     3
 72
     9
 73
     5
 74
     0
 42
0.00000001
 43
0.00000001
 40
0.0
 40
0.0
 40
0.0
 40
0.0
 40
0.4999695986405225
 40
1.0
 40
1.0
 40
1.0
 40
1.0
 10
384.0136328588662
 20
393.560621886726
 30
0.0
 10
384.0136328588662
 20
393.5295293642374
 30
0.0
 10
384.0136328588662
 20
393.4673405380104
 30
0.0
 10
384.0136328588662
 20
393.4580126532513
 30
0.0
 10
384.0136328588662
 20
393.4533484272914
 30
0.0
  0
SPLINE
  5
116
330
1F
100
AcDbEntity
  8
0
  6
Continuous
 62
     7
370
    15
100
AcDbSpline
210
0.0
220
0.0
230
1.0
 70
     8
 71
     3
 72
    11
 73
     7
 74
     0
 42
0.00000001
 43
0.00000001
 40
0.0
 40
0.0
 40
0.0
 40
0.0
 40
0.2500016104888833
 40
0.5000001299947129
 40
0.7499999117851831
 40
1.0
 40
1.0
 40
1.0
 40
1.0
 10
215.4136398683722
 20
464.3485583357763
 30
0.0
 10
215.4354241186876
 20
464.5418372643926
 30
0.0
 10
215.4789923499813
 20
464.9283927319528
 30
0.0
 10
215.8149091597596
 20
465.418892483551
 30
0.0
 10
216.29645331369
 20
465.7675145998925
 30
0.0
 10
216.681731624446
 20
465.8212030460311
 30
0.0
 10
216.8743708978827
 20
465.848047285552
 30
0.0
  0
SPLINE
  5
117
330
1F
100
AcDbEntity
  8
0
  6
Continuous
 62
     7
370
    15
100
AcDbSpline
210
0.0
220
0.0
230
1.0
 70
    24
 71
     3
 72
     9
 73
     5
 74
     0
 42
0.00000001
 43
0.00000001
 40
0.0
 40
0.0
 40
0.0
 40
0.0
 40
0.499979764122491
 40
1.0
 40
1.0
 40
1.0
 40
1.0
 10
215.4136398683722
 20
464.2365165047597
 30
0.0
 10
215.4136398683722
 20
464.2689923492807
 30
0.0
 10
215.4136398683722
 20
464.3339466671379
 30
0.0
 10
215.4136398683722
 20
464.3436876481519
 30
0.0
 10
215.4136398683722
 20
464.3485583357763
 30
0.0
  0
SPLINE
  5
118
330
1F
100
AcDbEntity
  8
0
  6
Continuous
 62
     7
370
    15
100
AcDbSpline
210
0.0
220
0.0
230
1.0
 70
     8
 71
     3
 72
    11
 73
     7
 74
     0
 42
0.00000001
 43
0.00000001
 40
0.0
 40
0.0
 40
0.0
 40
0.0
 40
0.2500000882148169
 40
0.4999998700052871
 40
0.7499983895111167
 40
1.0
 40
1.0
 40
1.0
 40
1.0
 10
382.5529018293554
 20
465.8480472855525
 30
0.0
 10
382.7455411027922
 20
465.8212030460317
 30
0.0
 10
383.1308194135482
 20
465.767514599893
 30
0.0
 10
383.6123635674786
 20
465.4188924835515
 30
0.0
 10
383.9482803772569
 20
464.9283927319535
 30
0.0
 10
383.9918486085506
 20
464.5418372643931
 30
0.0
 10
384.0136328588659
 20
464.3485583357768
 30
0.0
  0
SPLINE
  5
119
330
1F
100
AcDbEntity
  8
0
  6
Continuous
 62
     7
370
    15
100
AcDbSpline
210
0.0
220
0.0
230
1.0
 70
    24
 71
     3
 72
     9
 73
     5
 74
     0
 42
0.00000001
 43
0.00000001
 40
0.0
 40
0.0
 40
0.0
 40
0.0
 40
0.5000202358775091
 40
1.0
 40
1.0
 40
1.0
 40
1.0
 10
384.0136328588659
 20
464.3485583357768
 30
0.0
 10
384.0136328588659
 20
464.3436876481525
 30
0.0
 10
384.0136328588659
 20
464.3339466671385
 30
0.0
 10
384.0136328588659
 20
464.2689923492812
 30
0.0
 10
384.0136328588659
 20
464.2365165047603
 30
0.0
  0
LINE
  5
11A
330
1F
100
AcDbEntity
  8
0
  6
Continuous
 62
     7
370
    15
100
AcDbLine
 10
303.8805602926
 20
470.3409560018
 30
0.0
 11
304.8641119029
 21
470.3409560018
 31
0.0
  0
LINE
  5
11B
330
1F
100
AcDbEntity
  8
0
  6
Continuous
 62
     7
370
    15
100
AcDbLine
 10
303.8805602926
 20
470.9409512572
 30
0.0
 11
303.8805602926
 21
470.3409560018
 31
0.0
  0
ARC
  5
11C
330
1F
100
AcDbEntity
  8
0
  6
Continuous
 62
     7
370
    15
100
AcDbCircle
 10
303.8805601483
 20
471.9409504132
 30
0.0
 40
1.000000000000024
100
AcDbArc
 50
270.0
 51
309.79687583
  0
ELLIPSE
  5
11D
330
1F
100
AcDbEntity
  8
0
  6
Continuous
 62
     7
370
    15
100
AcDbEllipse
 10
303.8805601483
 20
471.9409504132
 30
0.0
 11
0.9958794552080689
 21
-0.9958794552080689
 31
0.0
210
0.0
220
0.0
230
0.9999999999999998
 40
0.0910621082
 41
5.497787143782367
 42
6.192373659023586
  0
LINE
  5
11E
330
1F
100
AcDbEntity
  8
0
  6
Continuous
 62
     7
370
    15
100
AcDbLine
 10
304.8641119029
 20
470.3409560018
 30
0.0
 11
304.8641119029
 21
470.9409512572
 31
0.0
  0
LINE
  5
11F
330
1F
100
AcDbEntity
  8
0
  6
Continuous
 62
     7
370
    15
100
AcDbLine
 10
303.8805602926
 20
470.9409512572
 30
0.0
 11
295.5467124346
 21
470.9409512572
 31
0.0
  0
ARC
  5
120
330
1F
100
AcDbEntity
  8
0
  6
Continuous
 62
     7
370
    15
100
AcDbCircle
 10
295.546712579
 20
471.9409504132
 30
0.0
 40
1.000000000000068
100
AcDbArc
 50
230.20312417
 51
270.0
  0
LINE
  5
121
330
1F
100
AcDbEntity
  8
0
  6
Continuous
 62
     7
370
    15
100
AcDbLine
 10
294.9066446971
 20
471.1726345115
 30
0.0
 11
296.5464040979
 21
473.1409437947
 31
0.0
  0
LINE
  5
122
330
1F
100
AcDbEntity
  8
0
  6
Continuous
 62
     7
370
    15
100
AcDbLine
 10
296.5464040979
 20
473.1409437947
 30
0.0
 11
302.8808686293
 21
473.1409437947
 31
0.0
  0
LINE
  5
123
330
1F
100
AcDbEntity
  8
0
  6
Continuous
 62
     7
370
    15
100
AcDbLine
 10
304.5206280302
 20
471.1726345115
 30
0.0
 11
302.8808686293
 21
473.1409437947
 31
0.0
  0
LINE
  5
124
330
1F
100
AcDbEntity
  8
0
  6
Continuous
 62
     7
370
    15
100
AcDbLine
 10
294.5631608244
 20
470.9409512572
 30
0.0
 11
294.5631608244
 21
470.3409560018
 31
0.0
  0
ELLIPSE
  5
125
330
1F
100
AcDbEntity
  8
0
  6
Continuous
 62
     7
370
    15
100
AcDbEllipse
 10
295.546712579
 20
471.9409504132
 30
0.0
 11
0.9958794552080689
 21
0.9958794552080689
 31
0.0
210
0.0
220
0.0
230
0.9999999999999998
 40
0.0910621082
 41
3.23240430174578
 42
3.926990816987369
  0
LINE
  5
126
330
1F
100
AcDbEntity
  8
0
  6
Continuous
 62
     7
370
    15
100
AcDbLine
 10
295.5467124346
 20
470.3409560018
 30
0.0
 11
295.5467124346
 21
470.9409512572
 31
0.0
  0
LINE
  5
127
330
1F
100
AcDbEntity
  8
0
  6
Continuous
 62
     7
370
    15
100
AcDbLine
 10
294.5631608244
 20
470.3409560018
 30
0.0
 11
295.5467124346
 21
470.3409560018
 31
0.0
  0
LINE
  5
128
330
1F
100
AcDbEntity
  8
0
  6
Continuous
 62
     7
370
    15
100
AcDbLine
 10
295.5467124346
 20
470.3409560018
 30
0.0
 11
303.8805602926
 21
470.3409560018
 31
0.0
  0
LINE
  5
129
330
1F
100
AcDbEntity
  8
0
  6
Continuous
 62
     7
370
    15
100
AcDbLine
 10
294.5631608244
 20
470.9409512572
 30
0.0
 11
293.2136362295
 21
470.9409512572
 31
0.0
  0
SPLINE
  5
12A
330
1F
100
AcDbEntity
  8
0
  6
Continuous
 62
     7
370
    15
100
AcDbSpline
210
0.0
220
0.0
230
1.0
 70
    24
 71
     1
 72
     4
 73
     2
 74
     0
 42
0.00000001
 43
0.00000001
 40
0.0
 40
0.0
 40
1.0
 40
1.0
 10
293.2136362295086
 20
470.9409512572242
 30
0.0
 10
295.1782104435796
 20
473.1409437947227
 30
0.0
  0
LINE
  5
12B
330
1F
100
AcDbEntity
  8
0
  6
Continuous
 62
     7
370
    15
100
AcDbLine
 10
295.1782104436
 20
473.1409437947
 30
0.0
 11
296.5464040979
 21
473.1409437947
 31
0.0
  0
LINE
  5
12C
330
1F
100
AcDbEntity
  8
0
  6
Continuous
 62
     7
370
    15
100
AcDbLine
 10
302.8808686293
 20
473.1409437947
 30
0.0
 11
304.2490622837
 21
473.1409437947
 31
0.0
  0
SPLINE
  5
12D
330
1F
100
AcDbEntity
  8
0
  6
Continuous
 62
     7
370
    15
100
AcDbSpline
210
0.0
220
0.0
230
1.0
 70
    24
 71
     1
 72
     4
 73
     2
 74
     0
 42
0.00000001
 43
0.00000001
 40
0.0
 40
0.0
 40
1.0
 40
1.0
 10
304.2490622836585
 20
473.1409437947228
 30
0.0
 10
306.2136364977295
 20
470.9409512572244
 30
0.0
  0
LINE
  5
12E
330
1F
100
AcDbEntity
  8
0
  6
Continuous
 62
     7
370
    15
100
AcDbLine
 10
306.2136364977
 20
470.9409512572
 30
0.0
 11
304.8641119029
 21
470.9409512572
 31
0.0
  0
LINE
  5
12F
330
1F
100
AcDbEntity
  8
0
  6
Continuous
 62
     7
370
    15
100
AcDbLine
 10
306.2136364977
 20
470.9409512572
 30
0.0
 11
306.2136364977
 21
470.3409560018
 31
0.0
  0
LINE
  5
130
330
1F
100
AcDbEntity
  8
0
  6
Continuous
 62
     7
370
    15
100
AcDbLine
 10
304.8641119029
 20
470.3409560018
 30
0.0
 11
306.2136364977
 21
470.3409560018
 31
0.0
  0
LINE
  5
131
330
1F
100
AcDbEntity
  8
0
  6
Continuous
 62
     7
370
    15
100
AcDbLine
 10
293.2136362295
 20
470.3409560018
 30
0.0
 11
293.2136362295
 21
470.9409512572
 31
0.0
  0
LINE
  5
132
330
1F
100
AcDbEntity
  8
0
  6
Continuous
 62
     7
370
    15
100
AcDbLine
 10
293.2136362295
 20
470.3409560018
 30
0.0
 11
294.5631608244
 21
470.3409560018
 31
0.0
  0
LINE
  5
133
330
1F
100
AcDbEntity
  8
0
  6
Continuous
 62
     7
370
    15
100
AcDbLine
 10
306.2136364977
 20
470.9409512572
 30
0.0
 11
313.2136367138
 21
470.9409512572
 31
0.0
  0
LINE
  5
134
330
1F
100
AcDbEntity
  8
0
  6
Continuous
 62
     7
370
    15
100
AcDbLine
 10
286.2136360134
 20
470.9409512572
 30
0.0
 11
293.2136362295
 21
470.9409512572
 31
0.0
  0
LINE
  5
135
330
1F
100
AcDbEntity
  8
0
  6
Continuous
 62
     7
370
    15
100
AcDbLine
 10
299.7136363636
 20
468.1409485631
 30
0.0
 11
313.2136367138
 21
468.1409485631
 31
0.0
  0
LINE
  5
136
330
1F
100
AcDbEntity
  8
0
  6
Continuous
 62
     7
370
    15
100
AcDbLine
 10
286.2136360134
 20
468.1409485631
 30
0.0
 11
299.7136363636
 21
468.1409485631
 31
0.0
  0
LINE
  5
137
330
1F
100
AcDbEntity
  8
0
  6
Continuous
 62
     7
370
    15
100
AcDbLine
 10
304.2490622837
 20
473.1409437947
 30
0.0
 11
311.0136367257
 21
473.1409437947
 31
0.0
  0
LINE
  5
138
330
1F
100
AcDbEntity
  8
0
  6
Continuous
 62
     7
370
    15
100
AcDbLine
 10
288.4136360015
 20
473.1409437947
 30
0.0
 11
295.1782104436
 21
473.1409437947
 31
0.0
  0
LINE
  5
139
330
1F
100
AcDbEntity
  8
0
  6
Continuous
 62
     7
370
    15
100
AcDbLine
 10
390.8136362086
 20
430.9009499841
 30
0.0
 11
390.8136362086
 21
436.7509521537
 31
0.0
  0
LINE
  5
13A
330
1F
100
AcDbEntity
  8
0
  6
Continuous
 62
     7
370
    15
100
AcDbLine
 10
390.8136362086
 20
425.0509478145
 30
0.0
 11
390.8136362086
 21
430.9009499841
 31
0.0
  0
SPLINE
  5
13B
330
1F
100
AcDbEntity
  8
0
  6
Continuous
 62
     7
370
    15
100
AcDbSpline
210
0.0
220
0.0
230
1.0
 70
     8
 71
     3
 72
    10
 73
     6
 74
     0
 42
0.00000001
 43
0.00000001
 40
0.0
 40
0.0
 40
0.0
 40
0.0
 40
0.3599231800570013
 40
0.7307461979050449
 40
1.0
 40
1.0
 40
1.0
 40
1.0
 10
390.0416368495163
 20
428.5529740147548
 30
0.0
 10
390.2176188687347
 20
427.9579896763728
 30
0.0
 10
390.5749123095827
 20
426.7500026191991
 30
0.0
 10
390.5044347912338
 20
425.0515397481847
 30
0.0
 10
390.178671831501
 20
423.9968616746169
 30
0.0
 10
390.0416368495163
 20
423.5532023005443
 30
0.0
  0
SPLINE
  5
13C
330
1F
100
AcDbEntity
  8
0
  6
Continuous
 62
     7
370
    15
100
AcDbSpline
210
0.0
220
0.0
230
1.0
 70
     8
 71
     3
 72
    10
 73
     6
 74
     0
 42
0.00000001
 43
0.00000001
 40
0.0
 40
0.0
 40
0.0
 40
0.0
 40
0.335146639082404
 40
0.6788482432802816
 40
1.0
 40
1.0
 40
1.0
 40
1.0
 10
390.0416368495162
 20
435.9007216982799
 30
0.0
 10
390.2073305819729
 20
435.0872326627683
 30
0.0
 10
390.5429475510366
 20
433.4394894414821
 30
0.0
 10
390.5321531388212
 20
430.9450408186807
 30
0.0
 10
390.2014029249575
 20
429.332094165888
 30
0.0
 10
390.0416368495163
 20
428.5529740147548
 30
0.0
  0
SPLINE
  5
13D
330
1F
100
AcDbEntity
  8
0
  6
Continuous
 62
     7
370
    15
100
AcDbSpline
210
0.0
220
0.0
230
1.0
 70
     8
 71
     3
 72
    10
 73
     6
 74
     0
 42
0.00000001
 43
0.00000001
 40
0.0
 40
0.0
 40
0.0
 40
0.0
 40
0.3599234051847547
 40
0.7307468729942117
 40
1.0
 40
1.0
 40
1.0
 40
1.0
 10
390.0416368495162
 20
438.2486976675945
 30
0.0
 10
390.2176188037146
 20
437.9692846549457
 30
0.0
 10
390.5749122191509
 20
437.4019967755642
 30
0.0
 10
390.504435497644
 20
436.6043568739235
 30
0.0
 10
390.1786718327487
 20
436.1090685352599
 30
0.0
 10
390.0416368495162
 20
435.9007216982799
 30
0.0
  0
SPLINE
  5
13E
330
1F
100
AcDbEntity
  8
0
  6
Continuous
 62
     7
370
    15
100
AcDbSpline
210
0.0
220
0.0
230
1.0
 70
    24
 71
     1
 72
     4
 73
     2
 74
     0
 42
0.00000001
 43
0.00000001
 40
0.0
 40
0.0
 40
1.0
 40
1.0
 10
390.0416368495163
 20
423.5532023005443
 30
0.0
 10
390.298517967337
 20
424.0576662116008
 30
0.0
  0
LINE
  5
13F
330
1F
100
AcDbEntity
  8
0
  6
Continuous
 62
     7
370
    15
100
AcDbLine
 10
390.0416368495
 20
435.9007216983
 30
0.0
 11
384.785632218
 21
435.9007216983
 31
0.0
  0
LINE
  5
140
330
1F
100
AcDbEntity
  8
0
  6
Continuous
 62
     7
370
    15
100
AcDbLine
 10
390.0416368495
 20
428.5529740148
 30
0.0
 11
384.785632218
 21
428.5529740148
 31
0.0
  0
SPLINE
  5
141
330
1F
100
AcDbEntity
  8
0
  6
Continuous
 62
     7
370
    15
100
AcDbSpline
210
0.0
220
0.0
230
1.0
 70
     8
 71
     3
 72
    10
 73
     6
 74
     0
 42
0.00000001
 43
0.00000001
 40
0.0
 40
0.0
 40
0.0
 40
0.0
 40
0.3211485084369372
 40
0.6556033751896184
 40
1.0
 40
1.0
 40
1.0
 40
1.0
 10
384.785632217997
 20
428.5529740147548
 30
0.0
 10
384.6258847272825
 20
429.332093709719
 30
0.0
 10
384.2997708225341
 20
430.9226148806917
 30
0.0
 10
384.2819133979824
 20
433.4161446314349
 30
0.0
 10
384.6160945871032
 20
435.0644827233816
 30
0.0
 10
384.7856322179969
 20
435.9007216982799
 30
0.0
  0
LINE
  5
142
330
1F
100
AcDbEntity
  8
0
  6
Continuous
 62
     7
370
    15
100
AcDbLine
 10
208.6136365186
 20
436.7509521537
 30
0.0
 11
208.6136365186
 21
425.0509478145
 31
0.0
  0
SPLINE
  5
143
330
1F
100
AcDbEntity
  8
0
  6
Continuous
 62
     7
370
    15
100
AcDbSpline
210
0.0
220
0.0
230
1.0
 70
    24
 71
     1
 72
     4
 73
     2
 74
     0
 42
0.00000001
 43
0.00000001
 40
0.0
 40
0.0
 40
1.0
 40
1.0
 10
209.3856358777221
 20
438.2486976675939
 30
0.0
 10
209.1287547599014
 20
437.7442337565374
 30
0.0
  0
SPLINE
  5
144
330
1F
100
AcDbEntity
  8
0
  6
Continuous
 62
     7
370
    15
100
AcDbSpline
210
0.0
220
0.0
230
1.0
 70
     8
 71
     3
 72
    10
 73
     6
 74
     0
 42
0.00000001
 43
0.00000001
 40
0.0
 40
0.0
 40
0.0
 40
0.0
 40
0.3599231800570013
 40
0.7307461979050449
 40
1.0
 40
1.0
 40
1.0
 40
1.0
 10
209.3856358777221
 20
433.2489259533834
 30
0.0
 10
209.2096538585037
 20
433.8439102917653
 30
0.0
 10
208.8523604176558
 20
435.051897348939
 30
0.0
 10
208.9228379360046
 20
436.7503602199536
 30
0.0
 10
209.2486008957374
 20
437.8050382935212
 30
0.0
 10
209.3856358777221
 20
438.2486976675939
 30
0.0
  0
SPLINE
  5
145
330
1F
100
AcDbEntity
  8
0
  6
Continuous
 62
     7
370
    15
100
AcDbSpline
210
0.0
220
0.0
230
1.0
 70
     8
 71
     3
 72
    10
 73
     6
 74
     0
 42
0.00000001
 43
0.00000001
 40
0.0
 40
0.0
 40
0.0
 40
0.0
 40
0.335146639082404
 40
0.6788482432802816
 40
1.0
 40
1.0
 40
1.0
 40
1.0
 10
209.3856358777222
 20
425.9011782698583
 30
0.0
 10
209.2199421452656
 20
426.7146673053699
 30
0.0
 10
208.8843251762019
 20
428.362410526656
 30
0.0
 10
208.8951195884172
 20
430.8568591494576
 30
0.0
 10
209.2258698022809
 20
432.4698058022502
 30
0.0
 10
209.3856358777221
 20
433.2489259533834
 30
0.0
  0
SPLINE
  5
146
330
1F
100
AcDbEntity
  8
0
  6
Continuous
 62
     7
370
    15
100
AcDbSpline
210
0.0
220
0.0
230
1.0
 70
     8
 71
     3
 72
    10
 73
     6
 74
     0
 42
0.00000001
 43
0.00000001
 40
0.0
 40
0.0
 40
0.0
 40
0.0
 40
0.3599234051847547
 40
0.7307468729942117
 40
1.0
 40
1.0
 40
1.0
 40
1.0
 10
209.3856358777222
 20
423.5532023005437
 30
0.0
 10
209.2096539235237
 20
423.8326153131925
 30
0.0
 10
208.8523605080876
 20
424.3999031925739
 30
0.0
 10
208.9228372295944
 20
425.1975430942147
 30
0.0
 10
209.2486008944898
 20
425.6928314328783
 30
0.0
 10
209.3856358777222
 20
425.9011782698583
 30
0.0
  0
LINE
  5
147
330
1F
100
AcDbEntity
  8
0
  6
Continuous
 62
     7
370
    15
100
AcDbLine
 10
209.3856358777
 20
433.2489259534
 30
0.0
 11
214.6416405092
 21
433.2489259534
 31
0.0
  0
SPLINE
  5
148
330
1F
100
AcDbEntity
  8
0
  6
Continuous
 62
     7
370
    15
100
AcDbSpline
210
0.0
220
0.0
230
1.0
 70
     8
 71
     3
 72
    10
 73
     6
 74
     0
 42
0.00000001
 43
0.00000001
 40
0.0
 40
0.0
 40
0.0
 40
0.0
 40
0.3211485084369372
 40
0.6556033751896184
 40
1.0
 40
1.0
 40
1.0
 40
1.0
 10
214.6416405092415
 20
433.2489259533834
 30
0.0
 10
214.8013879999559
 20
432.4698062584192
 30
0.0
 10
215.1275019047044
 20
430.8792850874465
 30
0.0
 10
215.1453593292561
 20
428.3857553367032
 30
0.0
 10
214.8111781401353
 20
426.7374172447564
 30
0.0
 10
214.6416405092415
 20
425.9011782698583
 30
0.0
  0
LINE
  5
149
330
1F
100
AcDbEntity
  8
0
  6
Continuous
 62
     7
370
    15
100
AcDbLine
 10
214.6416405092
 20
425.9011782699
 30
0.0
 11
209.3856358777
 21
425.9011782699
 31
0.0
  0
SPLINE
  5
14A
330
1F
100
AcDbEntity
  8
0
  6
Continuous
 62
     7
370
    15
100
AcDbSpline
210
0.0
220
0.0
230
1.0
 70
    24
 71
     1
 72
     4
 73
     2
 74
     0
 42
0.00000001
 43
0.00000001
 40
0.0
 40
0.0
 40
1.0
 40
1.0
 10
384.4951936851677
 20
424.0576513104396
 30
0.0
 10
384.785632217997
 20
423.5532023005443
 30
0.0
  0
SPLINE
  5
14B
330
1F
100
AcDbEntity
  8
0
  6
Continuous
 62
     7
370
    15
100
AcDbSpline
210
0.0
220
0.0
230
1.0
 70
     8
 71
     3
 72
    10
 73
     6
 74
     0
 42
0.00000001
 43
0.00000001
 40
0.0
 40
0.0
 40
0.0
 40
0.0
 40
0.3599234504017276
 40
0.7307469740515974
 40
1.0
 40
1.0
 40
1.0
 40
1.0
 10
384.7856322179969
 20
435.9007216982799
 30
0.0
 10
384.6096491904204
 20
436.1801347240656
 30
0.0
 10
384.2523535911967
 20
436.7474226373028
 30
0.0
 10
384.32284549308
 20
437.5450622531943
 30
0.0
 10
384.6486007946236
 20
438.0403508046017
 30
0.0
 10
384.7856322179969
 20
438.2486976675945
 30
0.0
  0
SPLINE
  5
14C
330
1F
100
AcDbEntity
  8
0
  6
Continuous
 62
     7
370
    15
100
AcDbSpline
210
0.0
220
0.0
230
1.0
 70
     8
 71
     3
 72
    10
 73
     6
 74
     0
 42
0.00000001
 43
0.00000001
 40
0.0
 40
0.0
 40
0.0
 40
0.0
 40
0.3599245572356723
 40
0.7307476259365244
 40
0.9999999999999999
 40
0.9999999999999999
 40
0.9999999999999999
 40
0.9999999999999999
 10
384.785632217997
 20
423.5532023005443
 30
0.0
 10
384.6096491639021
 20
424.1481920617956
 30
0.0
 10
384.2523542908527
 20
425.3561878674448
 30
0.0
 10
384.3228451297335
 20
427.0546515078105
 30
0.0
 10
384.6486007537715
 20
428.1093200489993
 30
0.0
 10
384.785632217997
 20
428.5529740147548
 30
0.0
  0
SPLINE
  5
14D
330
1F
100
AcDbEntity
  8
0
  6
Continuous
 62
     7
370
    15
100
AcDbSpline
210
0.0
220
0.0
230
1.0
 70
     8
 71
     3
 72
    10
 73
     6
 74
     0
 42
0.00000001
 43
0.00000001
 40
0.0
 40
0.0
 40
0.0
 40
0.0
 40
0.3599234538455896
 40
0.730746365638192
 40
1.0
 40
1.0
 40
1.0
 40
1.0
 10
214.6416405092415
 20
425.9011782698583
 30
0.0
 10
214.8176236161325
 20
425.6217632905204
 30
0.0
 10
215.1749190754873
 20
425.0544718887668
 30
0.0
 10
215.1044265235695
 20
424.2568599300033
 30
0.0
 10
214.7786719406836
 20
423.7615560736153
 30
0.0
 10
214.6416405092415
 20
423.5532023005437
 30
0.0
  0
SPLINE
  5
14E
330
1F
100
AcDbEntity
  8
0
  6
Continuous
 62
     7
370
    15
100
AcDbSpline
210
0.0
220
0.0
230
1.0
 70
     8
 71
     3
 72
    10
 73
     6
 74
     0
 42
0.00000001
 43
0.00000001
 40
0.0
 40
0.0
 40
0.0
 40
0.0
 40
0.3599245572356723
 40
0.7307476259365244
 40
0.9999999999999999
 40
0.9999999999999999
 40
0.9999999999999999
 40
0.9999999999999999
 10
214.6416405092415
 20
438.2486976675939
 30
0.0
 10
214.8176235633363
 20
437.6537079063427
 30
0.0
 10
215.1749184363857
 20
436.4457121006935
 30
0.0
 10
215.1044275975049
 20
434.7472484603276
 30
0.0
 10
214.7786719734669
 20
433.6925799191389
 30
0.0
 10
214.6416405092415
 20
433.2489259533834
 30
0.0
  0
SPLINE
  5
14F
330
1F
100
AcDbEntity
  8
0
  6
Continuous
 62
     7
370
    15
100
AcDbSpline
210
0.0
220
0.0
230
1.0
 70
    24
 71
     1
 72
     4
 73
     2
 74
     0
 42
0.00000001
 43
0.00000001
 40
0.0
 40
0.0
 40
1.0
 40
1.0
 10
214.9320790420707
 20
437.7442486576986
 30
0.0
 10
214.6416405092415
 20
438.2486976675939
 30
0.0
  0
LINE
  5
150
330
1F
100
AcDbEntity
  8
0
  6
Continuous
 62
     7
370
    15
100
AcDbLine
 10
307.7136367436
 20
466.8409563594
 30
0.0
 11
291.7136359836
 21
466.8409563594
 31
0.0
  0
LINE
  5
151
330
1F
100
AcDbEntity
  8
0
  6
Continuous
 62
     7
370
    15
100
AcDbLine
 10
307.6986359309
 20
467.2409482293
 30
0.0
 11
291.7286367963
 21
467.2409482293
 31
0.0
  0
LINE
  5
152
330
1F
100
AcDbEntity
  8
0
  6
Continuous
 62
     7
370
    15
100
AcDbLine
 10
301.7136364586
 20
482.3409505181
 30
0.0
 11
297.7136362686
 21
482.3409505181
 31
0.0
  0
LINE
  5
153
330
1F
100
AcDbEntity
  8
0
  6
Continuous
 62
     7
370
    15
100
AcDbLine
 10
301.7136364586
 20
485.8409650617
 30
0.0
 11
301.7136364586
 21
482.3409505181
 31
0.0
  0
LWPOLYLINE
  5
154
330
1F
100
AcDbEntity
  8
0
  6
Continuous
 62
     7
370
    15
100
AcDbPolyline
 90
        4
 70
   128
 43
0.0
 10
302.2136363077
 20
486.3409586244
 10
302.0480664789
 20
486.1753769212
 10
301.8813730094
 20
486.0086925321
 10
301.7136364586
 20
485.8409650617
  0
LINE
  5
155
330
1F
100
AcDbEntity
  8
0
  6
Continuous
 62
     7
370
    15
100
AcDbLine
 10
304.7136362519
 20
486.3409586244
 30
0.0
 11
302.2136363077
 21
486.3409586244
 31
0.0
  0
LINE
  5
156
330
1F
100
AcDbEntity
  8
0
  6
Continuous
 62
     7
370
    15
100
AcDbLine
 10
304.7136362519
 20
473.1409437947
 30
0.0
 11
304.7136362519
 21
486.3409586244
 31
0.0
  0
LINE
  5
157
330
1F
100
AcDbEntity
  8
0
  6
Continuous
 62
     7
370
    15
100
AcDbLine
 10
294.7136364754
 20
473.1409437947
 30
0.0
 11
294.7136364754
 21
486.3409586244
 31
0.0
  0
LINE
  5
158
330
1F
100
AcDbEntity
  8
0
  6
Continuous
 62
     7
370
    15
100
AcDbLine
 10
297.2136364195
 20
486.3409586244
 30
0.0
 11
294.7136364754
 21
486.3409586244
 31
0.0
  0
LWPOLYLINE
  5
159
330
1F
100
AcDbEntity
  8
0
  6
Continuous
 62
     7
370
    15
100
AcDbPolyline
 90
        4
 70
   128
 43
0.0
 10
297.2136364195
 20
486.3409586244
 10
297.3792062483
 20
486.1753769212
 10
297.5458997178
 20
486.0086925321
 10
297.7136362686
 20
485.8409650617
  0
LINE
  5
15A
330
1F
100
AcDbEntity
  8
0
  6
Continuous
 62
     7
370
    15
100
AcDbLine
 10
297.7136362686
 20
482.3409505181
 30
0.0
 11
297.7136362686
 21
485.8409650617
 31
0.0
  0
LINE
  5
15B
330
1F
100
AcDbEntity
  8
0
  6
Continuous
 62
     7
370
    15
100
AcDbLine
 10
209.3856358777
 20
438.2486976676
 30
0.0
 11
214.6416405092
 21
438.2486976676
 31
0.0
  0
LINE
  5
15C
330
1F
100
AcDbEntity
  8
0
  6
Continuous
 62
     7
370
    15
100
AcDbLine
 10
390.0416368495
 20
423.5532023005
 30
0.0
 11
384.785632218
 21
423.5532023005
 31
0.0
  0
LINE
  5
15D
330
1F
100
AcDbEntity
  8
0
  6
Continuous
 62
     7
370
    15
100
AcDbLine
 10
209.3856358777
 20
423.5532023005
 30
0.0
 11
214.6416405092
 21
423.5532023005
 31
0.0
  0
LINE
  5
15E
330
1F
100
AcDbEntity
  8
0
  6
Continuous
 62
     7
370
    15
100
AcDbLine
 10
390.0416368495
 20
438.2486976676
 30
0.0
 11
384.785632218
 21
438.2486976676
 31
0.0
  0
LINE
  5
15F
330
1F
100
AcDbEntity
  8
0
  6
Continuous
 62
     7
370
    15
100
AcDbLine
 10
207.2136351715
 20
434.9009431891
 30
0.0
 11
207.2136351715
 21
426.900956779
 31
0.0
  0
LINE
  5
160
330
1F
100
AcDbEntity
  8
0
  6
Continuous
 62
     7
370
    15
100
AcDbLine
 10
206.7136341582
 20
434.4009496264
 30
0.0
 11
206.7136341582
 21
427.4009503417
 31
0.0
  0
LINE
  5
161
330
1F
100
AcDbEntity
  8
0
  6
Continuous
 62
     7
370
    15
100
AcDbLine
 10
392.2136375557
 20
430.9009499841
 30
0.0
 11
392.2136375557
 21
434.9009431891
 31
0.0
  0
LINE
  5
162
330
1F
100
AcDbEntity
  8
0
  6
Continuous
 62
     7
370
    15
100
AcDbLine
 10
392.2136375557
 20
426.900956779
 30
0.0
 11
392.2136375557
 21
430.9009499841
 31
0.0
  0
LINE
  5
163
330
1F
100
AcDbEntity
  8
0
  6
Continuous
 62
     7
370
    15
100
AcDbLine
 10
392.713638569
 20
430.9009499841
 30
0.0
 11
392.713638569
 21
434.4009496264
 31
0.0
  0
LINE
  5
164
330
1F
100
AcDbEntity
  8
0
  6
Continuous
 62
     7
370
    15
100
AcDbLine
 10
392.713638569
 20
427.4009503417
 30
0.0
 11
392.713638569
 21
430.9009499841
 31
0.0
  0
LINE
  5
165
330
1F
100
AcDbEntity
  8
0
  6
Continuous
 62
     7
370
    15
100
AcDbLine
 10
214.7136354696
 20
246.7009499662
 30
0.0
 11
214.7136354696
 21
206.7009508603
 31
0.0
  0
LINE
  5
166
330
1F
100
AcDbEntity
  8
0
  6
Continuous
 62
     7
370
    15
100
AcDbLine
 10
215.2328664313
 20
246.7009499662
 30
0.0
 11
214.7136354696
 21
246.7009499662
 31
0.0
  0
ARC
  5
167
330
1F
100
AcDbEntity
  8
0
  6
Continuous
 62
     7
370
    15
100
AcDbCircle
 10
215.2328693216
 20
254.7009504132
 30
0.0
 40
7.999999999999972
100
AcDbArc
 50
270.0
 51
341.6629252192
  0
ARC
  5
168
330
1F
100
AcDbEntity
  8
0
  6
Continuous
 62
     7
370
    15
100
AcDbCircle
 10
299.7136363636
 20
226.7009504132
 30
0.0
 40
80.99999999999999
100
AcDbArc
 50
116.7076453021
 51
161.6629252192
  0
ARC
  5
169
330
1F
100
AcDbEntity
  8
0
  6
Continuous
 62
     7
370
    15
100
AcDbCircle
 10
259.7136363636
 20
306.2056672544
 30
0.0
 40
8.0
100
AcDbArc
 50
296.7076453021
 51
0.0
  0
LINE
  5
16A
330
1F
100
AcDbEntity
  8
0
  6
Continuous
 62
     7
370
    15
100
AcDbLine
 10
267.7136348437
 20
311.7009513073
 30
0.0
 11
267.7136348437
 21
306.2056638293
 31
0.0
  0
CIRCLE
  5
16B
330
1F
100
AcDbEntity
  8
0
  6
Continuous
 62
     7
370
    15
100
AcDbCircle
 10
251.2768218523
 20
275.1377649245
 30
0.0
 40
4.0
  0
CIRCLE
  5
16C
330
1F
100
AcDbEntity
  8
0
  6
Continuous
 62
     7
370
    15
100
AcDbCircle
 10
348.1504508749
 20
275.1377649245
 30
0.0
 40
4.0
  0
ARC
  5
16D
330
1F
100
AcDbEntity
  8
0
  6
Continuous
 62
     7
370
    15
100
AcDbCircle
 10
299.7136363636
 20
226.7009504132
 30
0.0
 40
81.00000000000001
100
AcDbArc
 50
198.3370747808
 51
250.9833626807
  0
ARC
  5
16E
330
1F
100
AcDbEntity
  8
0
  6
Continuous
 62
     7
370
    15
100
AcDbCircle
 10
215.2328693216
 20
198.7009504132
 30
0.0
 40
8.0
100
AcDbArc
 50
18.3370747808
 51
90.0
  0
ARC
  5
16F
330
1F
100
AcDbEntity
  8
0
  6
Continuous
 62
     7
370
    15
100
AcDbCircle
 10
299.7136363636
 20
226.7009504132
 30
0.0
 40
81.00000000000001
100
AcDbArc
 50
289.0166373193
 51
341.6629252192
  0
LINE
  5
170
330
1F
100
AcDbEntity
  8
0
  6
Continuous
 62
     7
370
    15
100
AcDbLine
 10
331.7136378835
 20
306.2056638293
 30
0.0
 11
331.7136378835
 21
311.7009513073
 31
0.0
  0
LINE
  5
171
330
1F
100
AcDbEntity
  8
0
  6
Continuous
 62
     7
370
    15
100
AcDbLine
 10
278.7136366467
 20
141.7009495192
 30
0.0
 11
320.7136360805
 21
141.7009495192
 31
0.0
  0
ARC
  5
172
330
1F
100
AcDbEntity
  8
0
  6
Continuous
 62
     7
370
    15
100
AcDbCircle
 10
339.7136363636
 20
306.2056672544
 30
0.0
 40
8.000000000000014
100
AcDbArc
 50
180.0
 51
243.2923546979
  0
CIRCLE
  5
173
330
1F
100
AcDbEntity
  8
0
  6
Continuous
 62
     7
370
    15
100
AcDbCircle
 10
348.1504508749
 20
178.2641359019
 30
0.0
 40
4.0
  0
ARC
  5
174
330
1F
100
AcDbEntity
  8
0
  6
Continuous
 62
     7
370
    15
100
AcDbCircle
 10
384.1944034056
 20
254.7009504132
 30
0.0
 40
8.000000000000034
100
AcDbArc
 50
198.3370747808
 51
270.0
  0
LINE
  5
175
330
1F
100
AcDbEntity
  8
0
  6
Continuous
 62
     7
370
    15
100
AcDbLine
 10
214.7136354696
 20
206.7009508603
 30
0.0
 11
215.2328664313
 21
206.7009508603
 31
0.0
  0
CIRCLE
  5
176
330
1F
100
AcDbEntity
  8
0
  6
Continuous
 62
     7
370
    15
100
AcDbCircle
 10
251.2768218523
 20
178.2641359019
 30
0.0
 40
4.000000000000028
  0
ARC
  5
177
330
1F
100
AcDbEntity
  8
0
  6
Continuous
 62
     7
370
    15
100
AcDbCircle
 10
384.1944034056
 20
198.7009504132
 30
0.0
 40
8.0
100
AcDbArc
 50
90.0
 51
161.6629252192
  0
LINE
  5
178
330
1F
100
AcDbEntity
  8
0
  6
Continuous
 62
     7
370
    15
100
AcDbLine
 10
384.7136372577
 20
206.7009508603
 30
0.0
 11
384.7136372577
 21
246.7009499662
 31
0.0
  0
LINE
  5
179
330
1F
100
AcDbEntity
  8
0
  6
Continuous
 62
     7
370
    15
100
AcDbLine
 10
320.7136360805
 20
141.7009495192
 30
0.0
 11
320.7136360805
 21
142.5582133226
 31
0.0
  0
LINE
  5
17A
330
1F
100
AcDbEntity
  8
0
  6
Continuous
 62
     7
370
    15
100
AcDbLine
 10
278.7136366467
 20
142.5582133226
 30
0.0
 11
278.7136366467
 21
141.7009495192
 31
0.0
  0
ARC
  5
17B
330
1F
100
AcDbEntity
  8
0
  6
Continuous
 62
     7
370
    15
100
AcDbCircle
 10
328.7136363636
 20
142.5582145414
 30
0.0
 40
8.0
100
AcDbArc
 50
109.0166373193
 51
180.0
  0
LINE
  5
17C
330
1F
100
AcDbEntity
  8
0
  6
Continuous
 62
     7
370
    15
100
AcDbLine
 10
384.1944062959
 20
206.7009508603
 30
0.0
 11
384.7136372577
 21
206.7009508603
 31
0.0
  0
ARC
  5
17D
330
1F
100
AcDbEntity
  8
0
  6
Continuous
 62
     7
370
    15
100
AcDbCircle
 10
270.7136363636
 20
142.5582145414
 30
0.0
 40
8.0
100
AcDbArc
 50
0.0
 51
70.9833626807
  0
LINE
  5
17E
330
1F
100
AcDbEntity
  8
0
  6
Continuous
 62
     7
370
    15
100
AcDbLine
 10
384.7136372577
 20
246.7009499662
 30
0.0
 11
384.1944062959
 21
246.7009499662
 31
0.0
  0
ARC
  5
17F
330
1F
100
AcDbEntity
  8
0
  6
Continuous
 62
     7
370
    15
100
AcDbCircle
 10
299.7136363636
 20
226.7009504132
 30
0.0
 40
81.0
100
AcDbArc
 50
18.3370747808
 51
63.2923546979
  0
LINE
  5
180
330
1F
100
AcDbEntity
  8
0
  6
Continuous
 62
     7
370
    15
100
AcDbLine
 10
315.1136362802
 20
131.2509514384
 30
0.0
 11
284.3136364471
 21
131.2509514384
 31
0.0
  0
LINE
  5
181
330
1F
100
AcDbEntity
  8
0
  6
Continuous
 62
     7
370
    15
100
AcDbLine
 10
280.3136357914
 20
135.2509520941
 30
0.0
 11
319.1136369358
 21
135.2509520941
 31
0.0
  0
LINE
  5
182
330
1F
100
AcDbEntity
  8
0
  6
Continuous
 62
     7
370
    15
100
AcDbLine
 10
319.1136369358
 20
138.7509517364
 30
0.0
 11
280.3136357914
 21
138.7509517364
 31
0.0
  0
LINE
  5
183
330
1F
100
AcDbEntity
  8
0
  6
Continuous
 62
     7
370
    15
100
AcDbLine
 10
285.8136366929
 20
140.750948339
 30
0.0
 11
313.6136360343
 21
140.750948339
 31
0.0
  0
SPLINE
  5
184
330
1F
100
AcDbEntity
  8
0
  6
Continuous
 62
     7
370
    15
100
AcDbSpline
210
0.0
220
0.0
230
1.0
 70
     8
 71
     3
 72
    14
 73
    10
 74
     0
 42
0.00000001
 43
0.00000001
 40
0.0
 40
0.0
 40
0.0
 40
0.0
 40
0.25
 40
0.25
 40
0.5
 40
0.5
 40
0.75
 40
0.75
 40
1.0
 40
1.0
 40
1.0
 40
1.0
 10
287.4922804151715
 20
178.784972297553
 30
0.0
 10
287.6035135797559
 20
178.7566013834838
 30
0.0
 10
287.746180697193
 20
178.8083082277917
 30
0.0
 10
288.0886697428102
 20
179.0238685803039
 30
0.0
 10
288.2826930306021
 20
179.1843196090589
 30
0.0
 10
288.7106386139138
 20
179.5736650634766
 30
0.0
 10
288.9458950132212
 20
179.8045057904131
 30
0.0
 10
289.4462817268396
 20
180.3015447808162
 30
0.0
 10
289.7128569285755
 20
180.5692993963891
 30
0.0
 10
289.9949465291431
 20
180.8419656183128
 30
0.0
  0
LINE
  5
185
330
1F
100
AcDbEntity
  8
0
  6
Continuous
 62
     7
370
    15
100
AcDbLine
 10
289.9949462961
 20
199.250949546
 30
0.0
 11
289.9949462961
 21
180.8419674628
 31
0.0
  0
SPLINE
  5
186
330
1F
100
AcDbEntity
  8
0
  6
Continuous
 62
     7
370
    15
100
AcDbSpline
210
0.0
220
0.0
230
1.0
 70
     8
 71
     3
 72
     8
 73
     4
 74
     0
 42
0.00000001
 43
0.00000001
 40
0.0
 40
0.0
 40
0.0
 40
0.0
 40
0.0000226150302116
 40
0.0000226150302116
 40
0.0000226150302116
 40
0.0000226150302116
 10
290.0091814013299
 20
199.2523278234622
 30
0.0
 10
290.0044300369835
 20
199.2523429591108
 30
0.0
 10
289.9996832253314
 20
199.2525066339789
 30
0.0
 10
289.9949465291431
 20
199.2528194773453
 30
0.0
  0
SPLINE
  5
187
330
1F
100
AcDbEntity
  8
0
  6
Continuous
 62
     7
370
    15
100
AcDbSpline
210
0.0
220
0.0
230
1.0
 70
    24
 71
     3
 72
    22
 73
    18
 74
     0
 42
0.00000001
 43
0.00000001
 40
0.0
 40
0.0
 40
0.0
 40
0.0
 40
0.1249999999999999
 40
0.1249999999999999
 40
0.2499999999999999
 40
0.2499999999999999
 40
0.3749999999999999
 40
0.3749999999999999
 40
0.4999999999999999
 40
0.4999999999999999
 40
0.6249999999999999
 40
0.6249999999999999
 40
0.7499999999999999
 40
0.7499999999999999
 40
0.8749999999999999
 40
0.8749999999999999
 40
1.0
 40
1.0
 40
1.0
 40
1.0
 10
309.4180930701438
 20
199.2509504132225
 30
0.0
 10
308.8345035393449
 20
199.2509504132225
 30
0.0
 10
308.1707429496548
 20
199.2509504132225
 30
0.0
 10
306.7154151718693
 20
199.2509504132225
 30
0.0
 10
305.9239069889956
 20
199.2509504132225
 30
0.0
 10
304.2519993520008
 20
199.2509504132225
 30
0.0
 10
303.3716676841766
 20
199.2509504132225
 30
0.0
 10
301.5653998228751
 20
199.2509504132225
 30
0.0
 10
300.6395368632336
 20
199.2509504132225
 30
0.0
 10
298.7877358640064
 20
199.2509504132225
 30
0.0
 10
297.8618729043649
 20
199.2509504132225
 30
0.0
 10
296.0556050430634
 20
199.2509504132225
 30
0.0
 10
295.1752733752392
 20
199.2509504132225
 30
0.0
 10
293.5033657382444
 20
199.2509504132225
 30
0.0
 10
292.7118575553707
 20
199.2509504132225
 30
0.0
 10
291.2565297775852
 20
199.2509504132225
 30
0.0
 10
290.5927691878951
 20
199.2509504132225
 30
0.0
 10
290.0091796570962
 20
199.2509504132225
 30
0.0
  0
SPLINE
  5
188
330
1F
100
AcDbEntity
  8
0
  6
Continuous
 62
     7
370
    15
100
AcDbSpline
210
0.0
220
0.0
230
1.0
 70
     8
 71
     3
 72
     8
 73
     4
 74
     0
 42
0.00000001
 43
0.00000001
 40
0.0
 40
0.0
 40
0.0
 40
0.0
 40
0.0000226150302116
 40
0.0000226150302116
 40
0.0000226150302116
 40
0.0000226150302116
 10
309.432326198097
 20
199.2528194773454
 30
0.0
 10
309.4275895019086
 20
199.252506633979
 30
0.0
 10
309.4228426902565
 20
199.2523429591109
 30
0.0
 10
309.4180913259102
 20
199.2523278234623
 30
0.0
  0
LINE
  5
189
330
1F
100
AcDbEntity
  8
0
  6
Continuous
 62
     7
370
    15
100
AcDbLine
 10
309.4323264311
 20
180.8419674628
 30
0.0
 11
309.4323264311
 21
199.250949546
 31
0.0
  0
SPLINE
  5
18A
330
1F
100
AcDbEntity
  8
0
  6
Continuous
 62
     7
370
    15
100
AcDbSpline
210
0.0
220
0.0
230
1.0
 70
     8
 71
     3
 72
    14
 73
    10
 74
     0
 42
0.00000001
 43
0.00000001
 40
0.0
 40
0.0
 40
0.0
 40
0.0
 40
0.2499999999999998
 40
0.2499999999999998
 40
0.4999999999999999
 40
0.4999999999999999
 40
0.7499999999999999
 40
0.7499999999999999
 40
1.0
 40
1.0
 40
1.0
 40
1.0
 10
311.9349923120687
 20
178.7849722975531
 30
0.0
 10
311.8237591474843
 20
178.7566013834839
 30
0.0
 10
311.6810920300471
 20
178.8083082277918
 30
0.0
 10
311.33860298443
 20
179.023868580304
 30
0.0
 10
311.1445796966381
 20
179.184319609059
 30
0.0
 10
310.7166341133263
 20
179.5736650634767
 30
0.0
 10
310.4813777140189
 20
179.8045057904131
 30
0.0
 10
309.9809910004005
 20
180.3015447808163
 30
0.0
 10
309.7144157986657
 20
180.569299396392
 30
0.0
 10
309.432326198097
 20
180.8419656183129
 30
0.0
  0
LINE
  5
18B
330
1F
100
AcDbEntity
  8
0
  6
Continuous
 62
     7
370
    15
100
AcDbLine
 10
292.3178603749
 20
177.2509515278
 30
0.0
 11
307.1094123523
 21
177.2509515278
 31
0.0
  0
SPLINE
  5
18C
330
1F
100
AcDbEntity
  8
0
  6
Continuous
 62
     7
370
    15
100
AcDbSpline
210
0.0
220
0.0
230
1.0
 70
     8
 71
     3
 72
     8
 73
     4
 74
     0
 42
0.00000001
 43
0.00000001
 40
0.0
 40
0.0
 40
0.0
 40
0.0
 40
0.0000226150302116
 40
0.0000226150302116
 40
0.0000226150302116
 40
0.0000226150302116
 10
309.4180913259099
 20
254.1495730029828
 30
0.0
 10
309.4228426902563
 20
254.1495578673342
 30
0.0
 10
309.4275895019085
 20
254.1493941924661
 30
0.0
 10
309.4323261980967
 20
254.1490813490998
 30
0.0
  0
SPLINE
  5
18D
330
1F
100
AcDbEntity
  8
0
  6
Continuous
 62
     7
370
    15
100
AcDbSpline
210
0.0
220
0.0
230
1.0
 70
    24
 71
     3
 72
    14
 73
    10
 74
     0
 42
0.00000001
 43
0.00000001
 40
0.1393700509402416
 40
0.1393700509402416
 40
0.1393700509402416
 40
0.1393700509402416
 40
0.2500000000000002
 40
0.3750000000000002
 40
0.5000000000000003
 40
0.5000000000000003
 40
0.6250000000000002
 40
0.7500000000000002
 40
0.8606299490597574
 40
0.8606299490597574
 40
0.8606299490597574
 40
0.8606299490597574
 10
290.0090694897366
 20
254.1509504132224
 30
0.0
 10
290.725309392125
 20
254.1509504132225
 30
0.0
 10
292.5079777992852
 20
254.1509504132225
 30
0.0
 10
295.8626222172329
 20
254.1509504132224
 30
0.0
 10
298.4299142101221
 20
254.1509504132225
 30
0.0
 10
300.9973585171176
 20
254.1509504132225
 30
0.0
 10
303.5646505100068
 20
254.1509504132225
 30
0.0
 10
306.9192949279545
 20
254.1509504132226
 30
0.0
 10
308.7019633351146
 20
254.1509504132225
 30
0.0
 10
309.4182032375031
 20
254.1509504132225
 30
0.0
  0
SPLINE
  5
18E
330
1F
100
AcDbEntity
  8
0
  6
Continuous
 62
     7
370
    15
100
AcDbSpline
210
0.0
220
0.0
230
1.0
 70
     8
 71
     3
 72
     8
 73
     4
 74
     0
 42
0.00000001
 43
0.00000001
 40
0.0
 40
0.0
 40
0.0
 40
0.0
 40
0.0000226150302116
 40
0.0000226150302116
 40
0.0000226150302116
 40
0.0000226150302116
 10
289.9949465291429
 20
254.1490813490997
 30
0.0
 10
289.9996832253312
 20
254.1493941924661
 30
0.0
 10
290.0044300369834
 20
254.1495578673343
 30
0.0
 10
290.0091814013297
 20
254.1495730029829
 30
0.0
  0
LINE
  5
18F
330
1F
100
AcDbEntity
  8
0
  6
Continuous
 62
     7
370
    15
100
AcDbLine
 10
289.9949462961
 20
272.5599333637
 30
0.0
 11
289.9949462961
 21
254.1509512805
 31
0.0
  0
SPLINE
  5
190
330
1F
100
AcDbEntity
  8
0
  6
Continuous
 62
     7
370
    15
100
AcDbSpline
210
0.0
220
0.0
230
1.0
 70
     8
 71
     3
 72
    14
 73
    10
 74
     0
 42
0.00000001
 43
0.00000001
 40
0.0
 40
0.0
 40
0.0
 40
0.0
 40
0.25
 40
0.25
 40
0.5
 40
0.5
 40
0.75
 40
0.75
 40
1.0
 40
1.0
 40
1.0
 40
1.0
 10
287.4922804151711
 20
274.6169285288919
 30
0.0
 10
287.6035135797556
 20
274.6452994429611
 30
0.0
 10
287.7461806971927
 20
274.5935925986532
 30
0.0
 10
288.0886697428098
 20
274.3780322461411
 30
0.0
 10
288.2826930306018
 20
274.2175812173861
 30
0.0
 10
288.7106386139135
 20
273.8282357629684
 30
0.0
 10
288.9458950132209
 20
273.5973950360319
 30
0.0
 10
289.4462817268393
 20
273.1003560456288
 30
0.0
 10
289.7128569285732
 20
272.8326014300507
 30
0.0
 10
289.9949465291429
 20
272.5599352081322
 30
0.0
  0
SPLINE
  5
191
330
1F
100
AcDbEntity
  8
0
  6
Continuous
 62
     7
370
    15
100
AcDbSpline
210
0.0
220
0.0
230
1.0
 70
     8
 71
     3
 72
    14
 73
    10
 74
     0
 42
0.00000001
 43
0.00000001
 40
0.0
 40
0.0
 40
0.0
 40
0.0
 40
0.25
 40
0.25
 40
0.5
 40
0.5
 40
0.75
 40
0.75
 40
1.0
 40
1.0
 40
1.0
 40
1.0
 10
311.9349923120683
 20
274.6169285288921
 30
0.0
 10
311.8237591474839
 20
274.6452994429612
 30
0.0
 10
311.6810920300468
 20
274.5935925986533
 30
0.0
 10
311.3386029844297
 20
274.3780322461412
 30
0.0
 10
311.1445796966377
 20
274.2175812173861
 30
0.0
 10
310.716634113326
 20
273.8282357629685
 30
0.0
 10
310.4813777140186
 20
273.597395036032
 30
0.0
 10
309.9809910004003
 20
273.1003560456288
 30
0.0
 10
309.7144157986666
 20
272.8326014300499
 30
0.0
 10
309.4323261980967
 20
272.5599352081322
 30
0.0
  0
LINE
  5
192
330
1F
100
AcDbEntity
  8
0
  6
Continuous
 62
     7
370
    15
100
AcDbLine
 10
309.4323264311
 20
254.1509512805
 30
0.0
 11
309.4323264311
 21
272.5599333637
 31
0.0
  0
LINE
  5
193
330
1F
100
AcDbEntity
  8
0
  6
Continuous
 62
     7
370
    15
100
AcDbLine
 10
292.3178603749
 20
276.1509492986
 30
0.0
 11
307.1094123523
 21
276.1509492986
 31
0.0
  0
SPLINE
  5
194
330
1F
100
AcDbEntity
  8
0
  6
Continuous
 62
     7
370
    15
100
AcDbSpline
210
0.0
220
0.0
230
1.0
 70
     8
 71
     3
 72
    44
 73
    40
 74
     0
 42
0.00000001
 43
0.00000001
 40
0.0
 40
0.0
 40
0.0
 40
0.0
 40
0.0625000000000003
 40
0.0625000000000003
 40
0.1250000000000006
 40
0.1250000000000006
 40
0.1875000000000009
 40
0.1875000000000009
 40
0.2500000000000013
 40
0.2500000000000013
 40
0.2812500000000014
 40
0.2812500000000014
 40
0.3125000000000016
 40
0.3125000000000016
 40
0.3750000000000016
 40
0.3750000000000016
 40
0.4375000000000017
 40
0.4375000000000017
 40
0.5000000000000017
 40
0.5000000000000017
 40
0.5625000000000018
 40
0.5625000000000018
 40
0.5937500000000018
 40
0.5937500000000018
 40
0.6250000000000019
 40
0.6250000000000019
 40
0.6875000000000018
 40
0.6875000000000018
 40
0.7187500000000016
 40
0.7187500000000016
 40
0.7500000000000013
 40
0.7500000000000013
 40
0.8125000000000011
 40
0.8125000000000011
 40
0.8750000000000008
 40
0.8750000000000008
 40
0.9375000000000004
 40
0.9375000000000004
 40
1.0
 40
1.0
 40
1.0
 40
1.0
 10
309.4182032448289
 20
199.2509504132226
 30
0.0
 10
309.3462623849536
 20
199.8766044161325
 30
0.0
 10
309.228918633327
 20
200.4975092431121
 30
0.0
 10
308.9065760393311
 20
201.7171249902201
 30
0.0
 10
308.7030122592313
 20
202.3084941428522
 30
0.0
 10
308.2053847836775
 20
203.4519874070309
 30
0.0
 10
307.9114002344957
 20
204.0041444196417
 30
0.0
 10
307.2204274537855
 20
205.0637929106601
 30
0.0
 10
306.832231410928
 20
205.5543571840431
 30
0.0
 10
306.1865288263051
 20
206.2318302099355
 30
0.0
 10
305.9606820537289
 20
206.4478910627394
 30
0.0
 10
305.4870878205929
 20
206.8598694945867
 30
0.0
 10
305.237977127296
 20
207.0566761769301
 30
0.0
 10
304.4699394989522
 20
207.6052521975071
 30
0.0
 10
303.9290784685558
 20
207.9179081809019
 30
0.0
 10
302.7865645513733
 20
208.4314021388555
 30
0.0
 10
302.1808622555309
 20
208.6326345469521
 30
0.0
 10
300.9590549066228
 20
208.9010163959488
 30
0.0
 10
300.3370355558804
 20
208.9718409493511
 30
0.0
 10
299.0694887687094
 20
208.9702526670029
 30
0.0
 10
298.4470164124752
 20
208.8979894038721
 30
0.0
 10
297.5284597919016
 20
208.6937282646749
 30
0.0
 10
297.2236065585234
 20
208.6090160753689
 30
0.0
 10
296.624715340886
 20
208.4086441807544
 30
0.0
 10
296.3330931060195
 20
208.2939479569395
 30
0.0
 10
295.4806043100014
 20
207.9083105284768
 30
0.0
 10
294.9421834783446
 20
207.5956826570196
 30
0.0
 10
294.1772471918298
 20
207.0474205113619
 30
0.0
 10
293.9282138718381
 20
206.8500886172542
 30
0.0
 10
293.4551260988153
 20
206.4372532451125
 30
0.0
 10
293.230078009227
 20
206.2212391660859
 30
0.0
 10
292.5879269646537
 20
205.5456527858352
 30
0.0
 10
292.2036512279862
 20
205.0586746685736
 30
0.0
 10
291.5213245389705
 20
204.0127247153967
 30
0.0
 10
291.2214963566755
 20
203.4514610476568
 30
0.0
 10
290.7224131859671
 20
202.303874148722
 30
0.0
 10
290.5195545218265
 20
201.7129791557655
 30
0.0
 10
290.1990219468866
 20
200.4998602059305
 30
0.0
 10
290.08101034233
 20
199.8766044161272
 30
0.0
 10
290.009069482411
 20
199.2509504132225
 30
0.0
  0
SPLINE
  5
195
330
1F
100
AcDbEntity
  8
0
  6
Continuous
 62
     7
370
    15
100
AcDbSpline
210
0.0
220
0.0
230
1.0
 70
     8
 71
     3
 72
    44
 73
    40
 74
     0
 42
0.00000001
 43
0.00000001
 40
0.0
 40
0.0
 40
0.0
 40
0.0
 40
0.0625000000000001
 40
0.0625000000000001
 40
0.1250000000000003
 40
0.1250000000000003
 40
0.1875000000000004
 40
0.1875000000000004
 40
0.2500000000000005
 40
0.2500000000000005
 40
0.2812500000000004
 40
0.2812500000000004
 40
0.3125000000000003
 40
0.3125000000000003
 40
0.3750000000000001
 40
0.3750000000000001
 40
0.4062499999999999
 40
0.4062499999999999
 40
0.4374999999999998
 40
0.4374999999999998
 40
0.4999999999999997
 40
0.4999999999999997
 40
0.5624999999999994
 40
0.5624999999999994
 40
0.6249999999999992
 40
0.6249999999999992
 40
0.6874999999999991
 40
0.6874999999999991
 40
0.718749999999999
 40
0.718749999999999
 40
0.749999999999999
 40
0.749999999999999
 40
0.8124999999999992
 40
0.8124999999999992
 40
0.8749999999999994
 40
0.8749999999999994
 40
0.9374999999999998
 40
0.9374999999999998
 40
1.0
 40
1.0
 40
1.0
 40
1.0
 10
290.0090694824108
 20
254.1509504132224
 30
0.0
 10
290.0810579668344
 20
253.5248822329802
 30
0.0
 10
290.1990219545658
 20
252.9020405848979
 30
0.0
 10
290.5195545318201
 20
251.6889216394089
 30
0.0
 10
290.7224131969352
 20
251.0980266485566
 30
0.0
 10
291.2214963692934
 20
249.9504397537202
 30
0.0
 10
291.5213245521985
 20
249.3891760881581
 30
0.0
 10
292.2036512416301
 20
248.3432261395688
 30
0.0
 10
292.5879269783395
 20
247.8562480244629
 30
0.0
 10
293.2300780226164
 20
247.1806616471466
 30
0.0
 10
293.4551261120548
 20
246.9646475690556
 30
0.0
 10
293.9282138846823
 20
246.5518121987057
 30
0.0
 10
294.177247204322
 20
246.3544803055447
 30
0.0
 10
294.9421834895103
 20
245.8062181625918
 30
0.0
 10
295.4806043201323
 20
245.4935902926589
 30
0.0
 10
296.3330931143838
 20
245.107952866085
 30
0.0
 10
296.6247153486242
 20
244.9932566428308
 30
0.0
 10
297.2236065649359
 20
244.7928847492015
 30
0.0
 10
297.5284597975017
 20
244.708172560348
 30
0.0
 10
298.4470164157452
 20
244.5039114221993
 30
0.0
 10
299.0694887703741
 20
244.43164815944
 30
0.0
 10
300.337035554217
 20
244.4300598770961
 30
0.0
 10
300.9590549033575
 20
244.5008844301305
 30
0.0
 10
302.1808622491736
 20
244.769266277745
 30
0.0
 10
302.7865645435548
 20
244.9704986848071
 30
0.0
 10
303.9290784583767
 20
245.483992640237
 30
0.0
 10
304.4699394877378
 20
245.7966486221032
 30
0.0
 10
305.237977114755
 20
246.34522463997
 30
0.0
 10
305.4870878077551
 20
246.5420313214132
 30
0.0
 10
305.9606820404548
 20
246.9540097514365
 30
0.0
 10
306.1865288128608
 20
247.1700706032841
 30
0.0
 10
306.8322313971292
 20
247.8475436261642
 30
0.0
 10
307.2204274397233
 20
248.3381078969013
 30
0.0
 10
307.9114002213452
 20
249.3977563839553
 30
0.0
 10
308.2053847711378
 20
249.949913394517
 30
0.0
 10
308.7030122482531
 20
251.0934066544494
 30
0.0
 10
308.906576029298
 20
251.6847758048865
 30
0.0
 10
309.228918625587
 20
252.9043915474265
 30
0.0
 10
309.3462147611863
 20
253.524882232886
 30
0.0
 10
309.4182032448288
 20
254.1509504132225
 30
0.0
  0
SPLINE
  5
196
330
1F
100
AcDbEntity
  8
0
  6
Continuous
 62
     7
370
    15
100
AcDbSpline
210
0.0
220
0.0
230
1.0
 70
     8
 71
     3
 72
    18
 73
    14
 74
     0
 42
0.00000001
 43
0.00000001
 40
0.0
 40
0.0
 40
0.0
 40
0.0
 40
0.2500000000000006
 40
0.2500000000000006
 40
0.5000000000000012
 40
0.5000000000000012
 40
0.7500000000000018
 40
0.7500000000000018
 40
0.8750000000000016
 40
0.8750000000000016
 40
0.9375000000000009
 40
0.9375000000000009
 40
1.0
 40
1.0
 40
1.0
 40
1.0
 10
289.9949465291431
 20
199.2528194773452
 30
0.0
 10
289.5238914722743
 20
199.2839311306777
 30
0.0
 10
288.9972503747105
 20
199.3188376779216
 30
0.0
 10
287.8371813739641
 20
199.3961623618821
 30
0.0
 10
287.1960402783403
 20
199.4391031234178
 30
0.0
 10
285.8622009389433
 20
199.5290303266021
 30
0.0
 10
285.1650067589099
 20
199.576310720129
 30
0.0
 10
284.0723248603484
 20
199.6509614733736
 30
0.0
 10
283.704330190116
 20
199.6761910429923
 30
0.0
 10
283.1499731218113
 20
199.7143399195245
 30
0.0
 10
282.9646196610823
 20
199.7271188286126
 30
0.0
 10
282.5927723519468
 20
199.7528039788126
 30
0.0
 10
282.4043073548999
 20
199.7658493269995
 30
0.0
 10
282.2199946615617
 20
199.7786269491967
 30
0.0
  0
SPLINE
  5
197
330
1F
100
AcDbEntity
  8
0
  6
Continuous
 62
     7
370
    15
100
AcDbSpline
210
0.0
220
0.0
230
1.0
 70
     8
 71
     3
 72
    58
 73
    54
 74
     0
 42
0.00000001
 43
0.00000001
 40
0.0
 40
0.0
 40
0.0
 40
0.0
 40
0.015625
 40
0.015625
 40
0.03125
 40
0.03125
 40
0.0625
 40
0.0625
 40
0.125
 40
0.125
 40
0.1562500000000001
 40
0.1562500000000001
 40
0.1875000000000002
 40
0.1875000000000002
 40
0.2500000000000002
 40
0.2500000000000002
 40
0.2812500000000003
 40
0.2812500000000003
 40
0.3125000000000003
 40
0.3125000000000003
 40
0.3750000000000003
 40
0.3750000000000003
 40
0.4062500000000004
 40
0.4062500000000004
 40
0.4375000000000004
 40
0.4375000000000004
 40
0.5000000000000004
 40
0.5000000000000004
 40
0.5625000000000006
 40
0.5625000000000006
 40
0.5937500000000006
 40
0.5937500000000006
 40
0.6250000000000006
 40
0.6250000000000006
 40
0.6875000000000006
 40
0.6875000000000006
 40
0.7187500000000006
 40
0.7187500000000006
 40
0.7500000000000006
 40
0.7500000000000006
 40
0.8125000000000004
 40
0.8125000000000004
 40
0.8437500000000003
 40
0.8437500000000003
 40
0.8750000000000003
 40
0.8750000000000003
 40
0.9375000000000002
 40
0.9375000000000002
 40
0.9687500000000002
 40
0.9687500000000002
 40
0.9843750000000001
 40
0.9843750000000001
 40
1.0
 40
1.0
 40
1.0
 40
1.0
 10
282.2199946615615
 20
199.7786269491966
 30
0.0
 10
282.258568930617
 20
200.0554483257824
 30
0.0
 10
282.2932954343219
 20
200.3329434093609
 30
0.0
 10
282.3760881624535
 20
200.8855979187237
 30
0.0
 10
282.4231984300524
 20
201.1609247234257
 30
0.0
 10
282.5813599326574
 20
201.9839582426149
 30
0.0
 10
282.709587229914
 20
202.5299026173106
 30
0.0
 10
283.1567528269521
 20
204.1401747300118
 30
0.0
 10
283.5379898108791
 20
205.1812607138792
 30
0.0
 10
284.2375788562907
 20
206.6930591696242
 30
0.0
 10
284.4925354643086
 20
207.1891769900471
 30
0.0
 10
285.0463805695454
 20
208.1614849984271
 30
0.0
 10
285.3420029042603
 20
208.63201836017
 30
0.0
 10
286.2845701625038
 20
209.9970898950125
 30
0.0
 10
286.9866912563105
 20
210.845537304965
 30
0.0
 10
288.1546492920272
 20
212.0223313118872
 30
0.0
 10
288.5632014666942
 20
212.3985300636119
 30
0.0
 10
289.4210270735069
 20
213.116911544854
 30
0.0
 10
289.8657064459181
 20
213.455022044642
 30
0.0
 10
291.2341754233491
 20
214.3971490104639
 30
0.0
 10
292.1972617030531
 20
214.9336871770759
 30
0.0
 10
293.7208587168346
 20
215.5961133259643
 30
0.0
 10
294.2435602157377
 20
215.7935979177482
 30
0.0
 10
295.3099876502141
 20
216.135729170339
 30
0.0
 10
295.8477995486521
 20
216.2786566771781
 30
0.0
 10
297.4748696746708
 20
216.6240046345013
 30
0.0
 10
298.5775957006578
 20
216.7440102118202
 30
0.0
 10
300.8219447624971
 20
216.7459949245829
 30
0.0
 10
301.9237128811607
 20
216.6278472400744
 30
0.0
 10
303.5468499668551
 20
216.2866563871541
 30
0.0
 10
304.08301459917
 20
216.1453390509456
 30
0.0
 10
305.14551379017
 20
215.8071462437397
 30
0.0
 10
305.6724941130976
 20
215.6095994547823
 30
0.0
 10
307.203956713126
 20
214.9474253869838
 30
0.0
 10
308.1713566506809
 20
214.4104062193833
 30
0.0
 10
309.5452225499617
 20
213.4671038800789
 30
0.0
 10
309.9922741443482
 20
213.1278398322416
 30
0.0
 10
310.8493717922303
 20
212.4115867216235
 30
0.0
 10
311.2585223086679
 20
212.035744899454
 30
0.0
 10
312.4303367334797
 20
210.8574095100848
 30
0.0
 10
313.1377706729609
 20
210.0044778498989
 30
0.0
 10
314.0897610672671
 20
208.625390855677
 30
0.0
 10
314.387387759873
 20
208.1505763181889
 30
0.0
 10
314.9368365666883
 20
207.1849890047771
 30
0.0
 10
315.1899823226507
 20
206.6923543331577
 30
0.0
 10
315.8871425738002
 20
205.1860486748674
 30
0.0
 10
316.2697955628273
 20
204.1431717085801
 30
0.0
 10
316.718821916213
 20
202.5256155004667
 30
0.0
 10
316.8463067391554
 20
201.9820707457441
 30
0.0
 10
317.0041970284881
 20
201.1602045661254
 30
0.0
 10
317.051255005389
 20
200.8851545292538
 30
0.0
 10
317.1339919039032
 20
200.332819038504
 30
0.0
 10
317.1687179994379
 20
200.0553464018091
 30
0.0
 10
317.2072780656785
 20
199.7786269491968
 30
0.0
  0
SPLINE
  5
198
330
1F
100
AcDbEntity
  8
0
  6
Continuous
 62
     7
370
    15
100
AcDbSpline
210
0.0
220
0.0
230
1.0
 70
     8
 71
     3
 72
    18
 73
    14
 74
     0
 42
0.00000001
 43
0.00000001
 40
0.0
 40
0.0
 40
0.0
 40
0.0
 40
0.2499999999999997
 40
0.2499999999999997
 40
0.4999999999999994
 40
0.4999999999999994
 40
0.7499999999999991
 40
0.7499999999999991
 40
0.8749999999999997
 40
0.8749999999999997
 40
0.9374999999999999
 40
0.9374999999999999
 40
1.0
 40
1.0
 40
1.0
 40
1.0
 10
309.432326198097
 20
199.2528194773454
 30
0.0
 10
309.9033827439626
 20
199.2839312290212
 30
0.0
 10
310.4300235612362
 20
199.3188377589863
 30
0.0
 10
311.5900857876954
 20
199.3961619904089
 30
0.0
 10
312.2312290474295
 20
199.4391028943638
 30
0.0
 10
313.565073228286
 20
199.5290304234141
 30
0.0
 10
314.2622615020122
 20
199.5763104219311
 30
0.0
 10
315.3549179123797
 20
199.6509594234491
 30
0.0
 10
315.7229308127276
 20
199.676190237449
 30
0.0
 10
316.2772941847575
 20
199.7143395458677
 30
0.0
 10
316.4626493586072
 20
199.727118572723
 30
0.0
 10
316.8344992994242
 20
199.7528039042876
 30
0.0
 10
317.0229660194697
 20
199.7658493717655
 30
0.0
 10
317.2072780656786
 20
199.7786269491968
 30
0.0
  0
SPLINE
  5
199
330
1F
100
AcDbEntity
  8
0
  6
Continuous
 62
     7
370
    15
100
AcDbSpline
210
0.0
220
0.0
230
1.0
 70
     8
 71
     3
 72
    18
 73
    14
 74
     0
 42
0.00000001
 43
0.00000001
 40
0.0
 40
0.0
 40
0.0
 40
0.0
 40
0.2500000000000003
 40
0.2500000000000003
 40
0.5000000000000007
 40
0.5000000000000007
 40
0.750000000000001
 40
0.750000000000001
 40
0.8750000000000011
 40
0.8750000000000011
 40
0.9375000000000006
 40
0.9375000000000006
 40
1.0
 40
1.0
 40
1.0
 40
1.0
 10
309.4323261980967
 20
254.1490813490998
 30
0.0
 10
309.9033812549656
 20
254.1179696957673
 30
0.0
 10
310.4300223525294
 20
254.0830631485235
 30
0.0
 10
311.5900913532757
 20
254.005738464563
 30
0.0
 10
312.2312324488996
 20
253.9627977030271
 30
0.0
 10
313.5650717882965
 20
253.8728704998428
 30
0.0
 10
314.26226596833
 20
253.8255901063164
 30
0.0
 10
315.3549478668915
 20
253.750939353072
 30
0.0
 10
315.7229425371231
 20
253.7257097834419
 30
0.0
 10
316.2772996054275
 20
253.687560906905
 30
0.0
 10
316.4626530661573
 20
253.6747819978296
 30
0.0
 10
316.8345003752926
 20
253.6490968476266
 30
0.0
 10
317.0229653723364
 20
253.6360514993948
 30
0.0
 10
317.2072780656782
 20
253.6232738772484
 30
0.0
  0
SPLINE
  5
19A
330
1F
100
AcDbEntity
  8
0
  6
Continuous
 62
     7
370
    15
100
AcDbSpline
210
0.0
220
0.0
230
1.0
 70
     8
 71
     3
 72
    58
 73
    54
 74
     0
 42
0.00000001
 43
0.00000001
 40
0.0
 40
0.0
 40
0.0
 40
0.0
 40
0.015625
 40
0.015625
 40
0.03125
 40
0.03125
 40
0.0625000000000001
 40
0.0625000000000001
 40
0.1250000000000002
 40
0.1250000000000002
 40
0.1562500000000002
 40
0.1562500000000002
 40
0.1875000000000002
 40
0.1875000000000002
 40
0.2500000000000003
 40
0.2500000000000003
 40
0.2812500000000004
 40
0.2812500000000004
 40
0.3125000000000004
 40
0.3125000000000004
 40
0.3750000000000004
 40
0.3750000000000004
 40
0.4062500000000004
 40
0.4062500000000004
 40
0.4375000000000004
 40
0.4375000000000004
 40
0.5000000000000004
 40
0.5000000000000004
 40
0.5625000000000004
 40
0.5625000000000004
 40
0.5937500000000006
 40
0.5937500000000006
 40
0.6250000000000006
 40
0.6250000000000006
 40
0.6875000000000004
 40
0.6875000000000004
 40
0.7187500000000004
 40
0.7187500000000004
 40
0.7500000000000003
 40
0.7500000000000003
 40
0.8125000000000001
 40
0.8125000000000001
 40
0.8437500000000002
 40
0.8437500000000002
 40
0.8750000000000002
 40
0.8750000000000002
 40
0.9375000000000002
 40
0.9375000000000002
 40
0.9687500000000003
 40
0.9687500000000003
 40
0.9843750000000002
 40
0.9843750000000002
 40
1.0
 40
1.0
 40
1.0
 40
1.0
 10
317.2072780656783
 20
253.6232738772484
 30
0.0
 10
317.1687049321229
 20
253.3464606493769
 30
0.0
 10
317.133972313452
 20
253.0689307707516
 30
0.0
 10
317.0512104383768
 20
252.5164690272915
 30
0.0
 10
317.0041390338371
 20
252.2413672756467
 30
0.0
 10
316.8462095997931
 20
251.4193787065145
 30
0.0
 10
316.71870016581
 20
250.8757959122713
 30
0.0
 10
316.2696343554613
 20
249.2582501080184
 30
0.0
 10
315.8869656338827
 20
248.2154087574694
 30
0.0
 10
315.1897773412668
 20
246.7091341697293
 30
0.0
 10
314.9366225013453
 20
246.2165097349284
 30
0.0
 10
314.3871557944807
 20
245.2509427729912
 30
0.0
 10
314.0895193824115
 20
244.7761372991897
 30
0.0
 10
313.1375098643934
 20
243.3970903031592
 30
0.0
 10
312.4300649410865
 20
242.5441836962813
 30
0.0
 10
311.2582354295759
 20
241.3658846183507
 30
0.0
 10
310.8490801176725
 20
240.9900546868135
 30
0.0
 10
309.9919731294262
 20
240.2738251286324
 30
0.0
 10
309.5449207665775
 20
239.9345756248597
 30
0.0
 10
308.171051488692
 20
238.9913133269428
 30
0.0
 10
307.2036503413257
 20
238.454318993778
 30
0.0
 10
305.6721868587987
 20
237.7921805146976
 30
0.0
 10
305.1452068717188
 20
237.5946456890571
 30
0.0
 10
304.0827145751727
 20
237.2564774861586
 30
0.0
 10
303.546553509979
 20
237.1151717744788
 30
0.0
 10
301.9234273936518
 20
236.7740142804277
 30
0.0
 10
300.8216604534354
 20
236.6558868411446
 30
0.0
 10
298.5773401955062
 20
236.6579101573541
 30
0.0
 10
297.4746279615081
 20
236.7779313037709
 30
0.0
 10
295.8475779779686
 20
237.1232992765852
 30
0.0
 10
295.3097726998064
 20
237.266232880742
 30
0.0
 10
294.2433583555861
 20
237.6083754082498
 30
0.0
 10
293.7206672093293
 20
237.8058636281577
 30
0.0
 10
292.1970950322448
 20
238.4683003890654
 30
0.0
 10
291.2340240127837
 20
239.0048432908253
 30
0.0
 10
289.8655764351021
 20
239.9469746717445
 30
0.0
 10
289.4209030346541
 20
240.2850869978525
 30
0.0
 10
288.5630933900197
 20
241.0034674321493
 30
0.0
 10
288.154548658823
 20
241.3796652113081
 30
0.0
 10
286.9866116044138
 20
242.5564551735756
 30
0.0
 10
286.2845027193173
 20
243.4048984011693
 30
0.0
 10
285.3419516106501
 20
244.76996185523
 30
0.0
 10
285.0463342886087
 20
245.2404922138709
 30
0.0
 10
284.492498488122
 20
246.2127936141051
 30
0.0
 10
284.2375467514634
 20
246.7089066382174
 30
0.0
 10
283.53796988762
 20
248.220691960171
 30
0.0
 10
283.1567391924303
 20
249.2617684733707
 30
0.0
 10
282.7095806030759
 20
250.8720254338825
 30
0.0
 10
282.5813552554973
 20
251.4179645002606
 30
0.0
 10
282.4231960134803
 20
252.2409898894983
 30
0.0
 10
282.3760863883284
 20
252.5163139647671
 30
0.0
 10
282.2932947192676
 20
253.068962975724
 30
0.0
 10
282.2585685440354
 20
253.3464552748954
 30
0.0
 10
282.2199946615613
 20
253.6232738772483
 30
0.0
  0
SPLINE
  5
19B
330
1F
100
AcDbEntity
  8
0
  6
Continuous
 62
     7
370
    15
100
AcDbSpline
210
0.0
220
0.0
230
1.0
 70
     8
 71
     3
 72
    18
 73
    14
 74
     0
 42
0.00000001
 43
0.00000001
 40
0.0
 40
0.0
 40
0.0
 40
0.0
 40
0.2500000000000001
 40
0.2500000000000001
 40
0.5000000000000001
 40
0.5000000000000001
 40
0.7500000000000002
 40
0.7500000000000002
 40
0.8750000000000008
 40
0.8750000000000008
 40
0.9375000000000004
 40
0.9375000000000004
 40
1.0
 40
1.0
 40
1.0
 40
1.0
 10
289.9949465291429
 20
254.1490813490997
 30
0.0
 10
289.5238899832772
 20
254.1179695974238
 30
0.0
 10
288.9972491660036
 20
254.0830630674588
 30
0.0
 10
287.8371869395444
 20
254.0057388360361
 30
0.0
 10
287.1960436798103
 20
253.9627979320814
 30
0.0
 10
285.8621994989537
 20
253.8728704030312
 30
0.0
 10
285.1650112252275
 20
253.8255904045141
 30
0.0
 10
284.0723548148599
 20
253.7509414029964
 30
0.0
 10
283.7043419145114
 20
253.7257105890056
 30
0.0
 10
283.1499785424812
 20
253.6875612805904
 30
0.0
 10
282.9646233686323
 20
253.6747822537226
 30
0.0
 10
282.5927734278152
 20
253.6490969221586
 30
0.0
 10
282.4043067077762
 20
253.63605145459
 30
0.0
 10
282.219994661561
 20
253.6232738772484
 30
0.0
  0
SPLINE
  5
19C
330
1F
100
AcDbEntity
  8
0
  6
Continuous
 62
     7
370
    15
100
AcDbSpline
210
0.0
220
0.0
230
1.0
 70
     8
 71
     3
 72
    18
 73
    14
 74
     0
 42
0.00000001
 43
0.00000001
 40
0.0
 40
0.0
 40
0.0
 40
0.0
 40
0.2499999999999995
 40
0.2499999999999995
 40
0.3749999999999999
 40
0.3749999999999999
 40
0.5000000000000003
 40
0.5000000000000003
 40
0.7500000000000004
 40
0.7500000000000004
 40
0.8750000000000002
 40
0.8750000000000002
 40
1.0
 40
1.0
 40
1.0
 40
1.0
 10
282.2199946615615
 20
183.6710189700979
 30
0.0
 10
282.9174173714346
 20
183.3024243344597
 30
0.0
 10
283.616916615181
 20
182.966120413083
 30
0.0
 10
284.6669952934918
 20
182.5083717250603
 30
0.0
 10
285.0171412893646
 20
182.3635841229034
 30
0.0
 10
285.7169911824593
 20
182.0894129432527
 30
0.0
 10
286.064890992054
 20
181.9608364411075
 30
0.0
 10
287.0794175784848
 20
181.6063865134262
 30
0.0
 10
287.7256564216771
 20
181.4083393468123
 30
0.0
 10
288.6408435542681
 20
181.1585795077074
 30
0.0
 10
288.9331909640675
 20
181.0842320557624
 30
0.0
 10
289.4866039922461
 20
180.951838153028
 30
0.0
 10
289.7485349619826
 20
180.8935598703951
 30
0.0
 10
289.9949465291431
 20
180.8419656183129
 30
0.0
  0
LINE
  5
19D
330
1F
100
AcDbEntity
  8
0
  6
Continuous
 62
     7
370
    15
100
AcDbLine
 10
282.2199953597
 20
183.6710199707
 30
0.0
 11
282.2199953597
 21
199.7786276035
 31
0.0
  0
SPLINE
  5
19E
330
1F
100
AcDbEntity
  8
0
  6
Continuous
 62
     7
370
    15
100
AcDbSpline
210
0.0
220
0.0
230
1.0
 70
     8
 71
     3
 72
    12
 73
     8
 74
     0
 42
0.00000001
 43
0.00000001
 40
0.0
 40
0.0
 40
0.0
 40
0.0
 40
0.2499999999999998
 40
0.2499999999999998
 40
0.4999999999999997
 40
0.4999999999999997
 40
1.0
 40
1.0
 40
1.0
 40
1.0
 10
287.4922804151715
 20
178.784972297553
 30
0.0
 10
286.9807580941634
 20
178.9154401833493
 30
0.0
 10
286.4587901409813
 20
179.0572953151134
 30
0.0
 10
285.3957558512822
 20
179.365898737664
 30
0.0
 10
284.8594966212152
 20
179.5313028368153
 30
0.0
 10
283.2502094177624
 20
180.0583459289549
 30
0.0
 10
282.1717902771016
 20
180.4521728059374
 30
0.0
 10
281.0901577378549
 20
180.8919060674203
 30
0.0
  0
LWPOLYLINE
  5
19F
330
1F
100
AcDbEntity
  8
0
  6
Continuous
 62
     7
370
    15
100
AcDbPolyline
 90
        9
 70
   128
 43
0.0
 10
281.090157653
 20
180.8919049792
 10
281.1118667822
 20
180.9453070157
 10
281.1761615674
 20
181.1034530394
 10
281.2805702786
 20
181.3602708273
 10
281.4210789155
 20
181.70588836
 10
281.5922913949
 20
182.1270249777
 10
281.7876251291
 20
182.6074980192
 10
281.999573658
 20
183.1288412206
 10
282.2199953597
 20
183.6710199707
  0
SPLINE
  5
1A0
330
1F
100
AcDbEntity
  8
0
  6
Continuous
 62
     7
370
    15
100
AcDbSpline
210
0.0
220
0.0
230
1.0
 70
     8
 71
     3
 72
    12
 73
     8
 74
     0
 42
0.00000001
 43
0.00000001
 40
0.0
 40
0.0
 40
0.0
 40
0.0
 40
0.2499999999999997
 40
0.2499999999999997
 40
0.4999999999999993
 40
0.4999999999999993
 40
1.0
 40
1.0
 40
1.0
 40
1.0
 10
311.9349923120683
 20
274.6169285288921
 30
0.0
 10
312.4465146330764
 20
274.4864606430957
 30
0.0
 10
312.9684825862585
 20
274.3446055113316
 30
0.0
 10
314.0315168759576
 20
274.0360020887811
 30
0.0
 10
314.5677761060247
 20
273.8705979896298
 30
0.0
 10
316.1770633094774
 20
273.3435548974902
 30
0.0
 10
317.2554824501382
 20
272.9497280205076
 30
0.0
 10
318.3371149893849
 20
272.5099947590247
 30
0.0
  0
LWPOLYLINE
  5
1A1
330
1F
100
AcDbEntity
  8
0
  6
Continuous
 62
     7
370
    15
100
AcDbPolyline
 90
        9
 70
   128
 43
0.0
 10
318.3371150743
 20
272.5099958472
 10
318.3154059451
 20
272.4565938108
 10
318.2511111598
 20
272.298447787
 10
318.1467024486
 20
272.0416299992
 10
318.0061938118
 20
271.6960124664
 10
317.8349813323
 20
271.2748758488
 10
317.6396475981
 20
270.7944028072
 10
317.4276990693
 20
270.2730596058
 10
317.2072773676
 20
269.7308808558
  0
SPLINE
  5
1A2
330
1F
100
AcDbEntity
  8
0
  6
Continuous
 62
     7
370
    15
100
AcDbSpline
210
0.0
220
0.0
230
1.0
 70
     8
 71
     3
 72
    18
 73
    14
 74
     0
 42
0.00000001
 43
0.00000001
 40
0.0
 40
0.0
 40
0.0
 40
0.0
 40
0.2499999999999996
 40
0.2499999999999996
 40
0.3750000000000001
 40
0.3750000000000001
 40
0.5000000000000006
 40
0.5000000000000006
 40
0.7500000000000003
 40
0.7500000000000003
 40
0.8750000000000002
 40
0.8750000000000002
 40
1.0
 40
1.0
 40
1.0
 40
1.0
 10
317.2072780656783
 20
269.7308818563471
 30
0.0
 10
316.5098553558053
 20
270.0994764919853
 30
0.0
 10
315.8103561120589
 20
270.4357804133621
 30
0.0
 10
314.760277433748
 20
270.8935291013847
 30
0.0
 10
314.4101314378753
 20
271.0383167035417
 30
0.0
 10
313.7102815447805
 20
271.3124878831924
 30
0.0
 10
313.3623817351859
 20
271.4410643853375
 30
0.0
 10
312.3478551487551
 20
271.7955143130188
 30
0.0
 10
311.7016163055628
 20
271.9935614796328
 30
0.0
 10
310.7864291729717
 20
272.2433213187376
 30
0.0
 10
310.4940817631723
 20
272.3176687706826
 30
0.0
 10
309.9406687349937
 20
272.4500626734171
 30
0.0
 10
309.6787377652572
 20
272.5083409560499
 30
0.0
 10
309.4323261980967
 20
272.5599352081322
 30
0.0
  0
LINE
  5
1A3
330
1F
100
AcDbEntity
  8
0
  6
Continuous
 62
     7
370
    15
100
AcDbLine
 10
317.2072773676
 20
269.7308808558
 30
0.0
 11
317.2072773676
 21
253.6232732229
 31
0.0
  0
SPLINE
  5
1A4
330
1F
100
AcDbEntity
  8
0
  6
Continuous
 62
     7
370
    15
100
AcDbSpline
210
0.0
220
0.0
230
1.0
 70
     8
 71
     3
 72
    12
 73
     8
 74
     0
 42
0.00000001
 43
0.00000001
 40
0.0
 40
0.0
 40
0.0
 40
0.0
 40
0.5000000000000004
 40
0.5000000000000004
 40
0.7500000000000002
 40
0.7500000000000002
 40
1.0
 40
1.0
 40
1.0
 40
1.0
 10
318.3371149893853
 20
180.8919060674205
 30
0.0
 10
317.25612964236
 20
180.4524359192741
 30
0.0
 10
316.1775427016115
 20
180.0584897336387
 30
0.0
 10
314.5667538624064
 20
179.5309746542144
 30
0.0
 10
314.0288398515173
 20
179.3650996083158
 30
0.0
 10
312.9675254445556
 20
179.0570395057985
 30
0.0
 10
312.4461580949496
 20
178.9153492454299
 30
0.0
 10
311.9349923120687
 20
178.784972297553
 30
0.0
  0
SPLINE
  5
1A5
330
1F
100
AcDbEntity
  8
0
  6
Continuous
 62
     7
370
    15
100
AcDbSpline
210
0.0
220
0.0
230
1.0
 70
     8
 71
     3
 72
    18
 73
    14
 74
     0
 42
0.00000001
 43
0.00000001
 40
0.0
 40
0.0
 40
0.0
 40
0.0
 40
0.1249999999999999
 40
0.1249999999999999
 40
0.2499999999999999
 40
0.2499999999999999
 40
0.4999999999999998
 40
0.4999999999999998
 40
0.6249999999999997
 40
0.6249999999999997
 40
0.7499999999999994
 40
0.7499999999999994
 40
1.0
 40
1.0
 40
1.0
 40
1.0
 10
309.432326198097
 20
180.8419656183129
 30
0.0
 10
309.678762658472
 20
180.8935650825969
 30
0.0
 10
309.9407567286182
 20
180.9518570751442
 30
0.0
 10
310.4943960385523
 20
181.0843093706646
 30
0.0
 10
310.7872175956103
 20
181.158788087661
 30
0.0
 10
311.7017106502344
 20
181.408378282334
 30
0.0
 10
312.3470169287131
 20
181.6061570637705
 30
0.0
 10
313.3593181240685
 20
181.9597345545821
 30
0.0
 10
313.7053346208625
 20
182.0875346080068
 30
0.0
 10
314.4069196166637
 20
182.3622669014007
 30
0.0
 10
314.7577878958929
 20
182.5073150727696
 30
0.0
 10
315.8096213903198
 20
182.9657432001147
 30
0.0
 10
316.5097436609336
 20
183.3023653026416
 30
0.0
 10
317.2072780656786
 20
183.671018970098
 30
0.0
  0
LWPOLYLINE
  5
1A6
330
1F
100
AcDbEntity
  8
0
  6
Continuous
 62
     7
370
    15
100
AcDbPolyline
 90
        9
 70
   128
 43
0.0
 10
318.3371150743
 20
180.8919049792
 10
318.3154059451
 20
180.9453070157
 10
318.2511111598
 20
181.1034530394
 10
318.1467024486
 20
181.3602708273
 10
318.0061938118
 20
181.70588836
 10
317.8349813323
 20
182.1270249777
 10
317.6396475981
 20
182.6074980192
 10
317.4276990693
 20
183.1288412206
 10
317.2072773676
 20
183.6710199707
  0
LINE
  5
1A7
330
1F
100
AcDbEntity
  8
0
  6
Continuous
 62
     7
370
    15
100
AcDbLine
 10
317.2072773676
 20
199.7786276035
 30
0.0
 11
317.2072773676
 21
183.6710199707
 31
0.0
  0
LINE
  5
1A8
330
1F
100
AcDbEntity
  8
0
  6
Continuous
 62
     7
370
    15
100
AcDbLine
 10
282.2199953597
 20
253.6232732229
 30
0.0
 11
282.2199953597
 21
269.7308808558
 31
0.0
  0
SPLINE
  5
1A9
330
1F
100
AcDbEntity
  8
0
  6
Continuous
 62
     7
370
    15
100
AcDbSpline
210
0.0
220
0.0
230
1.0
 70
     8
 71
     3
 72
    18
 73
    14
 74
     0
 42
0.00000001
 43
0.00000001
 40
0.0
 40
0.0
 40
0.0
 40
0.0
 40
0.1250000000000003
 40
0.1250000000000003
 40
0.2500000000000006
 40
0.2500000000000006
 40
0.5000000000000002
 40
0.5000000000000002
 40
0.6250000000000003
 40
0.6250000000000003
 40
0.7500000000000006
 40
0.7500000000000006
 40
1.0
 40
1.0
 40
1.0
 40
1.0
 10
289.9949465291428
 20
272.5599352081321
 30
0.0
 10
289.7485100687678
 20
272.5083357438482
 30
0.0
 10
289.4865159986217
 20
272.4500437513008
 30
0.0
 10
288.9328766886875
 20
272.3175914557805
 30
0.0
 10
288.6400551316296
 20
272.243112738784
 30
0.0
 10
287.7255620770054
 20
271.993522544111
 30
0.0
 10
287.0802557985267
 20
271.7957437626746
 30
0.0
 10
286.0679546031714
 20
271.442166271863
 30
0.0
 10
285.7219381063773
 20
271.3143662184382
 30
0.0
 10
285.0203531105761
 20
271.0396339250443
 30
0.0
 10
284.6694848313469
 20
270.8945857536754
 30
0.0
 10
283.61765133692
 20
270.4361576263303
 30
0.0
 10
282.9175290663062
 20
270.0995355238035
 30
0.0
 10
282.2199946615613
 20
269.730881856347
 30
0.0
  0
SPLINE
  5
1AA
330
1F
100
AcDbEntity
  8
0
  6
Continuous
 62
     7
370
    15
100
AcDbSpline
210
0.0
220
0.0
230
1.0
 70
     8
 71
     3
 72
    12
 73
     8
 74
     0
 42
0.00000001
 43
0.00000001
 40
0.0
 40
0.0
 40
0.0
 40
0.0
 40
0.5
 40
0.5
 40
0.75
 40
0.75
 40
1.0
 40
1.0
 40
1.0
 40
1.0
 10
281.0901577378546
 20
272.5099947590246
 30
0.0
 10
282.1711430848799
 20
272.9494649071709
 30
0.0
 10
283.2497300256284
 20
273.3434110928063
 30
0.0
 10
284.8605188648335
 20
273.8709261722306
 30
0.0
 10
285.3984328757225
 20
274.0368012181293
 30
0.0
 10
286.4597472826842
 20
274.3448613206464
 30
0.0
 10
286.9811146322902
 20
274.4865515810151
 30
0.0
 10
287.4922804151711
 20
274.616928528892
 30
0.0
  0
LWPOLYLINE
  5
1AB
330
1F
100
AcDbEntity
  8
0
  6
Continuous
 62
     7
370
    15
100
AcDbPolyline
 90
        9
 70
   128
 43
0.0
 10
281.090157653
 20
272.5099958472
 10
281.1118667822
 20
272.4565938108
 10
281.1761615674
 20
272.298447787
 10
281.2805702786
 20
272.0416299992
 10
281.4210789155
 20
271.6960124664
 10
281.5922913949
 20
271.2748758488
 10
281.7876251291
 20
270.7944028072
 10
281.999573658
 20
270.2730596058
 10
282.2199953597
 20
269.7308808558
  0
ARC
  5
1AC
330
1F
100
AcDbEntity
  8
0
  6
Continuous
 62
     7
370
    15
100
AcDbCircle
 10
299.7136363636
 20
226.7009504132
 30
0.0
 40
49.45000000000001
100
AcDbArc
 50
292.1239984151
 51
67.8760015849
  0
ARC
  5
1AD
330
1F
100
AcDbEntity
  8
0
  6
Continuous
 62
     7
370
    15
100
AcDbCircle
 10
299.7136363636
 20
226.7009504132
 30
0.0
 40
46.45
100
AcDbArc
 50
292.1239984151
 51
67.8760015849
  0
ARC
  5
1AE
330
1F
100
AcDbEntity
  8
0
  6
Continuous
 62
     7
370
    15
100
AcDbCircle
 10
299.7136363636
 20
226.7009504132
 30
0.0
 40
46.45
100
AcDbArc
 50
112.1239984151
 51
247.8760015849
  0
ARC
  5
1AF
330
1F
100
AcDbEntity
  8
0
  6
Continuous
 62
     7
370
    15
100
AcDbCircle
 10
299.7136363636
 20
226.7009504132
 30
0.0
 40
49.45000000000001
100
AcDbArc
 50
112.1239984151
 51
247.8760015849
  0
CIRCLE
  5
1B0
330
1F
100
AcDbEntity
  8
0
  6
Continuous
 62
     7
370
    15
100
AcDbCircle
 10
299.7136363636
 20
226.7009504132
 30
0.0
 40
77.00000000000003
  0
CIRCLE
  5
1B1
330
1F
100
AcDbEntity
  8
0
  6
Continuous
 62
     7
370
    15
100
AcDbCircle
 10
251.2768218523
 20
275.1377649245
 30
0.0
 40
5.5
  0
CIRCLE
  5
1B2
330
1F
100
AcDbEntity
  8
0
  6
Continuous
 62
     7
370
    15
100
AcDbCircle
 10
251.2768218523
 20
178.2641359019
 30
0.0
 40
5.500000000000028
  0
CIRCLE
  5
1B3
330
1F
100
AcDbEntity
  8
0
  6
Continuous
 62
     7
370
    15
100
AcDbCircle
 10
348.1504508749
 20
275.1377649245
 30
0.0
 40
5.5
  0
CIRCLE
  5
1B4
330
1F
100
AcDbEntity
  8
0
  6
Continuous
 62
     7
370
    15
100
AcDbCircle
 10
299.7136363636
 20
226.7009504132
 30
0.0
 40
50.5
  0
CIRCLE
  5
1B5
330
1F
100
AcDbEntity
  8
0
  6
Continuous
 62
     7
370
    15
100
AcDbCircle
 10
348.1504508749
 20
178.2641359019
 30
0.0
 40
5.499999999999972
  0
CIRCLE
  5
1B6
330
1F
100
AcDbEntity
  8
0
  6
Continuous
 62
     7
370
    15
100
AcDbCircle
 10
299.7136363636
 20
226.7009504132
 30
0.0
 40
50.0
  0
LINE
  5
1B7
330
1F
100
AcDbEntity
  8
0
  6
Continuous
 62
     7
370
    15
100
AcDbLine
 10
285.2191902574
 20
320.0009502463
 30
0.0
 11
285.2191902574
 21
317.10095331
 31
0.0
  0
LINE
  5
1B8
330
1F
100
AcDbEntity
  8
0
  6
Continuous
 62
     7
370
    15
100
AcDbLine
 10
285.2191902574
 20
317.10095331
 30
0.0
 11
285.218352067
 21
317.10095331
 31
0.0
  0
LINE
  5
1B9
330
1F
100
AcDbEntity
  8
0
  6
Continuous
 62
     7
370
    15
100
AcDbLine
 10
270.2089199673
 20
317.10095331
 30
0.0
 11
270.2080836396
 21
317.10095331
 31
0.0
  0
LINE
  5
1BA
330
1F
100
AcDbEntity
  8
0
  6
Continuous
 62
     7
370
    15
100
AcDbLine
 10
270.2080836396
 20
320.0009502463
 30
0.0
 11
270.2080836396
 21
317.10095331
 31
0.0
  0
SPLINE
  5
1BB
330
1F
100
AcDbEntity
  8
0
  6
Continuous
 62
     7
370
    15
100
AcDbSpline
210
0.0
220
0.0
230
1.0
 70
     8
 71
     3
 72
    19
 73
    15
 74
     0
 42
0.00000001
 43
0.00000001
 40
0.0
 40
0.0
 40
0.0
 40
0.0
 40
0.0390832248924894
 40
0.0780296974474959
 40
0.1388088708150327
 40
0.2381078440534392
 40
0.4910421926488741
 40
0.6249648977357858
 40
0.7616680595737831
 40
0.8316204346340245
 40
0.9020119159865039
 40
0.9480830491926489
 40
0.9875345738981895
 40
1.0
 40
1.0
 40
1.0
 40
1.0
 10
285.2183520670474
 20
320.0009502463295
 30
0.0
 10
285.2123164025062
 20
320.1186708354401
 30
0.0
 10
285.2002661922347
 20
320.3537001089178
 30
0.0
 10
285.0972607275847
 20
320.7233761830166
 30
0.0
 10
284.8817997725898
 20
321.1364004642888
 30
0.0
 10
284.3212397931318
 20
321.6467433722265
 30
0.0
 10
283.600253524416
 20
321.7673481902748
 30
0.0
 10
282.8375791930872
 20
321.7043153020755
 30
0.0
 10
282.343482657641
 20
321.5208516166073
 30
0.0
 10
281.9681323562994
 20
321.2013374376096
 30
0.0
 10
281.7436014620282
 20
320.8676325758825
 30
0.0
 10
281.6095595535368
 20
320.4816394735273
 30
0.0
 10
281.56637199889
 20
320.1940618517921
 30
0.0
 10
281.5637500480515
 20
320.038339646393
 30
0.0
 10
281.5631205092609
 20
320.0009502463295
 30
0.0
  0
SPLINE
  5
1BC
330
1F
100
AcDbEntity
  8
0
  6
Continuous
 62
     7
370
    15
100
AcDbSpline
210
0.0
220
0.0
230
1.0
 70
     8
 71
     3
 72
    19
 73
    15
 74
     0
 42
0.00000001
 43
0.00000001
 40
0.0
 40
0.0
 40
0.0
 40
0.0
 40
0.0390832085533657
 40
0.0780297104266173
 40
0.1388088330674279
 40
0.2381079184615929
 40
0.4910420440766631
 40
0.62496492839212
 40
0.7616680379446049
 40
0.8316205093201987
 40
0.9020118677789827
 40
0.9480830988604538
 40
0.9875345750964404
 40
0.9999999999999999
 40
0.9999999999999999
 40
0.9999999999999999
 40
0.9999999999999999
 10
281.5631205092609
 20
320.0009502463295
 30
0.0
 10
281.5507291193106
 20
320.11867087499
 30
0.0
 10
281.5259896824682
 20
320.3537003647789
 30
0.0
 10
281.3145030887745
 20
320.7233757637407
 30
0.0
 10
280.8721304336024
 20
321.1364011250001
 30
0.0
 10
279.7212214708396
 20
321.6467422851595
 30
0.0
 10
278.2409272526996
 20
321.7673482190689
 30
0.0
 10
276.6750559090024
 20
321.7043155806157
 30
0.0
 10
275.6605987253961
 20
321.5208509626304
 30
0.0
 10
274.8899550577812
 20
321.2013382933772
 30
0.0
 10
274.4289570273087
 20
320.8676313963841
 30
0.0
 10
274.1537474876023
 20
320.4816403163987
 30
0.0
 10
274.0650848178068
 20
320.1940616691443
 30
0.0
 10
274.059699007722
 20
320.0383396369754
 30
0.0
 10
274.058405856365
 20
320.0009502463295
 30
0.0
  0
SPLINE
  5
1BD
330
1F
100
AcDbEntity
  8
0
  6
Continuous
 62
     7
370
    15
100
AcDbSpline
210
0.0
220
0.0
230
1.0
 70
     8
 71
     3
 72
    18
 73
    14
 74
     0
 42
0.00000001
 43
0.00000001
 40
0.0
 40
0.0
 40
0.0
 40
0.0
 40
0.0344344890694831
 40
0.072491494783046
 40
0.1306345343883302
 40
0.2236189277764443
 40
0.4104356324419952
 40
0.5001956665982241
 40
0.7376504583382366
 40
0.8568703062224436
 40
0.9094910425823276
 40
0.9625702862695107
 40
1.0
 40
1.0
 40
1.0
 40
1.0
 10
274.058405856365
 20
320.0009502463295
 30
0.0
 10
274.0534850358699
 20
320.1045444345411
 30
0.0
 10
274.0431257233639
 20
320.3226309448171
 30
0.0
 10
273.9484488614639
 20
320.6779397570292
 30
0.0
 10
273.7403799641297
 20
321.0860012418584
 30
0.0
 10
273.2658048597841
 20
321.5388805202521
 30
0.0
 10
272.6961423543462
 20
321.7071714570158
 30
0.0
 10
271.90745879075
 20
321.7590504443269
 30
0.0
 10
271.2151566619012
 20
321.6600312122154
 30
0.0
 10
270.6157762596939
 20
321.2043694019542
 30
0.0
 10
270.3521652591883
 20
320.7615821061236
 30
0.0
 10
270.2291651897847
 20
320.3860015587306
 30
0.0
 10
270.2148429057995
 20
320.1136007863529
 30
0.0
 10
270.2089199672878
 20
320.0009502463294
 30
0.0
  0
SPLINE
  5
1BE
330
1F
100
AcDbEntity
  8
0
  6
Continuous
 62
     7
370
    15
100
AcDbSpline
210
0.0
220
0.0
230
1.0
 70
     8
 71
     3
 72
     9
 73
     5
 74
     0
 42
0.00000001
 43
0.00000001
 40
0.0
 40
0.0
 40
0.0
 40
0.0
 40
0.6925334315755821
 40
1.0
 40
1.0
 40
1.0
 40
1.0
 10
270.2089199672878
 20
320.0009502463294
 30
0.0
 10
270.2128885932202
 20
320.120577719618
 30
0.0
 10
270.2186191843389
 20
320.2933166342094
 30
0.0
 10
270.2612649086196
 20
320.4398888169982
 30
0.0
 10
270.2743770431221
 20
320.4849548630668
 30
0.0
  0
LINE
  5
1BF
330
1F
100
AcDbEntity
  8
0
  6
Continuous
 62
     7
370
    15
100
AcDbLine
 10
272.9873532306
 20
322.0009468489
 30
0.0
 11
272.2080821048
 21
322.0009468489
 31
0.0
  0
LINE
  5
1C0
330
1F
100
AcDbEntity
  8
0
  6
Continuous
 62
     7
370
    15
100
AcDbLine
 10
283.2191889982
 20
322.0009468489
 30
0.0
 11
272.9873532306
 21
322.0009468489
 31
0.0
  0
LINE
  5
1C1
330
1F
100
AcDbEntity
  8
0
  6
Continuous
 62
     7
370
    15
100
AcDbLine
 10
277.8107622515
 20
317.10095331
 30
0.0
 11
274.0584058564
 21
317.10095331
 31
0.0
  0
LINE
  5
1C2
330
1F
100
AcDbEntity
  8
0
  6
Continuous
 62
     7
370
    15
100
AcDbLine
 10
274.0584058564
 20
320.0009502463
 30
0.0
 11
274.0584058564
 21
317.10095331
 31
0.0
  0
LINE
  5
1C3
330
1F
100
AcDbEntity
  8
0
  6
Continuous
 62
     7
370
    15
100
AcDbLine
 10
281.5631205093
 20
320.0009502463
 30
0.0
 11
281.5631205093
 21
317.10095331
 31
0.0
  0
LINE
  5
1C4
330
1F
100
AcDbEntity
  8
0
  6
Continuous
 62
     7
370
    15
100
AcDbLine
 10
281.5631205093
 20
317.10095331
 30
0.0
 11
277.8107622515
 21
317.10095331
 31
0.0
  0
LINE
  5
1C5
330
1F
100
AcDbEntity
  8
0
  6
Continuous
 62
     7
370
    15
100
AcDbLine
 10
285.218352067
 20
320.0009502463
 30
0.0
 11
285.218352067
 21
317.10095331
 31
0.0
  0
LINE
  5
1C6
330
1F
100
AcDbEntity
  8
0
  6
Continuous
 62
     7
370
    15
100
AcDbLine
 10
285.218352067
 20
317.10095331
 30
0.0
 11
283.3907367538
 21
317.10095331
 31
0.0
  0
LINE
  5
1C7
330
1F
100
AcDbEntity
  8
0
  6
Continuous
 62
     7
370
    15
100
AcDbLine
 10
283.3907367538
 20
317.10095331
 30
0.0
 11
281.5631205093
 21
317.10095331
 31
0.0
  0
LINE
  5
1C8
330
1F
100
AcDbEntity
  8
0
  6
Continuous
 62
     7
370
    15
100
AcDbLine
 10
272.1336638431
 20
317.10095331
 30
0.0
 11
270.2089199673
 21
317.10095331
 31
0.0
  0
LINE
  5
1C9
330
1F
100
AcDbEntity
  8
0
  6
Continuous
 62
     7
370
    15
100
AcDbLine
 10
270.2089199673
 20
320.0009502463
 30
0.0
 11
270.2089199673
 21
317.10095331
 31
0.0
  0
LINE
  5
1CA
330
1F
100
AcDbEntity
  8
0
  6
Continuous
 62
     7
370
    15
100
AcDbLine
 10
274.0584058564
 20
317.10095331
 30
0.0
 11
272.1336638431
 21
317.10095331
 31
0.0
  0
SPLINE
  5
1CB
330
1F
100
AcDbEntity
  8
0
  6
Continuous
 62
     7
370
    15
100
AcDbSpline
210
0.0
220
0.0
230
1.0
 70
     8
 71
     3
 72
    19
 73
    15
 74
     0
 42
0.00000001
 43
0.00000001
 40
0.0
 40
0.0
 40
0.0
 40
0.0
 40
0.0390832107930847
 40
0.0780296541716676
 40
0.1388089149338324
 40
0.2381078334453911
 40
0.4910422023682733
 40
0.6249649304055724
 40
0.7616678794934111
 40
0.8316204694993029
 40
0.9020119826668841
 40
0.9480830418708838
 40
0.987534584793389
 40
1.0
 40
1.0
 40
1.0
 40
1.0
 10
329.2191890876234
 20
320.0009502463296
 30
0.0
 10
329.2129923776778
 20
320.1186708145107
 30
0.0
 10
329.2006206424942
 20
320.3537000006411
 30
0.0
 10
329.094868925271
 20
320.7233767058763
 30
0.0
 10
328.8736548993128
 20
321.1363997649635
 30
0.0
 10
328.2981367416062
 20
321.6467440923845
 30
0.0
 10
327.5579065447556
 20
321.7673478700017
 30
0.0
 10
326.7748847361646
 20
321.7043157143916
 30
0.0
 10
326.2675985569148
 20
321.5208506737746
 30
0.0
 10
325.8822343377523
 20
321.2013378206806
 30
0.0
 10
325.6517083954359
 20
320.867633181739
 30
0.0
 10
325.5140896475366
 20
320.4816389386166
 30
0.0
 10
325.4697527694669
 20
320.1940620548575
 30
0.0
 10
325.4670601122916
 20
320.0383396551053
 30
0.0
 10
325.4664135973394
 20
320.0009502463296
 30
0.0
  0
SPLINE
  5
1CC
330
1F
100
AcDbEntity
  8
0
  6
Continuous
 62
     7
370
    15
100
AcDbSpline
210
0.0
220
0.0
230
1.0
 70
     8
 71
     3
 72
    19
 73
    15
 74
     0
 42
0.00000001
 43
0.00000001
 40
0.0
 40
0.0
 40
0.0
 40
0.0
 40
0.0390832209064684
 40
0.0780297325690946
 40
0.1388089262964567
 40
0.2381078024927741
 40
0.4910420998962207
 40
0.6249649566569621
 40
0.76166802132931
 40
0.8316203744878246
 40
0.9020118709780778
 40
0.9480830870911647
 40
0.9875345678835152
 40
1.0
 40
1.0
 40
1.0
 40
1.0
 10
325.4664135973394
 20
320.0009502463296
 30
0.0
 10
325.4540205580283
 20
320.1186708676914
 30
0.0
 10
325.4292778290327
 20
320.3537003353165
 30
0.0
 10
325.2177675628627
 20
320.7233759966255
 30
0.0
 10
324.7753449583366
 20
321.1364001933866
 30
0.0
 10
323.6243088363225
 20
321.6467437935074
 30
0.0
 10
322.1438485696258
 20
321.7673480368713
 30
0.0
 10
320.5778023936062
 20
321.7043154913079
 30
0.0
 10
319.5632321061078
 20
321.5208514962703
 30
0.0
 10
318.7925031998217
 20
321.2013374754496
 30
0.0
 10
318.3314527847901
 20
320.8676320042092
 30
0.0
 10
318.0562121083842
 20
320.481640204694
 30
0.0
 10
317.9675408406382
 20
320.1940616072667
 30
0.0
 10
317.9621526216737
 20
320.0383396356061
 30
0.0
 10
317.9608588914812
 20
320.0009502463296
 30
0.0
  0
SPLINE
  5
1CD
330
1F
100
AcDbEntity
  8
0
  6
Continuous
 62
     7
370
    15
100
AcDbSpline
210
0.0
220
0.0
230
1.0
 70
     8
 71
     3
 72
    18
 73
    14
 74
     0
 42
0.00000001
 43
0.00000001
 40
0.0
 40
0.0
 40
0.0
 40
0.0
 40
0.0344344727870244
 40
0.0724914873345513
 40
0.130634583110893
 40
0.2236189747776857
 40
0.4104356654761189
 40
0.5001956240185467
 40
0.7376504781169142
 40
0.856870263940695
 40
0.9094910506779771
 40
0.9625702910984617
 40
1.0
 40
1.0
 40
1.0
 40
1.0
 10
317.9608588914812
 20
320.0009502463296
 30
0.0
 10
317.9560621802632
 20
320.1045444477148
 30
0.0
 10
317.9459641389005
 20
320.3226310664383
 30
0.0
 10
317.8536637488021
 20
320.6779398995702
 30
0.0
 10
317.6508246007331
 20
321.0860009478544
 30
0.0
 10
317.1881711701326
 20
321.5388806515777
 30
0.0
 10
316.6328216681363
 20
321.7071714241496
 30
0.0
 10
315.8639467780071
 20
321.7590504206386
 30
0.0
 10
315.1890415782792
 20
321.6600317227876
 30
0.0
 10
314.6047175679349
 20
321.204368916592
 30
0.0
 10
314.3477297884718
 20
320.7615823418508
 30
0.0
 10
314.2278190665958
 20
320.3860015582154
 30
0.0
 10
314.2138566047627
 20
320.113600783049
 30
0.0
 10
314.2080824698746
 20
320.0009502463296
 30
0.0
  0
LINE
  5
1CE
330
1F
100
AcDbEntity
  8
0
  6
Continuous
 62
     7
370
    15
100
AcDbLine
 10
316.9456874828
 20
322.0009468489
 30
0.0
 11
316.208083729
 21
322.0009468489
 31
0.0
  0
LINE
  5
1CF
330
1F
100
AcDbEntity
  8
0
  6
Continuous
 62
     7
370
    15
100
AcDbLine
 10
327.2191906224
 20
322.0009468489
 30
0.0
 11
316.9456874828
 21
322.0009468489
 31
0.0
  0
LINE
  5
1D0
330
1F
100
AcDbEntity
  8
0
  6
Continuous
 62
     7
370
    15
100
AcDbLine
 10
321.7136362444
 20
317.10095331
 30
0.0
 11
317.9608588915
 21
317.10095331
 31
0.0
  0
LINE
  5
1D1
330
1F
100
AcDbEntity
  8
0
  6
Continuous
 62
     7
370
    15
100
AcDbLine
 10
317.9608588915
 20
320.0009502463
 30
0.0
 11
317.9608588915
 21
317.10095331
 31
0.0
  0
LINE
  5
1D2
330
1F
100
AcDbEntity
  8
0
  6
Continuous
 62
     7
370
    15
100
AcDbLine
 10
325.4664135973
 20
320.0009502463
 30
0.0
 11
325.4664135973
 21
317.10095331
 31
0.0
  0
LINE
  5
1D3
330
1F
100
AcDbEntity
  8
0
  6
Continuous
 62
     7
370
    15
100
AcDbLine
 10
325.4664135973
 20
317.10095331
 30
0.0
 11
321.7136362444
 21
317.10095331
 31
0.0
  0
LINE
  5
1D4
330
1F
100
AcDbEntity
  8
0
  6
Continuous
 62
     7
370
    15
100
AcDbLine
 10
329.2191890876
 20
320.0009502463
 30
0.0
 11
329.2191890876
 21
317.10095331
 31
0.0
  0
LINE
  5
1D5
330
1F
100
AcDbEntity
  8
0
  6
Continuous
 62
     7
370
    15
100
AcDbLine
 10
329.2191890876
 20
317.10095331
 30
0.0
 11
327.3428013425
 21
317.10095331
 31
0.0
  0
LINE
  5
1D6
330
1F
100
AcDbEntity
  8
0
  6
Continuous
 62
     7
370
    15
100
AcDbLine
 10
327.3428013425
 20
317.10095331
 30
0.0
 11
325.4664135973
 21
317.10095331
 31
0.0
  0
LINE
  5
1D7
330
1F
100
AcDbEntity
  8
0
  6
Continuous
 62
     7
370
    15
100
AcDbLine
 10
316.0844711463
 20
317.10095331
 30
0.0
 11
314.2080824699
 21
317.10095331
 31
0.0
  0
LINE
  5
1D8
330
1F
100
AcDbEntity
  8
0
  6
Continuous
 62
     7
370
    15
100
AcDbLine
 10
314.2080824699
 20
320.0009502463
 30
0.0
 11
314.2080824699
 21
317.10095331
 31
0.0
  0
LINE
  5
1D9
330
1F
100
AcDbEntity
  8
0
  6
Continuous
 62
     7
370
    15
100
AcDbLine
 10
317.9608588915
 20
317.10095331
 30
0.0
 11
316.0844711463
 21
317.10095331
 31
0.0
  0
LINE
  5
1DA
330
1F
100
AcDbEntity
  8
0
  6
Continuous
 62
     7
370
    15
100
AcDbLine
 10
216.4136344443
 20
460.7009477906
 30
0.0
 11
216.4136344443
 21
456.9695033126
 31
0.0
  0
LINE
  5
1DB
330
1F
100
AcDbEntity
  8
0
  6
Continuous
 62
     7
370
    15
100
AcDbLine
 10
383.0136382829
 20
456.9695033126
 30
0.0
 11
383.0136382829
 21
460.7009477906
 31
0.0
  0
ARC
  5
1DC
330
1F
100
AcDbEntity
  8
0
  6
Continuous
 62
     7
370
    15
100
AcDbCircle
 10
125.858161637
 20
383.4009504132
 30
0.0
 40
2.000000000000015
100
AcDbArc
 50
285.3611944256
 51
299.857029534
  0
ARC
  5
1DD
330
1F
100
AcDbEntity
  8
0
  6
Continuous
 62
     7
370
    15
100
AcDbCircle
 10
65.3470546381
 20
383.4009504132
 30
0.0
 40
2.000000000000019
100
AcDbArc
 50
240.1295066699
 51
254.6388055744
  0
LINE
  5
1DE
330
1F
100
AcDbEntity
  8
0
  6
Continuous
 62
     7
370
    15
100
AcDbLine
 10
82.1026077874
 20
470.3409560018
 30
0.0
 11
82.1026077874
 21
468.1409485631
 31
0.0
  0
LINE
  5
1DF
330
1F
100
AcDbEntity
  8
0
  6
Continuous
 62
     7
370
    15
100
AcDbLine
 10
109.1026084877
 20
468.1409485631
 30
0.0
 11
109.1026084877
 21
470.9409512572
 31
0.0
  0
LINE
  5
1E0
330
1F
100
AcDbEntity
  8
0
  6
Continuous
 62
     7
370
    15
100
AcDbLine
 10
109.1026084877
 20
470.9409512572
 30
0.0
 11
106.9026084997
 21
473.1409437947
 31
0.0
  0
LINE
  5
1E1
330
1F
100
AcDbEntity
  8
0
  6
Continuous
 62
     7
370
    15
100
AcDbLine
 10
103.6026085175
 20
466.4009548716
 30
0.0
 11
103.6026085175
 21
466.8409563594
 31
0.0
  0
LINE
  5
1E2
330
1F
100
AcDbEntity
  8
0
  6
Continuous
 62
     7
370
    15
100
AcDbLine
 10
87.6026077576
 20
466.8409563594
 30
0.0
 11
87.6026077576
 21
466.4009548716
 31
0.0
  0
LINE
  5
1E3
330
1F
100
AcDbEntity
  8
0
  6
Continuous
 62
     7
370
    15
100
AcDbLine
 10
103.5876077048
 20
466.8409563594
 30
0.0
 11
103.5876077048
 21
467.2409482293
 31
0.0
  0
LINE
  5
1E4
330
1F
100
AcDbEntity
  8
0
  6
Continuous
 62
     7
370
    15
100
AcDbLine
 10
87.6176085703
 20
467.2409482293
 30
0.0
 11
87.6176085703
 21
466.8409563594
 31
0.0
  0
LINE
  5
1E5
330
1F
100
AcDbEntity
  8
0
  6
Continuous
 62
     7
370
    15
100
AcDbLine
 10
103.1526083506
 20
467.2409482293
 30
0.0
 11
103.1526083506
 21
468.1409485631
 31
0.0
  0
LINE
  5
1E6
330
1F
100
AcDbEntity
  8
0
  6
Continuous
 62
     7
370
    15
100
AcDbLine
 10
88.0526079245
 20
468.1409485631
 30
0.0
 11
88.0526079245
 21
467.2409482293
 31
0.0
  0
LINE
  5
1E7
330
1F
100
AcDbEntity
  8
0
  6
Continuous
 62
     7
370
    15
100
AcDbLine
 10
103.5276081793
 20
473.1409437947
 30
0.0
 11
103.5276081793
 21
482.3409505181
 31
0.0
  0
LINE
  5
1E8
330
1F
100
AcDbEntity
  8
0
  6
Continuous
 62
     7
370
    15
100
AcDbLine
 10
87.6776080958
 20
482.3409505181
 30
0.0
 11
87.6776080958
 21
473.1409437947
 31
0.0
  0
LINE
  5
1E9
330
1F
100
AcDbEntity
  8
0
  6
Continuous
 62
     7
370
    15
100
AcDbLine
 10
76.2026075654
 20
135.2509520941
 30
0.0
 11
80.202608221
 21
131.2509514384
 31
0.0
  0
LINE
  5
1EA
330
1F
100
AcDbEntity
  8
0
  6
Continuous
 62
     7
370
    15
100
AcDbLine
 10
111.0026080541
 20
131.2509514384
 30
0.0
 11
115.0026087098
 21
135.2509520941
 31
0.0
  0
LINE
  5
1EB
330
1F
100
AcDbEntity
  8
0
  6
Continuous
 62
     7
370
    15
100
AcDbLine
 10
115.0026087098
 20
135.2509520941
 30
0.0
 11
115.0026087098
 21
138.7509517364
 31
0.0
  0
LINE
  5
1EC
330
1F
100
AcDbEntity
  8
0
  6
Continuous
 62
     7
370
    15
100
AcDbLine
 10
76.2026075654
 20
138.7509517364
 30
0.0
 11
76.2026075654
 21
135.2509520941
 31
0.0
  0
LINE
  5
1ED
330
1F
100
AcDbEntity
  8
0
  6
Continuous
 62
     7
370
    15
100
AcDbLine
 10
111.5026090674
 20
138.7509517364
 30
0.0
 11
109.5026078082
 21
140.750948339
 31
0.0
  0
LINE
  5
1EE
330
1F
100
AcDbEntity
  8
0
  6
Continuous
 62
     7
370
    15
100
AcDbLine
 10
81.7026084669
 20
140.750948339
 30
0.0
 11
79.7026072077
 21
138.7509517364
 31
0.0
  0
LINE
  5
1EF
330
1F
100
AcDbEntity
  8
0
  6
Continuous
 62
     7
370
    15
100
AcDbLine
 10
87.6026077576
 20
141.7009495192
 30
0.0
 11
87.6026077576
 21
140.750948339
 31
0.0
  0
LINE
  5
1F0
330
1F
100
AcDbEntity
  8
0
  6
Continuous
 62
     7
370
    15
100
AcDbLine
 10
103.6026085175
 20
140.750948339
 30
0.0
 11
103.6026085175
 21
141.7009495192
 31
0.0
  0
LINE
  5
1F1
330
1F
100
AcDbEntity
  8
0
  6
Continuous
 62
     7
370
    15
100
AcDbLine
 10
120.4026088498
 20
303.700949996
 30
0.0
 11
116.6026078544
 21
303.700949996
 31
0.0
  0
LINE
  5
1F2
330
1F
100
AcDbEntity
  8
0
  6
Continuous
 62
     7
370
    15
100
AcDbLine
 10
116.6026078544
 20
149.7009508305
 30
0.0
 11
120.4026088498
 21
149.7009508305
 31
0.0
  0
LINE
  5
1F3
330
1F
100
AcDbEntity
  8
0
  6
Continuous
 62
     7
370
    15
100
AcDbLine
 10
74.6026084207
 20
303.700949996
 30
0.0
 11
70.8026074253
 21
303.700949996
 31
0.0
  0
LINE
  5
1F4
330
1F
100
AcDbEntity
  8
0
  6
Continuous
 62
     7
370
    15
100
AcDbLine
 10
70.8026074253
 20
149.7009508305
 30
0.0
 11
74.6026084207
 21
149.7009508305
 31
0.0
  0
LINE
  5
1F5
330
1F
100
AcDbEntity
  8
0
  6
Continuous
 62
     7
370
    15
100
AcDbLine
 10
74.8026080809
 20
282.7009521418
 30
0.0
 11
74.6026084207
 21
282.7009521418
 31
0.0
  0
LINE
  5
1F6
330
1F
100
AcDbEntity
  8
0
  6
Continuous
 62
     7
370
    15
100
AcDbLine
 10
116.6026078544
 20
282.7009521418
 30
0.0
 11
116.4026081942
 21
282.7009521418
 31
0.0
  0
LINE
  5
1F7
330
1F
100
AcDbEntity
  8
0
  6
Continuous
 62
     7
370
    15
100
AcDbLine
 10
116.4026081942
 20
170.7009486847
 30
0.0
 11
116.6026078544
 21
170.7009486847
 31
0.0
  0
LINE
  5
1F8
330
1F
100
AcDbEntity
  8
0
  6
Continuous
 62
     7
370
    15
100
AcDbLine
 10
74.6026084207
 20
170.7009486847
 30
0.0
 11
74.8026080809
 21
170.7009486847
 31
0.0
  0
LINE
  5
1F9
330
1F
100
AcDbEntity
  8
0
  6
Continuous
 62
     7
370
    15
100
AcDbLine
 10
73.1026072435
 20
311.7009513073
 30
0.0
 11
118.1026090316
 21
311.7009513073
 31
0.0
  0
LWPOLYLINE
  5
1FA
330
1F
100
AcDbEntity
  8
0
  6
Continuous
 62
     7
370
    15
100
AcDbPolyline
 90
       11
 70
   128
 43
0.0
 10
71.6776073359
 20
323.7009532742
 10
71.9005268447
 20
321.8237347894
 10
72.1179571383
 20
319.9927471571
 10
72.3245449744
 20
318.25306639
 10
72.5152016066
 20
316.647525876
 10
72.6852350317
 20
315.2156658463
 10
72.8304580234
 20
313.9927498989
 10
72.9472924404
 20
313.0088709288
 10
73.0328642212
 20
312.2882731252
 10
73.0850648515
 20
311.8486888699
 10
73.1026072435
 20
311.7009513073
  0
LINE
  5
1FB
330
1F
100
AcDbEntity
  8
0
  6
Continuous
 62
     7
370
    15
100
AcDbLine
 10
71.6776073359
 20
323.7009532742
 30
0.0
 11
119.5276089392
 21
323.7009532742
 31
0.0
  0
LWPOLYLINE
  5
1FC
330
1F
100
AcDbEntity
  8
0
  6
Continuous
 62
     7
370
    15
100
AcDbPolyline
 90
       11
 70
   128
 43
0.0
 10
118.1026090316
 20
311.7009513073
 10
118.1201514236
 20
311.8486888699
 10
118.172352054
 20
312.2882731252
 10
118.2579238348
 20
313.0088709288
 10
118.3747582517
 20
313.9927498989
 10
118.5199812434
 20
315.2156658463
 10
118.6900146685
 20
316.647525876
 10
118.8806713007
 20
318.25306639
 10
119.0872591369
 20
319.9927471571
 10
119.3046894304
 20
321.8237347894
 10
119.5276089392
 20
323.7009532742
  0
LINE
  5
1FD
330
1F
100
AcDbEntity
  8
0
  6
Continuous
 62
     7
370
    15
100
AcDbLine
 10
65.0276083879
 20
379.7009475522
 30
0.0
 11
71.6776073359
 21
323.7009532742
 31
0.0
  0
LINE
  5
1FE
330
1F
100
AcDbEntity
  8
0
  6
Continuous
 62
     7
370
    15
100
AcDbLine
 10
65.0276083879
 20
379.7009475522
 30
0.0
 11
126.1776078872
 21
379.7009475522
 31
0.0
  0
LINE
  5
1FF
330
1F
100
AcDbEntity
  8
0
  6
Continuous
 62
     7
370
    15
100
AcDbLine
 10
119.5276089392
 20
323.7009532742
 30
0.0
 11
126.1776078872
 21
379.7009475522
 31
0.0
  0
LINE
  5
200
330
1F
100
AcDbEntity
  8
0
  6
Continuous
 62
     7
370
    15
100
AcDbLine
 10
63.6026066176
 20
391.7009569697
 30
0.0
 11
66.6378222786
 21
391.7009569697
 31
0.0
  0
LINE
  5
201
330
1F
100
AcDbEntity
  8
0
  6
Continuous
 62
     7
370
    15
100
AcDbLine
 10
124.5673939965
 20
391.7009569697
 30
0.0
 11
127.6026096575
 21
391.7009569697
 31
0.0
  0
LWPOLYLINE
  5
202
330
1F
100
AcDbEntity
  8
0
  6
Continuous
 62
     7
370
    15
100
AcDbPolyline
 90
       11
 70
   128
 43
0.0
 10
63.6026066176
 20
391.7009569697
 10
63.6201527349
 20
391.5532119565
 10
63.6723515026
 20
391.1136277013
 10
63.7579251461
 20
390.3930224471
 10
63.8747577004
 20
389.4091583781
 10
64.0199806921
 20
388.1862349801
 10
64.1900141172
 20
386.7543674998
 10
64.3806707494
 20
385.148841887
 10
64.5872585855
 20
383.4091611199
 10
64.8046888791
 20
381.5781660371
 10
65.0276083879
 20
379.7009475522
  0
LWPOLYLINE
  5
203
330
1F
100
AcDbEntity
  8
0
  6
Continuous
 62
     7
370
    15
100
AcDbPolyline
 90
       11
 70
   128
 43
0.0
 10
126.1776078872
 20
379.7009475522
 10
126.400527396
 20
381.5781660371
 10
126.6179576896
 20
383.4091611199
 10
126.8245455257
 20
385.148841887
 10
127.0152021579
 20
386.7543674998
 10
127.185235583
 20
388.1862349801
 10
127.3304585747
 20
389.4091583781
 10
127.4472911291
 20
390.3930224471
 10
127.5328647725
 20
391.1136277013
 10
127.5850635402
 20
391.5532119565
 10
127.6026096575
 20
391.7009569697
  0
LINE
  5
204
330
1F
100
AcDbEntity
  8
0
  6
Continuous
 62
     7
370
    15
100
AcDbLine
 10
126.8526081376
 20
383.4009505801
 30
0.0
 11
126.8526081376
 21
385.3851594024
 31
0.0
  0
SPLINE
  5
205
330
1F
100
AcDbEntity
  8
0
  6
Continuous
 62
     7
370
    15
100
AcDbSpline
210
0.0
220
0.0
230
1.0
 70
     8
 71
     3
 72
    11
 73
     7
 74
     0
 42
0.00000001
 43
0.00000001
 40
0.0
 40
0.0
 40
0.0
 40
0.0
 40
0.0605229783116392
 40
0.5022380455681248
 40
0.8804935495950197
 40
0.9999999999999999
 40
0.9999999999999999
 40
0.9999999999999999
 40
0.9999999999999999
 10
126.5186004720441
 20
382.57247582006
 30
0.0
 10
126.5318125236746
 20
382.5837398143153
 30
0.0
 10
126.6414501385766
 20
382.6772118577911
 30
0.0
 10
126.7656383179225
 20
382.9260962286499
 30
0.0
 10
126.8470880815981
 20
383.2074881580704
 30
0.0
 10
126.8515394253282
 20
383.3634952249343
 30
0.0
 10
126.8526081375591
 20
383.4009505801156
 30
0.0
  0
SPLINE
  5
206
330
1F
100
AcDbEntity
  8
0
  6
Continuous
 62
     7
370
    15
100
AcDbSpline
210
0.0
220
0.0
230
1.0
 70
    24
 71
     3
 72
    13
 73
     9
 74
     0
 42
0.00000001
 43
0.00000001
 40
0.0
 40
0.0
 40
0.0
 40
0.0
 40
0.0782106433105291
 40
0.156147713520904
 40
0.2777748397162665
 40
0.4764848950085935
 40
0.982639547987725
 40
1.0
 40
1.0
 40
1.0
 40
1.0
 10
126.852608137559
 20
383.4009505801156
 30
0.0
 10
126.852608137559
 20
383.2832246785777
 30
0.0
 10
126.852608137559
 20
383.0481846690696
 30
0.0
 10
126.8526081375591
 20
382.6786025769868
 30
0.0
 10
126.852608137559
 20
382.264887786146
 30
0.0
 10
126.8526081375591
 20
381.7616871943452
 30
0.0
 10
126.8526081375591
 20
381.6284623904205
 30
0.0
 10
126.8526081375591
 20
381.6684666821333
 30
0.0
 10
126.8526081375591
 20
381.6697932772591
 30
0.0
  0
SPLINE
  5
207
330
1F
100
AcDbEntity
  8
0
  6
Continuous
 62
     7
370
    15
100
AcDbSpline
210
0.0
220
0.0
230
1.0
 70
     8
 71
     3
 72
    10
 73
     6
 74
     0
 42
0.00000001
 43
0.00000001
 40
0.0
 40
0.0
 40
0.0
 40
0.0
 40
0.3819999730868819
 40
0.7626630920502345
 40
1.0
 40
1.0
 40
1.0
 40
1.0
 10
64.35260813755903
 20
383.4009505801156
 30
0.0
 10
64.3640252472124
 20
383.284045239445
 30
0.0
 10
64.38681951099241
 20
383.0506436821819
 30
0.0
 10
64.51289354330454
 20
382.7675174495989
 30
0.0
 10
64.63660837792901
 20
382.6417654068289
 30
0.0
 10
64.68411985857401
 20
382.5934715561822
 30
0.0
  0
SPLINE
  5
208
330
1F
100
AcDbEntity
  8
0
  6
Continuous
 62
     7
370
    15
100
AcDbSpline
210
0.0
220
0.0
230
1.0
 70
    24
 71
     3
 72
    14
 73
    10
 74
     0
 42
0.00000001
 43
0.00000001
 40
0.0
 40
0.0
 40
0.0
 40
0.0
 40
0.250302260905139
 40
0.5235725624817656
 40
0.6634071076168883
 40
0.8041211654262123
 40
0.896217821425848
 40
0.9750831742132483
 40
1.0
 40
1.0
 40
1.0
 40
1.0
 10
64.35260813755906
 20
381.6698081784203
 30
0.0
 10
64.35260813755905
 20
381.6784228491424
 30
0.0
 10
64.35260813755903
 20
381.6964426832765
 30
0.0
 10
64.35260813755903
 20
381.88182735727
 30
0.0
 10
64.35260813755905
 20
382.2004025800661
 30
0.0
 10
64.35260813755903
 20
382.5342946986825
 30
0.0
 10
64.35260813755905
 20
382.9202572785456
 30
0.0
 10
64.35260813755903
 20
383.2078422292379
 30
0.0
 10
64.35260813755903
 20
383.3635637552471
 30
0.0
 10
64.35260813755903
 20
383.4009505801156
 30
0.0
  0
LINE
  5
209
330
1F
100
AcDbEntity
  8
0
  6
Continuous
 62
     7
370
    15
100
AcDbLine
 10
64.3526081376
 20
383.4009505801
 30
0.0
 11
64.3526081376
 21
385.3851594024
 31
0.0
  0
CIRCLE
  5
20A
330
1F
100
AcDbEntity
  8
0
  6
Continuous
 62
     7
370
    15
100
AcDbCircle
 10
95.6026081376
 20
430.9009504132
 30
0.0
 40
4.000000000000028
  0
CIRCLE
  5
20B
330
1F
100
AcDbEntity
  8
0
  6
Continuous
 62
     7
370
    15
100
AcDbCircle
 10
95.6026081376
 20
430.9009504132
 30
0.0
 40
3.499999999917264
  0
LINE
  5
20C
330
1F
100
AcDbEntity
  8
0
  6
Continuous
 62
     7
370
    15
100
AcDbLine
 10
93.293217561
 20
430.9079386287
 30
0.0
 11
94.4539606252
 21
432.9044260077
 31
0.0
  0
LINE
  5
20D
330
1F
100
AcDbEntity
  8
0
  6
Continuous
 62
     7
370
    15
100
AcDbLine
 10
94.4418651897
 20
428.9044477038
 30
0.0
 11
93.293217561
 21
430.9079386287
 31
0.0
  0
LINE
  5
20E
330
1F
100
AcDbEntity
  8
0
  6
Continuous
 62
     7
370
    15
100
AcDbLine
 10
96.7512556499
 20
428.8974739604
 30
0.0
 11
94.4418651897
 21
428.9044477038
 31
0.0
  0
LINE
  5
20F
330
1F
100
AcDbEntity
  8
0
  6
Continuous
 62
     7
370
    15
100
AcDbLine
 10
97.9119987141
 20
430.8939613395
 30
0.0
 11
96.7512556499
 21
428.8974739604
 31
0.0
  0
LINE
  5
210
330
1F
100
AcDbEntity
  8
0
  6
Continuous
 62
     7
370
    15
100
AcDbLine
 10
96.7633510854
 20
432.8974522643
 30
0.0
 11
97.9119987141
 21
430.8939613395
 31
0.0
  0
LINE
  5
211
330
1F
100
AcDbEntity
  8
0
  6
Continuous
 62
     7
370
    15
100
AcDbLine
 10
94.4539606252
 20
432.9044260077
 30
0.0
 11
96.7633510854
 21
432.8974522643
 31
0.0
  0
CIRCLE
  5
212
330
1F
100
AcDbEntity
  8
0
  6
Continuous
 62
     7
370
    15
100
AcDbCircle
 10
95.6026081376
 20
430.9009504132
 30
0.0
 40
5.849999999993742
  0
SPLINE
  5
213
330
1F
100
AcDbEntity
  8
0
  6
Continuous
 62
     7
370
    15
100
AcDbSpline
210
0.0
220
0.0
230
1.0
 70
     8
 71
     3
 72
    10
 73
     6
 74
     0
 42
0.00000001
 43
0.00000001
 40
0.0
 40
0.0
 40
0.0
 40
0.0
 40
0.3599231800570013
 40
0.7307461979050449
 40
1.0
 40
1.0
 40
1.0
 40
1.0
 10
88.4737678251971
 20
428.5529740147548
 30
0.0
 10
89.139922879655
 20
427.9579896763728
 30
0.0
 10
90.49240668795886
 20
426.7500026191991
 30
0.0
 10
92.39403806097353
 20
425.0515397481846
 30
0.0
 10
93.57486564473739
 20
423.9968616746168
 30
0.0
 10
94.07159089183402
 20
423.5532023005443
 30
0.0
  0
SPLINE
  5
214
330
1F
100
AcDbEntity
  8
0
  6
Continuous
 62
     7
370
    15
100
AcDbSpline
210
0.0
220
0.0
230
1.0
 70
     8
 71
     3
 72
    10
 73
     6
 74
     0
 42
0.00000001
 43
0.00000001
 40
0.0
 40
0.0
 40
0.0
 40
0.0
 40
0.335146639082404
 40
0.6788482432802816
 40
1.0
 40
1.0
 40
1.0
 40
1.0
 10
90.00478530375254
 20
435.9007216982799
 30
0.0
 10
89.83528144548603
 20
435.0872326627682
 30
0.0
 10
89.49194696739463
 20
433.439489441482
 30
0.0
 10
88.97219190653341
 20
430.9450408186806
 30
0.0
 10
88.63610954782034
 20
429.3320941658879
 30
0.0
 10
88.4737678251971
 20
428.5529740147548
 30
0.0
  0
SPLINE
  5
215
330
1F
100
AcDbEntity
  8
0
  6
Continuous
 62
     7
370
    15
100
AcDbSpline
210
0.0
220
0.0
230
1.0
 70
     8
 71
     3
 72
    10
 73
     6
 74
     0
 42
0.00000001
 43
0.00000001
 40
0.0
 40
0.0
 40
0.0
 40
0.0
 40
0.3599234051847547
 40
0.7307468729942117
 40
1.0
 40
1.0
 40
1.0
 40
1.0
 10
97.13362538328361
 20
438.2486976675945
 30
0.0
 10
96.28527493224628
 20
437.9692846549457
 30
0.0
 10
94.5628822498906
 20
437.4019967755642
 30
0.0
 10
92.14115754909275
 20
436.6043568739235
 30
0.0
 10
90.63736652671562
 20
436.1090685352599
 30
0.0
 10
90.00478530375254
 20
435.9007216982799
 30
0.0
  0
SPLINE
  5
216
330
1F
100
AcDbEntity
  8
0
  6
Continuous
 62
     7
370
    15
100
AcDbSpline
210
0.0
220
0.0
230
1.0
 70
     8
 71
     3
 72
    10
 73
     6
 74
     0
 42
0.00000001
 43
0.00000001
 40
0.0
 40
0.0
 40
0.0
 40
0.0
 40
0.3599231800570013
 40
0.7307461979050449
 40
1.0
 40
1.0
 40
1.0
 40
1.0
 10
102.7314484499205
 20
433.2489259533839
 30
0.0
 10
102.0652933954626
 20
433.8439102917658
 30
0.0
 10
100.7128095871588
 20
435.0518973489396
 30
0.0
 10
98.81117821414409
 20
436.7503602199542
 30
0.0
 10
97.63035063038025
 20
437.8050382935218
 30
0.0
 10
97.13362538328361
 20
438.2486976675945
 30
0.0
  0
SPLINE
  5
217
330
1F
100
AcDbEntity
  8
0
  6
Continuous
 62
     7
370
    15
100
AcDbSpline
210
0.0
220
0.0
230
1.0
 70
     8
 71
     3
 72
    10
 73
     6
 74
     0
 42
0.00000001
 43
0.00000001
 40
0.0
 40
0.0
 40
0.0
 40
0.0
 40
0.335146639082404
 40
0.6788482432802816
 40
1.0
 40
1.0
 40
1.0
 40
1.0
 10
101.2004309713651
 20
425.9011782698589
 30
0.0
 10
101.3699348296316
 20
426.7146673053704
 30
0.0
 10
101.713269307723
 20
428.3624105266565
 30
0.0
 10
102.2330243685842
 20
430.8568591494582
 30
0.0
 10
102.5691067272973
 20
432.4698058022507
 30
0.0
 10
102.7314484499205
 20
433.2489259533839
 30
0.0
  0
SPLINE
  5
218
330
1F
100
AcDbEntity
  8
0
  6
Continuous
 62
     7
370
    15
100
AcDbSpline
210
0.0
220
0.0
230
1.0
 70
     8
 71
     3
 72
    10
 73
     6
 74
     0
 42
0.00000001
 43
0.00000001
 40
0.0
 40
0.0
 40
0.0
 40
0.0
 40
0.3599234051847547
 40
0.7307468729942117
 40
1.0
 40
1.0
 40
1.0
 40
1.0
 10
94.07159089183402
 20
423.5532023005443
 30
0.0
 10
94.91994134287135
 20
423.8326153131931
 30
0.0
 10
96.64233402522703
 20
424.3999031925745
 30
0.0
 10
99.06405872602487
 20
425.1975430942152
 30
0.0
 10
100.567849748402
 20
425.6928314328789
 30
0.0
 10
101.2004309713651
 20
425.9011782698589
 30
0.0
  0
SPLINE
  5
219
330
1F
100
AcDbEntity
  8
0
  6
Continuous
 62
     7
370
    15
100
AcDbSpline
210
0.0
220
0.0
230
1.0
 70
    24
 71
     1
 72
     4
 73
     2
 74
     0
 42
0.00000001
 43
0.00000001
 40
0.0
 40
0.0
 40
1.0
 40
1.0
 10
120.5744658045281
 20
456.54683187532
 30
0.0
 10
120.2854838602055
 20
455.8139778666454
 30
0.0
  0
SPLINE
  5
21A
330
1F
100
AcDbEntity
  8
0
  6
Continuous
 62
     7
370
    15
100
AcDbSpline
210
0.0
220
0.0
230
1.0
 70
     8
 71
     3
 72
    15
 73
    11
 74
     0
 42
0.00000001
 43
0.00000001
 40
0.0
 40
0.0
 40
0.0
 40
0.0
 40
0.0717201582935023
 40
0.2907709821802957
 40
0.5089958934196105
 40
0.6521923107853275
 40
0.7677916785516988
 40
0.8640154389358167
 40
0.960567909604767
 40
1.0
 40
1.0
 40
1.0
 40
1.0
 10
121.6478150717725
 20
456.6272385411219
 30
0.0
 10
121.6436991685234
 20
456.6328356512211
 30
0.0
 10
121.6270122947243
 20
456.6555276981939
 30
0.0
 10
121.504448547578
 20
456.8329441654279
 30
0.0
 10
121.2924998634594
 20
456.9397387069588
 30
0.0
 10
121.0575210603964
 20
456.9584555528698
 30
0.0
 10
120.8636527910173
 20
456.9013939041472
 30
0.0
 10
120.7057293072591
 20
456.787711900062
 30
0.0
 10
120.6133783193145
 20
456.659292921861
 30
0.0
 10
120.5832129889476
 20
456.5721121102135
 30
0.0
 10
120.5744658045281
 20
456.54683187532
 30
0.0
  0
LINE
  5
21B
330
1F
100
AcDbEntity
  8
0
  6
Continuous
 62
     7
370
    15
100
AcDbLine
 10
121.6478150718
 20
456.6272385411
 30
0.0
 11
126.0818660639
 21
435.3278018527
 31
0.0
  0
LWPOLYLINE
  5
21C
330
1F
100
AcDbEntity
  8
0
  6
Continuous
 62
     7
370
    15
100
AcDbPolyline
 90
        9
 70
   128
 43
0.0
 10
126.0818660639
 20
435.3278018527
 10
126.0472134135
 20
435.3205896907
 10
125.9592909746
 20
435.3022761636
 10
125.8213676892
 20
435.2735765271
 10
125.6385695569
 20
435.2355189614
 10
125.4176915072
 20
435.189533978
 10
125.1669384919
 20
435.1373352103
 10
124.8956311874
 20
435.0808449082
 10
124.6138539545
 20
435.0221939378
  0
LINE
  5
21D
330
1F
100
AcDbEntity
  8
0
  6
Continuous
 62
     7
370
    15
100
AcDbLine
 10
120.2854838602
 20
455.8139778666
 30
0.0
 11
124.6138539545
 21
435.0221939378
 31
0.0
  0
ARC
  5
21E
330
1F
100
AcDbEntity
  8
0
  6
Continuous
 62
     7
370
    15
100
AcDbCircle
 10
116.1026081376
 20
457.9009504132
 30
0.0
 40
4.674603847461695
100
AcDbArc
 50
50.0355501913
 51
333.48385234
  0
SPLINE
  5
21F
330
1F
100
AcDbEntity
  8
0
  6
Continuous
 62
     7
370
    15
100
AcDbSpline
210
0.0
220
0.0
230
1.0
 70
    24
 71
     1
 72
     4
 73
     2
 74
     0
 42
0.00000001
 43
0.00000001
 40
0.0
 40
0.0
 40
1.0
 40
1.0
 10
119.1051628820409
 20
461.483765392776
 30
0.0
 10
119.6625929705609
 20
460.9271176152187
 30
0.0
  0
LINE
  5
220
330
1F
100
AcDbEntity
  8
0
  6
Continuous
 62
     7
370
    15
100
AcDbLine
 10
119.6625929706
 20
460.9271176152
 30
0.0
 11
119.5312522732
 21
460.8154632144
 31
0.0
  0
ARC
  5
221
330
1F
100
AcDbEntity
  8
0
  6
Continuous
 62
     7
370
    15
100
AcDbCircle
 10
116.1026081376
 20
457.9009504132
 30
0.0
 40
4.499999999997693
100
AcDbArc
 50
40.3661681468
 51
343.1532343845
  0
SPLINE
  5
222
330
1F
100
AcDbEntity
  8
0
  6
Continuous
 62
     7
370
    15
100
AcDbSpline
210
0.0
220
0.0
230
1.0
 70
    24
 71
     1
 72
     4
 73
     2
 74
     0
 42
0.00000001
 43
0.00000001
 40
0.0
 40
0.0
 40
1.0
 40
1.0
 10
120.409482010435
 20
456.5967954688029
 30
0.0
 10
120.5744658045281
 20
456.54683187532
 30
0.0
  0
LINE
  5
223
330
1F
100
AcDbEntity
  8
0
  6
Continuous
 62
     7
370
    15
100
AcDbLine
 10
71.673964002
 20
460.8154632144
 30
0.0
 11
71.5426233046
 21
460.9271176152
 31
0.0
  0
SPLINE
  5
224
330
1F
100
AcDbEntity
  8
0
  6
Continuous
 62
     7
370
    15
100
AcDbSpline
210
0.0
220
0.0
230
1.0
 70
    24
 71
     1
 72
     4
 73
     2
 74
     0
 42
0.00000001
 43
0.00000001
 40
0.0
 40
0.0
 40
1.0
 40
1.0
 10
71.54262330455674
 20
460.9271176152187
 30
0.0
 10
72.10005339307679
 20
461.483765392776
 30
0.0
  0
ARC
  5
225
330
1F
100
AcDbEntity
  8
0
  6
Continuous
 62
     7
370
    15
100
AcDbCircle
 10
75.1026081376
 20
457.9009504132
 30
0.0
 40
4.674603847461325
100
AcDbArc
 50
206.51614766
 51
129.9644498087
  0
SPLINE
  5
226
330
1F
100
AcDbEntity
  8
0
  6
Continuous
 62
     7
370
    15
100
AcDbSpline
210
0.0
220
0.0
230
1.0
 70
    24
 71
     1
 72
     4
 73
     2
 74
     0
 42
0.00000001
 43
0.00000001
 40
0.0
 40
0.0
 40
1.0
 40
1.0
 10
70.91973241491212
 20
455.8139778666454
 30
0.0
 10
70.63075047058953
 20
456.54683187532
 30
0.0
  0
LINE
  5
227
330
1F
100
AcDbEntity
  8
0
  6
Continuous
 62
     7
370
    15
100
AcDbLine
 10
70.6307504706
 20
456.5468318753
 30
0.0
 11
70.7957342647
 21
456.5967954688
 31
0.0
  0
ARC
  5
228
330
1F
100
AcDbEntity
  8
0
  6
Continuous
 62
     7
370
    15
100
AcDbCircle
 10
75.1026081376
 20
457.9009504132
 30
0.0
 40
4.500000000000254
100
AcDbArc
 50
196.8467656155
 51
139.6338318532
  0
SPLINE
  5
229
330
1F
100
AcDbEntity
  8
0
  6
Continuous
 62
     7
370
    15
100
AcDbSpline
210
0.0
220
0.0
230
1.0
 70
     8
 71
     3
 72
    11
 73
     7
 74
     0
 42
0.00000001
 43
0.00000001
 40
0.0
 40
0.0
 40
0.0
 40
0.0
 40
0.249999177778738
 40
0.4999992253514315
 40
0.7500011516194789
 40
1.0
 40
1.0
 40
1.0
 40
1.0
 10
72.61359024865521
 20
463.9505930237727
 30
0.0
 10
72.42436994083302
 20
463.9899852368544
 30
0.0
 10
72.04592866685573
 20
464.0687698000705
 30
0.0
 10
71.56572389532366
 20
464.1687346897011
 30
0.0
 10
71.22440609485147
 20
464.2398010494254
 30
0.0
 10
71.17185277485599
 20
464.2507343313742
 30
0.0
 10
71.14557627661124
 20
464.2562009386973
 30
0.0
  0
LINE
  5
22A
330
1F
100
AcDbEntity
  8
0
  6
Continuous
 62
     7
370
    15
100
AcDbLine
 10
72.1000533931
 20
461.4837653928
 30
0.0
 11
72.6135902487
 21
463.9505930238
 31
0.0
  0
SPLINE
  5
22B
330
1F
100
AcDbEntity
  8
0
  6
Continuous
 62
     7
370
    15
100
AcDbSpline
210
0.0
220
0.0
230
1.0
 70
     8
 71
     3
 72
    15
 73
    11
 74
     0
 42
0.00000001
 43
0.00000001
 40
0.0
 40
0.0
 40
0.0
 40
0.0
 40
0.0064135613662394
 40
0.0860676469084287
 40
0.3399063348020275
 40
0.546855600561762
 40
0.6832070465972154
 40
0.7924616111272901
 40
0.9024270327883828
 40
1.0
 40
1.0
 40
1.0
 40
1.0
 10
70.52635852320088
 20
461.2817205481487
 30
0.0
 10
70.52651240869848
 20
461.2818365621098
 30
0.0
 10
70.5285774957718
 20
461.2833934270207
 30
0.0
 10
70.53560717622642
 20
461.211576244893
 30
0.0
 10
70.59163535280112
 20
461.0049088549827
 30
0.0
 10
70.77087240841203
 20
460.8193105032003
 30
0.0
 10
70.98477376543896
 20
460.7295903563529
 30
0.0
 10
71.19164123161347
 20
460.7219067280816
 30
0.0
 10
71.39226931201033
 20
460.7828949888569
 30
0.0
 10
71.494540908106
 20
460.8809959966275
 30
0.0
 10
71.54262330455674
 20
460.9271176152187
 30
0.0
  0
LINE
  5
22C
330
1F
100
AcDbEntity
  8
0
  6
Continuous
 62
     7
370
    15
100
AcDbLine
 10
70.5263585232
 20
461.2817205481
 30
0.0
 11
71.1455762766
 21
464.2562009387
 31
0.0
  0
SPLINE
  5
22D
330
1F
100
AcDbEntity
  8
0
  6
Continuous
 62
     7
370
    15
100
AcDbSpline
210
0.0
220
0.0
230
1.0
 70
     8
 71
     3
 72
    15
 73
    11
 74
     0
 42
0.00000001
 43
0.00000001
 40
0.0
 40
0.0
 40
0.0
 40
0.0
 40
0.0885158855875776
 40
0.1769411378713458
 40
0.268309683995762
 40
0.3961926676720193
 40
0.5755497359364812
 40
0.8430860882844632
 40
0.9422965510031799
 40
1.0
 40
1.0
 40
1.0
 40
1.0
 10
119.6625929705609
 20
460.9271176152187
 30
0.0
 10
119.7057127142163
 20
460.8848449505842
 30
0.0
 10
119.7919080503015
 20
460.8003429051988
 30
0.0
 10
119.9575867731319
 20
460.7359159759782
 30
0.0
 10
120.1431748312362
 20
460.7189537918586
 30
0.0
 10
120.3533345445537
 20
460.7725660852145
 30
0.0
 10
120.5649612558841
 20
460.9347319592512
 30
0.0
 10
120.6555570196942
 20
461.1265197780455
 30
0.0
 10
120.6739879773553
 20
461.2680073208862
 30
0.0
 10
120.6775484319852
 20
461.2780335187895
 30
0.0
 10
120.6788577519168
 20
461.2817205481486
 30
0.0
  0
LINE
  5
22E
330
1F
100
AcDbEntity
  8
0
  6
Continuous
 62
     7
370
    15
100
AcDbLine
 10
118.5916260265
 20
463.9505930238
 30
0.0
 11
119.105162882
 21
461.4837653928
 31
0.0
  0
SPLINE
  5
22F
330
1F
100
AcDbEntity
  8
0
  6
Continuous
 62
     7
370
    15
100
AcDbSpline
210
0.0
220
0.0
230
1.0
 70
     8
 71
     3
 72
    11
 73
     7
 74
     0
 42
0.00000001
 43
0.00000001
 40
0.0
 40
0.0
 40
0.0
 40
0.0
 40
0.2499988483805212
 40
0.5000007746485685
 40
0.7500008222212621
 40
1.0
 40
1.0
 40
1.0
 40
1.0
 10
120.0596399985065
 20
464.2562009386973
 30
0.0
 10
120.0333635002617
 20
464.2507343313742
 30
0.0
 10
119.9808101802662
 20
464.2398010494254
 30
0.0
 10
119.639492379794
 20
464.1687346897012
 30
0.0
 10
119.1592876082619
 20
464.0687698000705
 30
0.0
 10
118.7808463342846
 20
463.9899852368543
 30
0.0
 10
118.5916260264624
 20
463.9505930237727
 30
0.0
  0
LINE
  5
230
330
1F
100
AcDbEntity
  8
0
  6
Continuous
 62
     7
370
    15
100
AcDbLine
 10
120.0596399985
 20
464.2562009387
 30
0.0
 11
120.6788577519
 21
461.2817205481
 31
0.0
  0
SPLINE
  5
231
330
1F
100
AcDbEntity
  8
0
  6
Continuous
 62
     7
370
    15
100
AcDbSpline
210
0.0
220
0.0
230
1.0
 70
     8
 71
     3
 72
    15
 73
    11
 74
     0
 42
0.00000001
 43
0.00000001
 40
0.0
 40
0.0
 40
0.0
 40
0.0
 40
0.0717201582935023
 40
0.2907709821802957
 40
0.5089958934196105
 40
0.6521923107853275
 40
0.7677916785516988
 40
0.8640154389358167
 40
0.960567909604767
 40
1.0
 40
1.0
 40
1.0
 40
1.0
 10
69.55740120334521
 20
456.6272385411219
 30
0.0
 10
69.56151710659428
 20
456.6328356512211
 30
0.0
 10
69.57820398039333
 20
456.6555276981939
 30
0.0
 10
69.70076772753967
 20
456.8329441654279
 30
0.0
 10
69.91271641165832
 20
456.9397387069588
 30
0.0
 10
70.14769521472124
 20
456.9584555528698
 30
0.0
 10
70.34156348410033
 20
456.9013939041472
 30
0.0
 10
70.49948696785854
 20
456.787711900062
 30
0.0
 10
70.59183795580316
 20
456.659292921861
 30
0.0
 10
70.62200328617006
 20
456.5721121102135
 30
0.0
 10
70.63075047058953
 20
456.54683187532
 30
0.0
  0
LINE
  5
232
330
1F
100
AcDbEntity
  8
0
  6
Continuous
 62
     7
370
    15
100
AcDbLine
 10
66.5913623206
 20
435.0221939378
 30
0.0
 11
70.9197324149
 21
455.8139778666
 31
0.0
  0
LWPOLYLINE
  5
233
330
1F
100
AcDbEntity
  8
0
  6
Continuous
 62
     7
370
    15
100
AcDbPolyline
 90
        9
 70
   128
 43
0.0
 10
66.5913623206
 20
435.0221939378
 10
66.3095850877
 20
435.0808449082
 10
66.0382777832
 20
435.1373352103
 10
65.7875247679
 20
435.189533978
 10
65.5666467182
 20
435.2355189614
 10
65.3838485859
 20
435.2735765271
 10
65.2459253005
 20
435.3022761636
 10
65.1580028616
 20
435.3205896907
 10
65.1233502112
 20
435.3278018527
  0
LINE
  5
234
330
1F
100
AcDbEntity
  8
0
  6
Continuous
 62
     7
370
    15
100
AcDbLine
 10
65.1233502112
 20
435.3278018527
 30
0.0
 11
69.5574012033
 21
456.6272385411
 31
0.0
  0
ARC
  5
235
330
1F
100
AcDbEntity
  8
0
  6
Continuous
 62
     7
370
    15
100
AcDbCircle
 10
120.0809669212
 20
461.2827505244
 30
0.0
 40
0.7214854785914877
100
AcDbArc
 50
220.3661681469
 51
351.7218094936
  0
SPLINE
  5
236
330
1F
100
AcDbEntity
  8
0
  6
Continuous
 62
     7
370
    15
100
AcDbSpline
210
0.0
220
0.0
230
1.0
 70
     8
 71
     3
 72
     9
 73
     5
 74
     0
 42
0.00000001
 43
0.00000001
 40
0.0
 40
0.0
 40
0.0
 40
0.0
 40
0.3261576344156082
 40
0.9999999999999999
 40
0.9999999999999999
 40
0.9999999999999999
 40
0.9999999999999999
 10
120.6788577519168
 20
461.2817205481486
 30
0.0
 10
120.6919636904101
 20
461.2681894335471
 30
0.0
 10
120.7321465256725
 20
461.2267030074335
 30
0.0
 10
120.7696575529622
 20
461.1981278710716
 30
0.0
 10
120.7949340723266
 20
461.1788727335887
 30
0.0
  0
ARC
  5
237
330
1F
100
AcDbEntity
  8
0
  6
Continuous
 62
     7
370
    15
100
AcDbCircle
 10
71.124249354
 20
461.2827505244
 30
0.0
 40
0.7214854785896488
100
AcDbArc
 50
188.2781905059
 51
319.6338318532
  0
SPLINE
  5
238
330
1F
100
AcDbEntity
  8
0
  6
Continuous
 62
     7
370
    15
100
AcDbSpline
210
0.0
220
0.0
230
1.0
 70
     8
 71
     3
 72
     9
 73
     5
 74
     0
 42
0.00000001
 43
0.00000001
 40
0.0
 40
0.0
 40
0.0
 40
0.0
 40
0.3935753824039972
 40
1.0
 40
1.0
 40
1.0
 40
1.0
 10
70.41028220279114
 20
461.1788727335887
 30
0.0
 10
70.42504350182638
 20
461.1901125352853
 30
0.0
 10
70.46254914800039
 20
461.2186707281988
 30
0.0
 10
70.50227051089634
 20
461.2579192676318
 30
0.0
 10
70.5263585232009
 20
461.2817205481486
 30
0.0
  0
ARC
  5
239
330
1F
100
AcDbEntity
  8
0
  6
Continuous
 62
     7
370
    15
100
AcDbCircle
 10
70.1052117577
 20
456.3876956343
 30
0.0
 40
0.721485478589293
100
AcDbArc
 50
16.8467656156
 51
148.2024069628
  0
SPLINE
  5
23A
330
1F
100
AcDbEntity
  8
0
  6
Continuous
 62
     7
370
    15
100
AcDbSpline
210
0.0
220
0.0
230
1.0
 70
     8
 71
     3
 72
     9
 73
     5
 74
     0
 42
0.00000001
 43
0.00000001
 40
0.0
 40
0.0
 40
0.0
 40
0.0
 40
0.3261575386455923
 40
1.0
 40
1.0
 40
1.0
 40
1.0
 10
69.55740120334521
 20
456.6272385411219
 30
0.0
 10
69.55078256782787
 20
456.6448714697744
 30
0.0
 10
69.53048981131272
 20
456.6989340823562
 30
0.0
 10
69.50750160933744
 20
456.7401128184341
 30
0.0
 10
69.49201118273632
 20
456.7678607993083
 30
0.0
  0
ARC
  5
23B
330
1F
100
AcDbEntity
  8
0
  6
Continuous
 62
     7
370
    15
100
AcDbCircle
 10
121.1000045174
 20
456.3876956343
 30
0.0
 40
0.7214854785886965
100
AcDbArc
 50
31.7975930371
 51
163.1532343845
  0
SPLINE
  5
23C
330
1F
100
AcDbEntity
  8
0
  6
Continuous
 62
     7
370
    15
100
AcDbSpline
210
0.0
220
0.0
230
1.0
 70
     8
 71
     3
 72
     9
 73
     5
 74
     0
 42
0.00000001
 43
0.00000001
 40
0.0
 40
0.0
 40
0.0
 40
0.0
 40
0.3935754048000664
 40
1.0
 40
1.0
 40
1.0
 40
1.0
 10
121.7132050923814
 20
456.7678607993083
 30
0.0
 10
121.7041559507366
 20
456.7516634167422
 30
0.0
 10
121.6811638086099
 20
456.7105089584899
 30
0.0
 10
121.6604042056151
 20
456.658673087938
 30
0.0
 10
121.6478150717725
 20
456.6272385411219
 30
0.0
  0
CIRCLE
  5
23D
330
1F
100
AcDbEntity
  8
0
  6
Continuous
 62
     7
370
    15
100
AcDbCircle
 10
75.1026081376
 20
403.9009504132
 30
0.0
 40
4.674603847461242
  0
CIRCLE
  5
23E
330
1F
100
AcDbEntity
  8
0
  6
Continuous
 62
     7
370
    15
100
AcDbCircle
 10
116.1026081376
 20
403.9009504132
 30
0.0
 40
4.674603847461611
  0
SPLINE
  5
23F
330
1F
100
AcDbEntity
  8
0
  6
Continuous
 62
     7
370
    15
100
AcDbSpline
210
0.0
220
0.0
230
1.0
 70
     8
 71
     3
 72
     9
 73
     5
 74
     0
 42
0.00000001
 43
0.00000001
 40
0.0
 40
0.0
 40
0.0
 40
0.0
 40
0.4999695986405225
 40
1.0
 40
1.0
 40
1.0
 40
1.0
 10
72.73969132525815
 20
393.5606218867259
 30
0.0
 10
72.78667876837163
 20
393.5295293642373
 30
0.0
 10
72.88065936887463
 20
393.4673405380103
 30
0.0
 10
72.99296634721776
 20
393.4580126532512
 30
0.0
 10
73.04912325067414
 20
393.4533484272914
 30
0.0
  0
SPLINE
  5
240
330
1F
100
AcDbEntity
  8
0
  6
Continuous
 62
     7
370
    15
100
AcDbSpline
210
0.0
220
0.0
230
1.0
 70
     8
 71
     3
 72
     9
 73
     5
 74
     0
 42
0.00000001
 43
0.00000001
 40
0.0
 40
0.0
 40
0.0
 40
0.0
 40
0.5000053345222549
 40
1.0
 40
1.0
 40
1.0
 40
1.0
 10
72.5631144277562
 20
393.836442380424
 30
0.0
 10
72.58076756162211
 20
393.7829325021803
 30
0.0
 10
72.6160734526738
 20
393.6759138874793
 30
0.0
 10
72.69848566081654
 20
393.5990522802971
 30
0.0
 10
72.73969132525815
 20
393.5606218867259
 30
0.0
  0
LINE
  5
241
330
1F
100
AcDbEntity
  8
0
  6
Continuous
 62
     7
370
    15
100
AcDbLine
 10
72.5631144278
 20
393.8364423804
 30
0.0
 11
66.8568469964
 21
417.5951518111
 31
0.0
  0
SPLINE
  5
242
330
1F
100
AcDbEntity
  8
0
  6
Continuous
 62
     7
370
    15
100
AcDbSpline
210
0.0
220
0.0
230
1.0
 70
     8
 71
     3
 72
    11
 73
     7
 74
     0
 42
0.00000001
 43
0.00000001
 40
0.0
 40
0.0
 40
0.0
 40
0.0
 40
0.2499585302802623
 40
0.5005248915405738
 40
0.7501021212792864
 40
1.0
 40
1.0
 40
1.0
 40
1.0
 10
66.85684699637784
 20
417.5951518111186
 30
0.0
 10
66.55953648661023
 20
419.0296374953052
 30
0.0
 10
65.96419248899412
 20
421.9020971416669
 30
0.0
 10
65.69040813600024
 20
426.2963867301125
 30
0.0
 10
65.831353020925
 20
430.6964769039027
 30
0.0
 10
66.33791748733336
 20
433.5796712832303
 30
0.0
 10
66.5913623206128
 20
435.0221939377742
 30
0.0
  0
SPLINE
  5
243
330
1F
100
AcDbEntity
  8
0
  6
Continuous
 62
     7
370
    15
100
AcDbSpline
210
0.0
220
0.0
230
1.0
 70
     8
 71
     3
 72
     9
 73
     5
 74
     0
 42
0.00000001
 43
0.00000001
 40
0.0
 40
0.0
 40
0.0
 40
0.0
 40
0.4999418434928976
 40
1.0
 40
1.0
 40
1.0
 40
1.0
 10
72.78755199236764
 20
464.2365165047603
 30
0.0
 10
72.74604952459407
 20
464.1964811735203
 30
0.0
 10
72.66303493336959
 20
464.1164011966969
 30
0.0
 10
72.63007308819053
 20
464.0058667002809
 30
0.0
 10
72.61359024865521
 20
463.9505930237727
 30
0.0
  0
SPLINE
  5
244
330
1F
100
AcDbEntity
  8
0
  6
Continuous
 62
     7
370
    15
100
AcDbSpline
210
0.0
220
0.0
230
1.0
 70
     8
 71
     3
 72
     9
 73
     5
 74
     0
 42
0.00000001
 43
0.00000001
 40
0.0
 40
0.0
 40
0.0
 40
0.0
 40
0.5000202358775091
 40
1.0
 40
1.0
 40
1.0
 40
1.0
 10
73.10292761845483
 20
464.3485583357768
 30
0.0
 10
73.04545880679214
 20
464.3436876481524
 30
0.0
 10
72.93052583500582
 20
464.3339466671384
 30
0.0
 10
72.83520865402917
 20
464.2689923492812
 30
0.0
 10
72.78755199236764
 20
464.2365165047603
 30
0.0
  0
LINE
  5
245
330
1F
100
AcDbEntity
  8
0
  6
Continuous
 62
     7
370
    15
100
AcDbLine
 10
73.1029276185
 20
464.3485583358
 30
0.0
 11
118.1022886567
 21
464.3485583358
 31
0.0
  0
SPLINE
  5
246
330
1F
100
AcDbEntity
  8
0
  6
Continuous
 62
     7
370
    15
100
AcDbSpline
210
0.0
220
0.0
230
1.0
 70
     8
 71
     3
 72
     9
 73
     5
 74
     0
 42
0.00000001
 43
0.00000001
 40
0.0
 40
0.0
 40
0.0
 40
0.0
 40
0.499979764122491
 40
1.0
 40
1.0
 40
1.0
 40
1.0
 10
118.41766428275
 20
464.2365165047603
 30
0.0
 10
118.3700076210885
 20
464.2689923492812
 30
0.0
 10
118.2746904401119
 20
464.3339466671384
 30
0.0
 10
118.1597574683255
 20
464.3436876481525
 30
0.0
 10
118.1022886566628
 20
464.3485583357768
 30
0.0
  0
SPLINE
  5
247
330
1F
100
AcDbEntity
  8
0
  6
Continuous
 62
     7
370
    15
100
AcDbSpline
210
0.0
220
0.0
230
1.0
 70
     8
 71
     3
 72
     9
 73
     5
 74
     0
 42
0.00000001
 43
0.00000001
 40
0.0
 40
0.0
 40
0.0
 40
0.0
 40
0.5000581565071025
 40
1.0
 40
1.0
 40
1.0
 40
1.0
 10
118.5916260264624
 20
463.9505930237727
 30
0.0
 10
118.5751431869271
 20
464.005866700281
 30
0.0
 10
118.5421813417481
 20
464.116401196697
 30
0.0
 10
118.4591667505236
 20
464.1964811735203
 30
0.0
 10
118.41766428275
 20
464.2365165047603
 30
0.0
  0
SPLINE
  5
248
330
1F
100
AcDbEntity
  8
0
  6
Continuous
 62
     7
370
    15
100
AcDbSpline
210
0.0
220
0.0
230
1.0
 70
     8
 71
     3
 72
     9
 73
     5
 74
     0
 42
0.00000001
 43
0.00000001
 40
0.0
 40
0.0
 40
0.0
 40
0.0
 40
0.5000003005249044
 40
1.0
 40
1.0
 40
1.0
 40
1.0
 10
124.6138539545049
 20
435.0221939377742
 30
0.0
 10
124.8577642323767
 20
433.6794171860691
 30
0.0
 10
125.345584494916
 20
430.9938652968096
 30
0.0
 10
125.4153382816953
 20
428.2652590715929
 30
0.0
 10
125.4502151541222
 20
426.9009567789989
 30
0.0
  0
ARC
  5
249
330
1F
100
AcDbEntity
  8
0
  6
Continuous
 62
     7
370
    15
100
AcDbCircle
 10
85.6026081376
 20
426.9009504132
 30
0.0
 40
39.84760746616358
100
AcDbArc
 50
346.4947425141
 51
360.0
  0
LINE
  5
24A
330
1F
100
AcDbEntity
  8
0
  6
Continuous
 62
     7
370
    15
100
AcDbLine
 10
124.3483692787
 20
417.5951518111
 30
0.0
 11
118.6421018474
 21
393.8364423804
 31
0.0
  0
SPLINE
  5
24B
330
1F
100
AcDbEntity
  8
0
  6
Continuous
 62
     7
370
    15
100
AcDbSpline
210
0.0
220
0.0
230
1.0
 70
     8
 71
     3
 72
     9
 73
     5
 74
     0
 42
0.00000001
 43
0.00000001
 40
0.0
 40
0.0
 40
0.0
 40
0.0
 40
0.4999946654777452
 40
1.0
 40
1.0
 40
1.0
 40
1.0
 10
118.4655249498595
 20
393.5606218867259
 30
0.0
 10
118.5067306143011
 20
393.5990522802971
 30
0.0
 10
118.5891428224439
 20
393.6759138874793
 30
0.0
 10
118.6244487134956
 20
393.7829325021803
 30
0.0
 10
118.6421018473615
 20
393.836442380424
 30
0.0
  0
SPLINE
  5
24C
330
1F
100
AcDbEntity
  8
0
  6
Continuous
 62
     7
370
    15
100
AcDbSpline
210
0.0
220
0.0
230
1.0
 70
     8
 71
     3
 72
     9
 73
     5
 74
     0
 42
0.00000001
 43
0.00000001
 40
0.0
 40
0.0
 40
0.0
 40
0.0
 40
0.5000304013594775
 40
1.0
 40
1.0
 40
1.0
 40
1.0
 10
118.1560930244435
 20
393.4533484272914
 30
0.0
 10
118.2122499278999
 20
393.4580126532513
 30
0.0
 10
118.324556906243
 20
393.4673405380103
 30
0.0
 10
118.418537506746
 20
393.5295293642372
 30
0.0
 10
118.4655249498595
 20
393.5606218867259
 30
0.0
  0
LINE
  5
24D
330
1F
100
AcDbEntity
  8
0
  6
Continuous
 62
     7
370
    15
100
AcDbLine
 10
118.1560930244
 20
393.4533484273
 30
0.0
 11
73.0491232507
 21
393.4533484273
 31
0.0
  0
SPLINE
  5
24E
330
1F
100
AcDbEntity
  8
0
  6
Continuous
 62
     7
370
    15
100
AcDbSpline
210
0.0
220
0.0
230
1.0
 70
    24
 71
     3
 72
    11
 73
     7
 74
     0
 42
0.00000001
 43
0.00000001
 40
0.0
 40
0.0
 40
0.0
 40
0.0
 40
0.2500000882148169
 40
0.4999998700052871
 40
0.7499983895111167
 40
1.0
 40
1.0
 40
1.0
 40
1.0
 10
73.10292761845484
 20
465.8480472855525
 30
0.0
 10
73.10292761845484
 20
465.8212030460317
 30
0.0
 10
73.10292761845483
 20
465.7675145998929
 30
0.0
 10
73.10292761845483
 20
465.4188924835515
 30
0.0
 10
73.10292761845483
 20
464.9283927319535
 30
0.0
 10
73.10292761845483
 20
464.5418372643931
 30
0.0
 10
73.10292761845483
 20
464.3485583357768
 30
0.0
  0
LINE
  5
24F
330
1F
100
AcDbEntity
  8
0
  6
Continuous
 62
     7
370
    15
100
AcDbLine
 10
73.1029276185
 20
465.8480472856
 30
0.0
 11
118.1022886567
 21
465.8480472856
 31
0.0
  0
SPLINE
  5
250
330
1F
100
AcDbEntity
  8
0
  6
Continuous
 62
     7
370
    15
100
AcDbSpline
210
0.0
220
0.0
230
1.0
 70
    24
 71
     3
 72
    11
 73
     7
 74
     0
 42
0.00000001
 43
0.00000001
 40
0.0
 40
0.0
 40
0.0
 40
0.0
 40
0.2500016104888833
 40
0.5000001299947129
 40
0.7499999117851831
 40
1.0
 40
1.0
 40
1.0
 40
1.0
 10
118.1022886566628
 20
464.3485583357768
 30
0.0
 10
118.1022886566628
 20
464.5418372643931
 30
0.0
 10
118.1022886566628
 20
464.9283927319534
 30
0.0
 10
118.1022886566629
 20
465.4188924835515
 30
0.0
 10
118.1022886566629
 20
465.767514599893
 30
0.0
 10
118.1022886566628
 20
465.8212030460317
 30
0.0
 10
118.1022886566629
 20
465.8480472855525
 30
0.0
  0
SPLINE
  5
251
330
1F
100
AcDbEntity
  8
0
  6
Continuous
 62
     7
370
    15
100
AcDbSpline
210
0.0
220
0.0
230
1.0
 70
    24
 71
     3
 72
    11
 73
     7
 74
     0
 42
0.00000001
 43
0.00000001
 40
0.0
 40
0.0
 40
0.0
 40
0.0
 40
0.2499981117618879
 40
0.5000010076519561
 40
0.7499989583379677
 40
1.0
 40
1.0
 40
1.0
 40
1.0
 10
118.1560930244435
 20
391.9538594775157
 30
0.0
 10
118.1560930244435
 20
391.980696582228
 30
0.0
 10
118.1560930244435
 20
392.0343713052251
 30
0.0
 10
118.1560930244435
 20
392.3830167872733
 30
0.0
 10
118.1560930244435
 20
392.8735128020091
 30
0.0
 10
118.1560930244435
 20
393.2600690889715
 30
0.0
 10
118.1560930244435
 20
393.4533484272914
 30
0.0
  0
LINE
  5
252
330
1F
100
AcDbEntity
  8
0
  6
Continuous
 62
     7
370
    15
100
AcDbLine
 10
118.1560930244
 20
391.9538594775
 30
0.0
 11
73.0491232507
 21
391.9538594775
 31
0.0
  0
SPLINE
  5
253
330
1F
100
AcDbEntity
  8
0
  6
Continuous
 62
     7
370
    15
100
AcDbSpline
210
0.0
220
0.0
230
1.0
 70
    24
 71
     3
 72
    11
 73
     7
 74
     0
 42
0.00000001
 43
0.00000001
 40
0.0
 40
0.0
 40
0.0
 40
0.0
 40
0.2500010416620322
 40
0.4999989923480438
 40
0.7500018882381121
 40
1.0
 40
1.0
 40
1.0
 40
1.0
 10
73.04912325067414
 20
393.4533484272914
 30
0.0
 10
73.04912325067414
 20
393.2600690889715
 30
0.0
 10
73.04912325067414
 20
392.873512802009
 30
0.0
 10
73.04912325067414
 20
392.3830167872733
 30
0.0
 10
73.04912325067416
 20
392.034371305225
 30
0.0
 10
73.04912325067414
 20
391.980696582228
 30
0.0
 10
73.04912325067416
 20
391.9538594775157
 30
0.0
  0
SPLINE
  5
254
330
1F
100
AcDbEntity
  8
0
  6
Continuous
 62
     7
370
    15
100
AcDbSpline
210
0.0
220
0.0
230
1.0
 70
     8
 71
     3
 72
    11
 73
     7
 74
     0
 42
0.00000001
 43
0.00000001
 40
0.0
 40
0.0
 40
0.0
 40
0.0
 40
0.2499990469014109
 40
0.5000006236904482
 40
0.750000876555083
 40
0.9999999999999999
 40
0.9999999999999999
 40
0.9999999999999999
 40
0.9999999999999999
 10
71.1050916842927
 20
393.4862650923686
 30
0.0
 10
71.13118919916216
 20
393.4925318292482
 30
0.0
 10
71.18338449299728
 20
393.5050653664243
 30
0.0
 10
71.52237969934286
 20
393.5864815051681
 30
0.0
 10
71.99931633074183
 20
393.7010298975088
 30
0.0
 10
72.37518201175853
 20
393.7913049540913
 30
0.0
 10
72.5631144277562
 20
393.836442380424
 30
0.0
  0
LINE
  5
255
330
1F
100
AcDbEntity
  8
0
  6
Continuous
 62
     7
370
    15
100
AcDbLine
 10
71.1050916843
 20
393.4862650924
 30
0.0
 11
65.3988242529
 21
417.2449745231
 31
0.0
  0
LWPOLYLINE
  5
256
330
1F
100
AcDbEntity
  8
0
  6
Continuous
 62
     7
370
    15
100
AcDbPolyline
 90
        9
 70
   128
 43
0.0
 10
65.3988242529
 20
417.2449745231
 10
65.43324221
 20
417.2532446675
 10
65.5205667399
 20
417.2742106013
 10
65.6575493894
 20
417.3071123652
 10
65.8391032748
 20
417.3507131629
 10
66.0584800325
 20
417.4034036689
 10
66.3075250022
 20
417.4632169299
 10
66.5769864254
 20
417.527932673
 10
66.8568469964
 20
417.5951518111
  0
LWPOLYLINE
  5
257
330
1F
100
AcDbEntity
  8
0
  6
Continuous
 62
     7
370
    15
100
AcDbPolyline
 90
        9
 70
   128
 43
0.0
 10
125.8063920222
 20
417.2449745231
 10
125.7719740651
 20
417.2532446675
 10
125.6846495352
 20
417.2742106013
 10
125.5476668857
 20
417.3071123652
 10
125.3661130003
 20
417.3507131629
 10
125.1467362426
 20
417.4034036689
 10
124.8976912729
 20
417.4632169299
 10
124.6282298498
 20
417.527932673
 10
124.3483692787
 20
417.5951518111
  0
LINE
  5
258
330
1F
100
AcDbEntity
  8
0
  6
Continuous
 62
     7
370
    15
100
AcDbLine
 10
125.8063920222
 20
417.2449745231
 30
0.0
 11
120.1001245908
 21
393.4862650924
 31
0.0
  0
SPLINE
  5
259
330
1F
100
AcDbEntity
  8
0
  6
Continuous
 62
     7
370
    15
100
AcDbSpline
210
0.0
220
0.0
230
1.0
 70
     8
 71
     3
 72
    11
 73
     7
 74
     0
 42
0.00000001
 43
0.00000001
 40
0.0
 40
0.0
 40
0.0
 40
0.0
 40
0.2499991234449171
 40
0.4999993763095518
 40
0.750000953098589
 40
0.9999999999999999
 40
0.9999999999999999
 40
0.9999999999999999
 40
0.9999999999999999
 10
118.6421018473615
 20
393.836442380424
 30
0.0
 10
118.8300342633592
 20
393.7913049540913
 30
0.0
 10
119.2058999443758
 20
393.7010298975087
 30
0.0
 10
119.6828365757748
 20
393.5864815051681
 30
0.0
 10
120.0218317821204
 20
393.5050653664243
 30
0.0
 10
120.0740270759555
 20
393.4925318292482
 30
0.0
 10
120.100124590825
 20
393.4862650923686
 30
0.0
  0
SPLINE
  5
25A
330
1F
100
AcDbEntity
  8
0
  6
Continuous
 62
     7
370
    15
100
AcDbSpline
210
0.0
220
0.0
230
1.0
 70
     8
 71
     3
 72
    11
 73
     7
 74
     0
 42
0.00000001
 43
0.00000001
 40
0.0
 40
0.0
 40
0.0
 40
0.0
 40
0.2796376916759565
 40
0.5592699300005486
 40
0.7796340715365582
 40
1.0
 40
1.0
 40
1.0
 40
1.0
 10
119.3635471544971
 20
465.3995968394236
 30
0.0
 10
119.3418989373378
 20
465.3729731167111
 30
0.0
 10
119.2986029251917
 20
465.3197261904886
 30
0.0
 10
119.0451070299321
 20
465.0080371533196
 30
0.0
 10
118.7380687946398
 20
464.6304892439531
 30
0.0
 10
118.5244660753953
 20
464.3678411061243
 30
0.0
 10
118.41766428275
 20
464.2365165047603
 30
0.0
  0
SPLINE
  5
25B
330
1F
100
AcDbEntity
  8
0
  6
Continuous
 62
     7
370
    15
100
AcDbSpline
210
0.0
220
0.0
230
1.0
 70
     8
 71
     3
 72
     9
 73
     5
 74
     0
 42
0.00000001
 43
0.00000001
 40
0.0
 40
0.0
 40
0.0
 40
0.0
 40
0.5100812550666306
 40
1.0
 40
1.0
 40
1.0
 40
1.0
 10
120.0596399985065
 20
464.2562009386973
 30
0.0
 10
119.9910813623847
 20
464.4811485013373
 30
0.0
 10
119.8566740783673
 20
464.9221518912983
 30
0.0
 10
119.5256983620424
 20
465.2426022176996
 30
0.0
 10
119.3635471544971
 20
465.3995968394236
 30
0.0
  0
SPLINE
  5
25C
330
1F
100
AcDbEntity
  8
0
  6
Continuous
 62
     7
370
    15
100
AcDbSpline
210
0.0
220
0.0
230
1.0
 70
     8
 71
     3
 72
     9
 73
     5
 74
     0
 42
0.00000001
 43
0.00000001
 40
0.0
 40
0.0
 40
0.0
 40
0.0
 40
0.4899279938704965
 40
1.0
 40
1.0
 40
1.0
 40
1.0
 10
119.3635471544971
 20
465.3995968394236
 30
0.0
 10
119.1767972007642
 20
465.5263490131592
 30
0.0
 10
118.7956188315564
 20
465.7850649373797
 30
0.0
 10
118.3364816698322
 20
465.8267731128291
 30
0.0
 10
118.1022886566629
 20
465.8480472855525
 30
0.0
  0
SPLINE
  5
25D
330
1F
100
AcDbEntity
  8
0
  6
Continuous
 62
     7
370
    15
100
AcDbSpline
210
0.0
220
0.0
230
1.0
 70
     8
 71
     3
 72
     9
 73
     5
 74
     0
 42
0.00000001
 43
0.00000001
 40
0.0
 40
0.0
 40
0.0
 40
0.0
 40
0.4899187449333694
 40
1.0
 40
1.0
 40
1.0
 40
1.0
 10
71.84166912062064
 20
465.3995968394236
 30
0.0
 10
71.6795179130753
 20
465.2426022176996
 30
0.0
 10
71.34854219675039
 20
464.9221518912984
 30
0.0
 10
71.21413491273294
 20
464.4811485013373
 30
0.0
 10
71.14557627661124
 20
464.2562009386973
 30
0.0
  0
SPLINE
  5
25E
330
1F
100
AcDbEntity
  8
0
  6
Continuous
 62
     7
370
    15
100
AcDbSpline
210
0.0
220
0.0
230
1.0
 70
     8
 71
     3
 72
    11
 73
     7
 74
     0
 42
0.00000001
 43
0.00000001
 40
0.0
 40
0.0
 40
0.0
 40
0.0
 40
0.2796376916759565
 40
0.5592699300005486
 40
0.7796340715365582
 40
1.0
 40
1.0
 40
1.0
 40
1.0
 10
71.84166912062064
 20
465.3995968394236
 30
0.0
 10
71.86331733777992
 20
465.3729731167111
 30
0.0
 10
71.90661334992602
 20
465.3197261904886
 30
0.0
 10
72.16010924518562
 20
465.0080371533196
 30
0.0
 10
72.46714748047788
 20
464.6304892439531
 30
0.0
 10
72.68075019972235
 20
464.3678411061243
 30
0.0
 10
72.78755199236764
 20
464.2365165047603
 30
0.0
  0
SPLINE
  5
25F
330
1F
100
AcDbEntity
  8
0
  6
Continuous
 62
     7
370
    15
100
AcDbSpline
210
0.0
220
0.0
230
1.0
 70
     8
 71
     3
 72
     9
 73
     5
 74
     0
 42
0.00000001
 43
0.00000001
 40
0.0
 40
0.0
 40
0.0
 40
0.0
 40
0.5100720061295035
 40
1.0
 40
1.0
 40
1.0
 40
1.0
 10
73.10292761845484
 20
465.8480472855525
 30
0.0
 10
72.86873460528554
 20
465.826773112829
 30
0.0
 10
72.40959744356127
 20
465.7850649373796
 30
0.0
 10
72.02841907435345
 20
465.5263490131592
 30
0.0
 10
71.84166912062064
 20
465.3995968394236
 30
0.0
  0
SPLINE
  5
260
330
1F
100
AcDbEntity
  8
0
  6
Continuous
 62
     7
370
    15
100
AcDbSpline
210
0.0
220
0.0
230
1.0
 70
     8
 71
     3
 72
    11
 73
     7
 74
     0
 42
0.00000001
 43
0.00000001
 40
0.0
 40
0.0
 40
0.0
 40
0.0
 40
0.2796368285230993
 40
0.5592671289176215
 40
0.7796313252374029
 40
1.0
 40
1.0
 40
1.0
 40
1.0
 10
119.3935953460444
 20
392.3832662396388
 30
0.0
 10
119.3723987845428
 20
392.4101580493003
 30
0.0
 10
119.3300061563738
 20
392.4639410408336
 30
0.0
 10
119.0812862380027
 20
392.7794534242938
 30
0.0
 10
118.7799734708311
 20
393.1617030426123
 30
0.0
 10
118.5703418335638
 20
393.4276480379009
 30
0.0
 10
118.4655249498595
 20
393.5606218867259
 30
0.0
  0
SPLINE
  5
261
330
1F
100
AcDbEntity
  8
0
  6
Continuous
 62
     7
370
    15
100
AcDbSpline
210
0.0
220
0.0
230
1.0
 70
     8
 71
     3
 72
     9
 73
     5
 74
     0
 42
0.00000001
 43
0.00000001
 40
0.0
 40
0.0
 40
0.0
 40
0.0
 40
0.5096175770251186
 40
1.0
 40
1.0
 40
1.0
 40
1.0
 10
118.1560930244435
 20
391.9538594775157
 30
0.0
 10
118.3847738081672
 20
391.9741139694589
 30
0.0
 10
118.8335039816014
 20
392.0138584619106
 30
0.0
 10
119.2093077725003
 20
392.2617195289989
 30
0.0
 10
119.3935953460444
 20
392.3832662396388
 30
0.0
  0
SPLINE
  5
262
330
1F
100
AcDbEntity
  8
0
  6
Continuous
 62
     7
370
    15
100
AcDbSpline
210
0.0
220
0.0
230
1.0
 70
     8
 71
     3
 72
     9
 73
     5
 74
     0
 42
0.00000001
 43
0.00000001
 40
0.0
 40
0.0
 40
0.0
 40
0.0
 40
0.4903813329867179
 40
1.0
 40
1.0
 40
1.0
 40
1.0
 10
119.3935953460444
 20
392.3832662396388
 30
0.0
 10
119.5548159170559
 20
392.5340729417974
 30
0.0
 10
119.8835816350116
 20
392.8416023928885
 30
0.0
 10
120.0270237906666
 20
393.2686391761283
 30
0.0
 10
120.100124590825
 20
393.4862650923686
 30
0.0
  0
SPLINE
  5
263
330
1F
100
AcDbEntity
  8
0
  6
Continuous
 62
     7
370
    15
100
AcDbSpline
210
0.0
220
0.0
230
1.0
 70
     8
 71
     3
 72
    11
 73
     7
 74
     0
 42
0.00000001
 43
0.00000001
 40
0.0
 40
0.0
 40
0.0
 40
0.0
 40
0.2796368285230993
 40
0.5592671289176215
 40
0.7796313252374029
 40
1.0
 40
1.0
 40
1.0
 40
1.0
 10
71.81162092907324
 20
392.3832662396388
 30
0.0
 10
71.83281749057487
 20
392.4101580493003
 30
0.0
 10
71.87521011874385
 20
392.4639410408336
 30
0.0
 10
72.12393003711495
 20
392.7794534242938
 30
0.0
 10
72.42524280428657
 20
393.1617030426123
 30
0.0
 10
72.63487444155385
 20
393.4276480379009
 30
0.0
 10
72.73969132525815
 20
393.5606218867259
 30
0.0
  0
SPLINE
  5
264
330
1F
100
AcDbEntity
  8
0
  6
Continuous
 62
     7
370
    15
100
AcDbSpline
210
0.0
220
0.0
230
1.0
 70
     8
 71
     3
 72
     9
 73
     5
 74
     0
 42
0.00000001
 43
0.00000001
 40
0.0
 40
0.0
 40
0.0
 40
0.0
 40
0.5096186670132821
 40
1.0
 40
1.0
 40
1.0
 40
1.0
 10
71.1050916842927
 20
393.4862650923686
 30
0.0
 10
71.17819248445109
 20
393.2686391761283
 30
0.0
 10
71.32163464010604
 20
392.8416023928885
 30
0.0
 10
71.65040035806177
 20
392.5340729417975
 30
0.0
 10
71.81162092907324
 20
392.3832662396388
 30
0.0
  0
SPLINE
  5
265
330
1F
100
AcDbEntity
  8
0
  6
Continuous
 62
     7
370
    15
100
AcDbSpline
210
0.0
220
0.0
230
1.0
 70
     8
 71
     3
 72
     9
 73
     5
 74
     0
 42
0.00000001
 43
0.00000001
 40
0.0
 40
0.0
 40
0.0
 40
0.0
 40
0.4903824229748813
 40
1.0
 40
1.0
 40
1.0
 40
1.0
 10
71.81162092907324
 20
392.3832662396388
 30
0.0
 10
71.9959085026174
 20
392.2617195289989
 30
0.0
 10
72.3717122935163
 20
392.0138584619106
 30
0.0
 10
72.82044246695054
 20
391.9741139694589
 30
0.0
 10
73.04912325067416
 20
391.9538594775157
 30
0.0
  0
ARC
  5
266
330
1F
100
AcDbEntity
  8
0
  6
Continuous
 62
     7
370
    15
100
AcDbCircle
 10
85.6026081376
 20
426.9009504132
 30
0.0
 40
41.34709345362613
100
AcDbArc
 50
346.4947425141
 51
11.7597012656
  0
LINE
  5
267
330
1F
100
AcDbEntity
  8
0
  6
Continuous
 62
     7
370
    15
100
AcDbLine
 10
113.9951113991
 20
458.845291286
 30
0.0
 11
115.8666860692
 21
460.1982720189
 31
0.0
  0
LINE
  5
268
330
1F
100
AcDbEntity
  8
0
  6
Continuous
 62
     7
370
    15
100
AcDbLine
 10
114.2310321711
 20
456.5479792647
 30
0.0
 11
113.9951113991
 21
458.845291286
 31
0.0
  0
LINE
  5
269
330
1F
100
AcDbEntity
  8
0
  6
Continuous
 62
     7
370
    15
100
AcDbLine
 10
116.3385294758
 20
455.6036330752
 30
0.0
 11
114.2310321711
 21
456.5479792647
 31
0.0
  0
LINE
  5
26A
330
1F
100
AcDbEntity
  8
0
  6
Continuous
 62
     7
370
    15
100
AcDbLine
 10
118.2101060085
 20
456.956598907
 30
0.0
 11
116.3385294758
 21
455.6036330752
 31
0.0
  0
LINE
  5
26B
330
1F
100
AcDbEntity
  8
0
  6
Continuous
 62
     7
370
    15
100
AcDbLine
 10
117.9741833739
 20
459.2539258294
 30
0.0
 11
118.2101060085
 21
456.956598907
 31
0.0
  0
LINE
  5
26C
330
1F
100
AcDbEntity
  8
0
  6
Continuous
 62
     7
370
    15
100
AcDbLine
 10
115.8666860692
 20
460.1982720189
 30
0.0
 11
117.9741833739
 21
459.2539258294
 31
0.0
  0
CIRCLE
  5
26D
330
1F
100
AcDbEntity
  8
0
  6
Continuous
 62
     7
370
    15
100
AcDbCircle
 10
116.1026081376
 20
457.9009504132
 30
0.0
 40
3.000000000000028
  0
CIRCLE
  5
26E
330
1F
100
AcDbEntity
  8
0
  6
Continuous
 62
     7
370
    15
100
AcDbCircle
 10
116.1026081376
 20
457.9009504132
 30
0.0
 40
4.000000000000043
  0
ARC
  5
26F
330
1F
100
AcDbEntity
  8
0
  6
Continuous
 62
     7
370
    15
100
AcDbCircle
 10
105.6026081376
 20
426.9009504132
 30
0.0
 40
41.34709345362614
100
AcDbArc
 50
168.2402987344
 51
193.5052574859
  0
CIRCLE
  5
270
330
1F
100
AcDbEntity
  8
0
  6
Continuous
 62
     7
370
    15
100
AcDbCircle
 10
116.1026081376
 20
403.9009504132
 30
0.0
 40
4.499999999999034
  0
CIRCLE
  5
271
330
1F
100
AcDbEntity
  8
0
  6
Continuous
 62
     7
370
    15
100
AcDbCircle
 10
116.1026081376
 20
403.9009504132
 30
0.0
 40
4.000000000000028
  0
CIRCLE
  5
272
330
1F
100
AcDbEntity
  8
0
  6
Continuous
 62
     7
370
    15
100
AcDbCircle
 10
116.1026081376
 20
403.9009504132
 30
0.0
 40
3.000000000000028
  0
LINE
  5
273
330
1F
100
AcDbEntity
  8
0
  6
Continuous
 62
     7
370
    15
100
AcDbLine
 10
114.7583116226
 20
405.778769403
 30
0.0
 11
117.0566983901
 21
406.0040600591
 31
0.0
  0
LINE
  5
274
330
1F
100
AcDbEntity
  8
0
  6
Continuous
 62
     7
370
    15
100
AcDbLine
 10
113.8042219363
 20
403.6756642156
 30
0.0
 11
114.7583116226
 21
405.778769403
 31
0.0
  0
LINE
  5
275
330
1F
100
AcDbEntity
  8
0
  6
Continuous
 62
     7
370
    15
100
AcDbLine
 10
115.1485171549
 20
401.7978496842
 30
0.0
 11
113.8042219363
 21
403.6756642156
 31
0.0
  0
LINE
  5
276
330
1F
100
AcDbEntity
  8
0
  6
Continuous
 62
     7
370
    15
100
AcDbLine
 10
117.4469039224
 20
402.0231254392
 30
0.0
 11
115.1485171549
 21
401.7978496842
 31
0.0
  0
LINE
  5
277
330
1F
100
AcDbEntity
  8
0
  6
Continuous
 62
     7
370
    15
100
AcDbLine
 10
117.0566983901
 20
406.0040600591
 30
0.0
 11
118.4009936087
 21
404.1262306266
 31
0.0
  0
LINE
  5
278
330
1F
100
AcDbEntity
  8
0
  6
Continuous
 62
     7
370
    15
100
AcDbLine
 10
118.4009936087
 20
404.1262306266
 30
0.0
 11
117.4469039224
 21
402.0231254392
 31
0.0
  0
CIRCLE
  5
279
330
1F
100
AcDbEntity
  8
0
  6
Continuous
 62
     7
370
    15
100
AcDbCircle
 10
75.1026081376
 20
457.9009504132
 30
0.0
 40
3.000000000000028
  0
CIRCLE
  5
27A
330
1F
100
AcDbEntity
  8
0
  6
Continuous
 62
     7
370
    15
100
AcDbCircle
 10
75.1026081376
 20
457.9009504132
 30
0.0
 40
4.000000000000043
  0
LINE
  5
27B
330
1F
100
AcDbEntity
  8
0
  6
Continuous
 62
     7
370
    15
100
AcDbLine
 10
72.7944735817
 20
457.9774476581
 30
0.0
 11
74.0147874139
 21
459.9380977445
 31
0.0
  0
LINE
  5
27C
330
1F
100
AcDbEntity
  8
0
  6
Continuous
 62
     7
370
    15
100
AcDbLine
 10
73.8822937392
 20
455.9402950101
 30
0.0
 11
72.7944735817
 21
457.9774476581
 31
0.0
  0
LINE
  5
27D
330
1F
100
AcDbEntity
  8
0
  6
Continuous
 62
     7
370
    15
100
AcDbLine
 10
76.1904277287
 20
455.8638073497
 30
0.0
 11
73.8822937392
 21
455.9402950101
 31
0.0
  0
LINE
  5
27E
330
1F
100
AcDbEntity
  8
0
  6
Continuous
 62
     7
370
    15
100
AcDbLine
 10
77.4107415609
 20
457.8244574361
 30
0.0
 11
76.1904277287
 21
455.8638073497
 31
0.0
  0
LINE
  5
27F
330
1F
100
AcDbEntity
  8
0
  6
Continuous
 62
     7
370
    15
100
AcDbLine
 10
76.3229214035
 20
459.8616100841
 30
0.0
 11
77.4107415609
 21
457.8244574361
 31
0.0
  0
LINE
  5
280
330
1F
100
AcDbEntity
  8
0
  6
Continuous
 62
     7
370
    15
100
AcDbLine
 10
74.0147874139
 20
459.9380977445
 30
0.0
 11
76.3229214035
 21
459.8616100841
 31
0.0
  0
CIRCLE
  5
281
330
1F
100
AcDbEntity
  8
0
  6
Continuous
 62
     7
370
    15
100
AcDbCircle
 10
75.1026081376
 20
403.9009504132
 30
0.0
 40
4.49999999999865
  0
LINE
  5
282
330
1F
100
AcDbEntity
  8
0
  6
Continuous
 62
     7
370
    15
100
AcDbLine
 10
72.9025759183
 20
404.6032316976
 30
0.0
 11
74.6107817076
 21
406.1573781066
 31
0.0
  0
LINE
  5
283
330
1F
100
AcDbEntity
  8
0
  6
Continuous
 62
     7
370
    15
100
AcDbLine
 10
73.394401782
 20
402.3468084626
 30
0.0
 11
72.9025759183
 21
404.6032316976
 31
0.0
  0
LINE
  5
284
330
1F
100
AcDbEntity
  8
0
  6
Continuous
 62
     7
370
    15
100
AcDbLine
 10
75.594433435
 20
401.6445316367
 30
0.0
 11
73.394401782
 21
402.3468084626
 31
0.0
  0
LINE
  5
285
330
1F
100
AcDbEntity
  8
0
  6
Continuous
 62
     7
370
    15
100
AcDbLine
 10
77.3026392244
 20
403.1986780457
 30
0.0
 11
75.594433435
 21
401.6445316367
 31
0.0
  0
LINE
  5
286
330
1F
100
AcDbEntity
  8
0
  6
Continuous
 62
     7
370
    15
100
AcDbLine
 10
76.8108133606
 20
405.4551012807
 30
0.0
 11
77.3026392244
 21
403.1986780457
 31
0.0
  0
LINE
  5
287
330
1F
100
AcDbEntity
  8
0
  6
Continuous
 62
     7
370
    15
100
AcDbLine
 10
74.6107817076
 20
406.1573781066
 30
0.0
 11
76.8108133606
 21
405.4551012807
 31
0.0
  0
CIRCLE
  5
288
330
1F
100
AcDbEntity
  8
0
  6
Continuous
 62
     7
370
    15
100
AcDbCircle
 10
75.1026081376
 20
403.9009504132
 30
0.0
 40
3.000000000000028
  0
CIRCLE
  5
289
330
1F
100
AcDbEntity
  8
0
  6
Continuous
 62
     7
370
    15
100
AcDbCircle
 10
75.1026081376
 20
403.9009504132
 30
0.0
 40
4.000000000000028
  0
LINE
  5
28A
330
1F
100
AcDbEntity
  8
0
  6
Continuous
 62
     7
370
    15
100
AcDbLine
 10
118.2266407095
 20
466.0009481006
 30
0.0
 11
118.1022886567
 21
465.8480472856
 31
0.0
  0
ELLIPSE
  5
28B
330
1F
100
AcDbEntity
  8
0
  6
Continuous
 62
     7
370
    15
100
AcDbEllipse
 10
118.2255264655
 20
464.0002648282
 30
0.0
 11
1.26261595220636
 21
1.552532720572344
 31
0.0
210
0.0
220
0.0
230
1.0
 40
0.9994308748
 41
5.600688549874878
 42
6.965682064484307
  0
LINE
  5
28C
330
1F
100
AcDbEntity
  8
0
  6
Continuous
 62
     7
370
    15
100
AcDbLine
 10
120.1839920513
 20
464.4091166549
 30
0.0
 11
120.0596399985
 21
464.2562009387
 31
0.0
  0
LINE
  5
28D
330
1F
100
AcDbEntity
  8
0
  6
Continuous
 62
     7
370
    15
100
AcDbLine
 10
71.0212242238
 20
464.4091166549
 30
0.0
 11
71.1455762766
 21
464.2562009387
 31
0.0
  0
ELLIPSE
  5
28E
330
1F
100
AcDbEntity
  8
0
  6
Continuous
 62
     7
370
    15
100
AcDbEllipse
 10
72.9796898096
 20
464.0002648282
 30
0.0
 11
-1.262615952206374
 21
1.552532720572287
 31
-1.421085471520200E-14
210
-4.480608553038578E-15
220
5.509427767416199E-15
230
1.0
 40
0.9994308748
 41
5.600688549874893
 42
6.965682064484318
  0
LINE
  5
28F
330
1F
100
AcDbEntity
  8
0
  6
Continuous
 62
     7
370
    15
100
AcDbLine
 10
72.9785755656
 20
466.0009481006
 30
0.0
 11
73.1029276185
 21
465.8480472856
 31
0.0
  0
LINE
  5
290
330
1F
100
AcDbEntity
  8
0
  6
Continuous
 62
     7
370
    15
100
AcDbLine
 10
120.2206544958
 20
393.3333493762
 30
0.0
 11
120.1001245908
 21
393.4862650924
 31
0.0
  0
ELLIPSE
  5
291
330
1F
100
AcDbEntity
  8
0
  6
Continuous
 62
     7
370
    15
100
AcDbEllipse
 10
118.2755436296
 20
393.8016359982
 30
0.0
 11
1.238803894235673
 21
-1.571563548152085
 31
1.421085471520200E-14
210
-4.396227952367161E-15
220
5.577114853655063E-15
230
1.0
 40
0.9994445788
 41
5.615912837478357
 42
6.95045777688084
  0
LINE
  5
292
330
1F
100
AcDbEntity
  8
0
  6
Continuous
 62
     7
370
    15
100
AcDbLine
 10
118.2766247921
 20
391.8009437613
 30
0.0
 11
118.1560930244
 21
391.9538594775
 31
0.0
  0
LINE
  5
293
330
1F
100
AcDbEntity
  8
0
  6
Continuous
 62
     7
370
    15
100
AcDbLine
 10
72.9285914831
 20
391.8009437613
 30
0.0
 11
73.0491232507
 21
391.9538594775
 31
0.0
  0
ELLIPSE
  5
294
330
1F
100
AcDbEntity
  8
0
  6
Continuous
 62
     7
370
    15
100
AcDbEllipse
 10
72.9296726455
 20
393.8016359982
 30
0.0
 11
-1.238803894235659
 21
-1.571563548152085
 31
0.0
210
0.0
220
0.0
230
1.0
 40
0.9994445788
 41
5.615912837478348
 42
6.950457776880855
  0
LINE
  5
295
330
1F
100
AcDbEntity
  8
0
  6
Continuous
 62
     7
370
    15
100
AcDbLine
 10
70.9845617793
 20
393.3333493762
 30
0.0
 11
71.1050916843
 21
393.4862650924
 31
0.0
  0
LINE
  5
296
330
1F
100
AcDbEntity
  8
0
  6
Continuous
 62
     7
370
    15
100
AcDbLine
 10
120.1839920513
 20
464.4091166549
 30
0.0
 11
126.2315631293
 21
435.3589601808
 31
0.0
  0
LINE
  5
297
330
1F
100
AcDbEntity
  8
0
  6
Continuous
 62
     7
370
    15
100
AcDbLine
 10
126.2315631293
 20
435.3589601808
 30
0.0
 11
126.0818660639
 21
435.3278018527
 31
0.0
  0
LINE
  5
298
330
1F
100
AcDbEntity
  8
0
  6
Continuous
 62
     7
370
    15
100
AcDbLine
 10
120.7949340723
 20
461.1788727336
 30
0.0
 11
121.7132050924
 21
456.7678607993
 31
0.0
  0
LINE
  5
299
330
1F
100
AcDbEntity
  8
0
  6
Continuous
 62
     7
370
    15
100
AcDbLine
 10
69.4920111827
 20
456.7678607993
 30
0.0
 11
70.4102822028
 21
461.1788727336
 31
0.0
  0
LINE
  5
29A
330
1F
100
AcDbEntity
  8
0
  6
Continuous
 62
     7
370
    15
100
AcDbLine
 10
65.1233502112
 20
435.3278018527
 30
0.0
 11
64.9736531459
 21
435.3589601808
 31
0.0
  0
LINE
  5
29B
330
1F
100
AcDbEntity
  8
0
  6
Continuous
 62
     7
370
    15
100
AcDbLine
 10
64.9736531459
 20
435.3589601808
 30
0.0
 11
71.0212242238
 21
464.4091166549
 31
0.0
  0
LINE
  5
29C
330
1F
100
AcDbEntity
  8
0
  6
Continuous
 62
     7
370
    15
100
AcDbLine
 10
72.9785755656
 20
466.0009481006
 30
0.0
 11
118.2266407095
 21
466.0009481006
 31
0.0
  0
LINE
  5
29D
330
1F
100
AcDbEntity
  8
0
  6
Continuous
 62
     7
370
    15
100
AcDbLine
 10
125.9550702207
 20
417.2092713408
 30
0.0
 11
120.2206544958
 21
393.3333493762
 31
0.0
  0
LINE
  5
29E
330
1F
100
AcDbEntity
  8
0
  6
Continuous
 62
     7
370
    15
100
AcDbLine
 10
125.9550702207
 20
417.2092713408
 30
0.0
 11
125.8063920222
 21
417.2449745231
 31
0.0
  0
LINE
  5
29F
330
1F
100
AcDbEntity
  8
0
  6
Continuous
 62
     7
370
    15
100
AcDbLine
 10
118.2766247921
 20
391.8009437613
 30
0.0
 11
72.9285914831
 21
391.8009437613
 31
0.0
  0
LINE
  5
2A0
330
1F
100
AcDbEntity
  8
0
  6
Continuous
 62
     7
370
    15
100
AcDbLine
 10
70.9845617793
 20
393.3333493762
 30
0.0
 11
65.2501460545
 21
417.2092713408
 31
0.0
  0
LINE
  5
2A1
330
1F
100
AcDbEntity
  8
0
  6
Continuous
 62
     7
370
    15
100
AcDbLine
 10
65.2501460545
 20
417.2092713408
 30
0.0
 11
65.3988242529
 21
417.2449745231
 31
0.0
  0
ARC
  5
2A2
330
1F
100
AcDbEntity
  8
0
  6
Continuous
 62
     7
370
    15
100
AcDbCircle
 10
85.6026081376
 20
426.9009504132
 30
0.0
 40
41.5000000000004
100
AcDbArc
 50
346.4947425141
 51
11.7597012656
  0
ARC
  5
2A3
330
1F
100
AcDbEntity
  8
0
  6
Continuous
 62
     7
370
    15
100
AcDbCircle
 10
105.6026081376
 20
426.9009504132
 30
0.0
 40
41.5000000000004
100
AcDbArc
 50
168.2402987344
 51
193.5052574859
  0
ARC
  5
2A4
330
1F
100
AcDbEntity
  8
0
  6
Continuous
 62
     7
370
    15
100
AcDbCircle
 10
62.6910574718
 20
396.7856631159
 30
0.0
 40
1.999999999999978
100
AcDbArc
 50
359.0
 51
85.0
  0
LINE
  5
2A5
330
1F
100
AcDbEntity
  8
0
  6
Continuous
 62
     7
370
    15
100
AcDbLine
 10
56.4282972745
 20
399.3412293487
 30
0.0
 11
62.8653679423
 21
398.7780548625
 31
0.0
  0
ARC
  5
2A6
330
1F
100
AcDbEntity
  8
0
  6
Continuous
 62
     7
370
    15
100
AcDbCircle
 10
56.6026081376
 20
401.3336127613
 30
0.0
 40
2.000000000000024
100
AcDbArc
 50
180.0
 51
265.0
  0
LINE
  5
2A7
330
1F
100
AcDbEntity
  8
0
  6
Continuous
 62
     7
370
    15
100
AcDbLine
 10
54.6026070051
 20
441.3682855658
 30
0.0
 11
54.6026070051
 21
401.3336189084
 31
0.0
  0
ARC
  5
2A8
330
1F
100
AcDbEntity
  8
0
  6
Continuous
 62
     7
370
    15
100
AcDbCircle
 10
56.6026081376
 20
441.3682880652
 30
0.0
 40
2.000000000000024
100
AcDbArc
 50
95.0
 51
180.0
  0
LINE
  5
2A9
330
1F
100
AcDbEntity
  8
0
  6
Continuous
 62
     7
370
    15
100
AcDbLine
 10
62.6787532501
 20
443.9075179391
 30
0.0
 11
56.4282972745
 21
443.3606751256
 31
0.0
  0
ARC
  5
2AA
330
1F
100
AcDbEntity
  8
0
  6
Continuous
 62
     7
370
    15
100
AcDbCircle
 10
62.2429727606
 20
448.8884948907
 30
0.0
 40
5.000000000000024
100
AcDbArc
 50
275.0
 51
347.9245515611
  0
LINE
  5
2AB
330
1F
100
AcDbEntity
  8
0
  6
Continuous
 62
     7
370
    15
100
AcDbLine
 10
70.7642518364
 20
464.8193456225
 30
0.0
 11
67.1323378019
 21
447.8424973779
 31
0.0
  0
ARC
  5
2AC
330
1F
100
AcDbEntity
  8
0
  6
Continuous
 62
     7
370
    15
100
AcDbCircle
 10
72.7199970345
 20
464.4009504132
 30
0.0
 40
2.000000000000137
100
AcDbArc
 50
90.0
 51
167.9245515611
  0
LINE
  5
2AD
330
1F
100
AcDbEntity
  8
0
  6
Continuous
 62
     7
370
    15
100
AcDbLine
 10
118.485218697
 20
466.4009548717
 30
0.0
 11
72.7199975781
 21
466.4009548717
 31
0.0
  0
ARC
  5
2AE
330
1F
100
AcDbEntity
  8
0
  6
Continuous
 62
     7
370
    15
100
AcDbCircle
 10
118.4852192406
 20
464.4009504132
 30
0.0
 40
2.000000000000167
100
AcDbArc
 50
12.0754484389
 51
90.0
  0
LINE
  5
2AF
330
1F
100
AcDbEntity
  8
0
  6
Continuous
 62
     7
370
    15
100
AcDbLine
 10
126.6732726626
 20
435.68733707
 30
0.0
 11
120.4409644387
 21
464.8193456225
 31
0.0
  0
ARC
  5
2B0
330
1F
100
AcDbEntity
  8
0
  6
Continuous
 62
     7
370
    15
100
AcDbCircle
 10
85.6026081376
 20
426.9009504132
 30
0.0
 40
42.00000000000036
100
AcDbArc
 50
345.9796877929
 51
12.0754484389
  0
LINE
  5
2B1
330
1F
100
AcDbEntity
  8
0
  6
Continuous
 62
     7
370
    15
100
AcDbLine
 10
126.3514243446
 20
416.7257882647
 30
0.0
 11
126.2418039523
 21
416.2867851548
 31
0.0
  0
ARC
  5
2B2
330
1F
100
AcDbEntity
  8
0
  6
Continuous
 62
     7
370
    15
100
AcDbCircle
 10
128.1822230317
 20
415.8022507325
 30
0.0
 40
2.000000000000032
100
AcDbArc
 50
165.9796877929
 51
181.0
  0
LINE
  5
2B3
330
1F
100
AcDbEntity
  8
0
  6
Continuous
 62
     7
370
    15
100
AcDbLine
 10
126.5670888506
 20
393.7358595424
 30
0.0
 11
126.1825271331
 21
415.7673455768
 31
0.0
  0
ARC
  5
2B4
330
1F
100
AcDbEntity
  8
0
  6
Continuous
 62
     7
370
    15
100
AcDbCircle
 10
124.5673933516
 20
393.7009504132
 30
0.0
 40
2.0
100
AcDbArc
 50
270.0
 51
1.0
  0
LINE
  5
2B5
330
1F
100
AcDbEntity
  8
0
  6
Continuous
 62
     7
370
    15
100
AcDbLine
 10
66.6378222786
 20
391.7009569697
 30
0.0
 11
124.5673939965
 21
391.7009569697
 31
0.0
  0
ARC
  5
2B6
330
1F
100
AcDbEntity
  8
0
  6
Continuous
 62
     7
370
    15
100
AcDbCircle
 10
66.6378229235
 20
393.7009504132
 30
0.0
 40
2.000000000000027
100
AcDbArc
 50
179.0
 51
270.0
  0
LINE
  5
2B7
330
1F
100
AcDbEntity
  8
0
  6
Continuous
 62
     7
370
    15
100
AcDbLine
 10
64.690752738
 20
396.7507518821
 30
0.0
 11
64.6381274245
 21
393.7358595424
 31
0.0
  0
LINE
  5
2B8
330
1F
100
AcDbEntity
  8
0
  6
Continuous
 62
     7
370
    15
100
AcDbLine
 10
83.7704481937
 20
470.9409512572
 30
0.0
 11
83.7704481937
 21
470.3409560018
 31
0.0
  0
LINE
  5
2B9
330
1F
100
AcDbEntity
  8
0
  6
Continuous
 62
     7
370
    15
100
AcDbLine
 10
83.7704481937
 20
470.9409512572
 30
0.0
 11
109.1026084877
 21
470.9409512572
 31
0.0
  0
LINE
  5
2BA
330
1F
100
AcDbEntity
  8
0
  6
Continuous
 62
     7
370
    15
100
AcDbLine
 10
82.1026077874
 20
468.1409485631
 30
0.0
 11
109.1026084877
 21
468.1409485631
 31
0.0
  0
SPLINE
  5
2BB
330
1F
100
AcDbEntity
  8
0
  6
Continuous
 62
     7
370
    15
100
AcDbSpline
210
0.0
220
0.0
230
1.0
 70
    24
 71
     1
 72
     4
 73
     2
 74
     0
 42
0.00000001
 43
0.00000001
 40
0.0
 40
0.0
 40
1.0
 40
1.0
 10
85.25273282153528
 20
473.1409437947227
 30
0.0
 10
83.77044819368045
 20
470.9409512572242
 30
0.0
  0
LINE
  5
2BC
330
1F
100
AcDbEntity
  8
0
  6
Continuous
 62
     7
370
    15
100
AcDbLine
 10
85.2527328215
 20
473.1409437947
 30
0.0
 11
106.9026084997
 21
473.1409437947
 31
0.0
  0
LINE
  5
2BD
330
1F
100
AcDbEntity
  8
0
  6
Continuous
 62
     7
370
    15
100
AcDbLine
 10
103.6026085175
 20
466.8409563594
 30
0.0
 11
87.6026077576
 21
466.8409563594
 31
0.0
  0
LINE
  5
2BE
330
1F
100
AcDbEntity
  8
0
  6
Continuous
 62
     7
370
    15
100
AcDbLine
 10
103.5876077048
 20
467.2409482293
 30
0.0
 11
87.6176085703
 21
467.2409482293
 31
0.0
  0
ELLIPSE
  5
2BF
330
1F
100
AcDbEntity
  8
0
  6
Continuous
 62
     7
370
    15
100
AcDbEllipse
 10
76.6026081376
 20
471.9409504132
 30
0.0
 11
0.7683184257464289
 21
0.7683184257463722
 31
0.0
210
0.0
220
0.0
230
1.0
 40
0.8330762153
 41
3.141592653589921
 42
3.836179168831371
  0
LINE
  5
2C0
330
1F
100
AcDbEntity
  8
0
  6
Continuous
 62
     7
370
    15
100
AcDbLine
 10
75.8342899762
 20
471.1726345115
 30
0.0
 11
77.8026085727
 21
473.1409437947
 31
0.0
  0
LINE
  5
2C1
330
1F
100
AcDbEntity
  8
0
  6
Continuous
 62
     7
370
    15
100
AcDbLine
 10
83.7704481937
 20
470.9409512572
 30
0.0
 11
76.4219824605
 21
470.9409512572
 31
0.0
  0
LINE
  5
2C2
330
1F
100
AcDbEntity
  8
0
  6
Continuous
 62
     7
370
    15
100
AcDbLine
 10
77.8026085727
 20
473.1409437947
 30
0.0
 11
85.2527328215
 21
473.1409437947
 31
0.0
  0
LINE
  5
2C3
330
1F
100
AcDbEntity
  8
0
  6
Continuous
 62
     7
370
    15
100
AcDbLine
 10
76.4219824605
 20
470.3409560018
 30
0.0
 11
83.7704481937
 21
470.3409560018
 31
0.0
  0
LINE
  5
2C4
330
1F
100
AcDbEntity
  8
0
  6
Continuous
 62
     7
370
    15
100
AcDbLine
 10
76.4219824605
 20
470.3409560018
 30
0.0
 11
76.4219824605
 21
470.9409512572
 31
0.0
  0
LINE
  5
2C5
330
1F
100
AcDbEntity
  8
0
  6
Continuous
 62
     7
370
    15
100
AcDbLine
 10
75.6026085846
 20
470.9409512572
 30
0.0
 11
75.6026085846
 21
470.3409560018
 31
0.0
  0
LWPOLYLINE
  5
2C6
330
1F
100
AcDbEntity
  8
0
  6
Continuous
 62
     7
370
    15
100
AcDbPolyline
 90
        4
 70
   128
 43
0.0
 10
75.8342899762
 20
471.1726345115
 10
75.7079169534
 20
471.0462577634
 10
75.6292909764
 20
470.9676392369
 10
75.6026085846
 20
470.9409512572
  0
LINE
  5
2C7
330
1F
100
AcDbEntity
  8
0
  6
Continuous
 62
     7
370
    15
100
AcDbLine
 10
75.6026085846
 20
470.3409560018
 30
0.0
 11
76.4219824605
 21
470.3409560018
 31
0.0
  0
LINE
  5
2C8
330
1F
100
AcDbEntity
  8
0
  6
Continuous
 62
     7
370
    15
100
AcDbLine
 10
89.4539801784
 20
473.1409437947
 30
0.0
 11
89.4539801784
 21
486.3409586244
 31
0.0
  0
LINE
  5
2C9
330
1F
100
AcDbEntity
  8
0
  6
Continuous
 62
     7
370
    15
100
AcDbLine
 10
89.4539801784
 20
486.3409586244
 30
0.0
 11
101.7512360968
 21
486.3409586244
 31
0.0
  0
LINE
  5
2CA
330
1F
100
AcDbEntity
  8
0
  6
Continuous
 62
     7
370
    15
100
AcDbLine
 10
101.7512360968
 20
486.3409586244
 30
0.0
 11
101.7512360968
 21
473.1409437947
 31
0.0
  0
LINE
  5
2CB
330
1F
100
AcDbEntity
  8
0
  6
Continuous
 62
     7
370
    15
100
AcDbLine
 10
103.5276081793
 20
482.3409505181
 30
0.0
 11
103.2710907429
 21
482.3409505181
 31
0.0
  0
LINE
  5
2CC
330
1F
100
AcDbEntity
  8
0
  6
Continuous
 62
     7
370
    15
100
AcDbLine
 10
103.1229555055
 20
486.3409586244
 30
0.0
 11
101.7512360968
 21
486.3409586244
 31
0.0
  0
ARC
  5
2CD
330
1F
100
AcDbEntity
  8
0
  6
Continuous
 62
     7
370
    15
100
AcDbCircle
 10
95.6026081376
 20
483.8409504132
 30
0.0
 40
7.925000000000099
100
AcDbArc
 50
14.6175600515
 51
18.3884296153
  0
LINE
  5
2CE
330
1F
100
AcDbEntity
  8
0
  6
Continuous
 62
     7
370
    15
100
AcDbLine
 10
103.2710907429
 20
482.3409505181
 30
0.0
 11
103.2710907429
 21
485.8409650617
 31
0.0
  0
LINE
  5
2CF
330
1F
100
AcDbEntity
  8
0
  6
Continuous
 62
     7
370
    15
100
AcDbLine
 10
87.9341255322
 20
482.3409505181
 30
0.0
 11
87.6776080958
 21
482.3409505181
 31
0.0
  0
LINE
  5
2D0
330
1F
100
AcDbEntity
  8
0
  6
Continuous
 62
     7
370
    15
100
AcDbLine
 10
87.9341255322
 20
485.8409650617
 30
0.0
 11
87.9341255322
 21
482.3409505181
 31
0.0
  0
ARC
  5
2D1
330
1F
100
AcDbEntity
  8
0
  6
Continuous
 62
     7
370
    15
100
AcDbCircle
 10
95.6026081376
 20
483.8409504132
 30
0.0
 40
7.925000000000072
100
AcDbArc
 50
161.6115703847
 51
165.3824399485
  0
LINE
  5
2D2
330
1F
100
AcDbEntity
  8
0
  6
Continuous
 62
     7
370
    15
100
AcDbLine
 10
89.4539801784
 20
486.3409586244
 30
0.0
 11
88.0822607696
 21
486.3409586244
 31
0.0
  0
LINE
  5
2D3
330
1F
100
AcDbEntity
  8
0
  6
Continuous
 62
     7
370
    15
100
AcDbLine
 10
74.8026080809
 20
246.7009499662
 30
0.0
 11
116.4026081942
 21
246.7009499662
 31
0.0
  0
LINE
  5
2D4
330
1F
100
AcDbEntity
  8
0
  6
Continuous
 62
     7
370
    15
100
AcDbLine
 10
74.8026080809
 20
206.7009508603
 30
0.0
 11
116.4026081942
 21
206.7009508603
 31
0.0
  0
LINE
  5
2D5
330
1F
100
AcDbEntity
  8
0
  6
Continuous
 62
     7
370
    15
100
AcDbLine
 10
74.8026080809
 20
206.7009508603
 30
0.0
 11
74.8026080809
 21
246.7009499662
 31
0.0
  0
LINE
  5
2D6
330
1F
100
AcDbEntity
  8
0
  6
Continuous
 62
     7
370
    15
100
AcDbLine
 10
116.4026081942
 20
206.7009508603
 30
0.0
 11
116.4026081942
 21
246.7009499662
 31
0.0
  0
LINE
  5
2D7
330
1F
100
AcDbEntity
  8
0
  6
Continuous
 62
     7
370
    15
100
AcDbLine
 10
116.4026081942
 20
201.2178041034
 30
0.0
 11
74.8026080809
 21
201.2178041034
 31
0.0
  0
LINE
  5
2D8
330
1F
100
AcDbEntity
  8
0
  6
Continuous
 62
     7
370
    15
100
AcDbLine
 10
74.8026080809
 20
201.2178041034
 30
0.0
 11
74.8026080809
 21
206.7009508603
 31
0.0
  0
LINE
  5
2D9
330
1F
100
AcDbEntity
  8
0
  6
Continuous
 62
     7
370
    15
100
AcDbLine
 10
116.4026081942
 20
206.7009508603
 30
0.0
 11
116.4026081942
 21
201.2178041034
 31
0.0
  0
LINE
  5
2DA
330
1F
100
AcDbEntity
  8
0
  6
Continuous
 62
     7
370
    15
100
AcDbLine
 10
74.8026080809
 20
252.1840967231
 30
0.0
 11
116.4026081942
 21
252.1840967231
 31
0.0
  0
LINE
  5
2DB
330
1F
100
AcDbEntity
  8
0
  6
Continuous
 62
     7
370
    15
100
AcDbLine
 10
74.8026080809
 20
246.7009499662
 30
0.0
 11
74.8026080809
 21
252.1840967231
 31
0.0
  0
LINE
  5
2DC
330
1F
100
AcDbEntity
  8
0
  6
Continuous
 62
     7
370
    15
100
AcDbLine
 10
116.4026081942
 20
252.1840967231
 30
0.0
 11
116.4026081942
 21
246.7009499662
 31
0.0
  0
LINE
  5
2DD
330
1F
100
AcDbEntity
  8
0
  6
Continuous
 62
     7
370
    15
100
AcDbLine
 10
74.8026080809
 20
150.1216031604
 30
0.0
 11
116.4026081942
 21
150.1216031604
 31
0.0
  0
LINE
  5
2DE
330
1F
100
AcDbEntity
  8
0
  6
Continuous
 62
     7
370
    15
100
AcDbLine
 10
74.8026080809
 20
150.1216031604
 30
0.0
 11
74.8026080809
 21
201.2178041034
 31
0.0
  0
LINE
  5
2DF
330
1F
100
AcDbEntity
  8
0
  6
Continuous
 62
     7
370
    15
100
AcDbLine
 10
116.4026081942
 20
150.1216031604
 30
0.0
 11
116.4026081942
 21
201.2178041034
 31
0.0
  0
LINE
  5
2E0
330
1F
100
AcDbEntity
  8
0
  6
Continuous
 62
     7
370
    15
100
AcDbLine
 10
116.4026081942
 20
299.0591786795
 30
0.0
 11
74.8026080809
 21
299.0591786795
 31
0.0
  0
LINE
  5
2E1
330
1F
100
AcDbEntity
  8
0
  6
Continuous
 62
     7
370
    15
100
AcDbLine
 10
74.8026080809
 20
252.1840967231
 30
0.0
 11
74.8026080809
 21
299.0591786795
 31
0.0
  0
LINE
  5
2E2
330
1F
100
AcDbEntity
  8
0
  6
Continuous
 62
     7
370
    15
100
AcDbLine
 10
116.4026081942
 20
252.1840967231
 30
0.0
 11
116.4026081942
 21
299.0591786795
 31
0.0
  0
LINE
  5
2E3
330
1F
100
AcDbEntity
  8
0
  6
Continuous
 62
     7
370
    15
100
AcDbLine
 10
74.8026080809
 20
306.2056638293
 30
0.0
 11
116.4026081942
 21
306.2056638293
 31
0.0
  0
LINE
  5
2E4
330
1F
100
AcDbEntity
  8
0
  6
Continuous
 62
     7
370
    15
100
AcDbLine
 10
74.8026080809
 20
299.0591786795
 30
0.0
 11
74.8026080809
 21
306.2056638293
 31
0.0
  0
LINE
  5
2E5
330
1F
100
AcDbEntity
  8
0
  6
Continuous
 62
     7
370
    15
100
AcDbLine
 10
116.4026081942
 20
306.2056638293
 30
0.0
 11
116.4026081942
 21
299.0591786795
 31
0.0
  0
LINE
  5
2E6
330
1F
100
AcDbEntity
  8
0
  6
Continuous
 62
     7
370
    15
100
AcDbLine
 10
74.8026080809
 20
306.2056638293
 30
0.0
 11
74.8026080809
 21
311.7009513073
 31
0.0
  0
LINE
  5
2E7
330
1F
100
AcDbEntity
  8
0
  6
Continuous
 62
     7
370
    15
100
AcDbLine
 10
116.4026081942
 20
306.2056638293
 30
0.0
 11
116.4026081942
 21
311.7009513073
 31
0.0
  0
LINE
  5
2E8
330
1F
100
AcDbEntity
  8
0
  6
Continuous
 62
     7
370
    15
100
AcDbLine
 10
116.4026081942
 20
142.5582133226
 30
0.0
 11
74.8026080809
 21
142.5582133226
 31
0.0
  0
LINE
  5
2E9
330
1F
100
AcDbEntity
  8
0
  6
Continuous
 62
     7
370
    15
100
AcDbLine
 10
74.8026080809
 20
142.5582133226
 30
0.0
 11
74.8026080809
 21
150.1216031604
 31
0.0
  0
LINE
  5
2EA
330
1F
100
AcDbEntity
  8
0
  6
Continuous
 62
     7
370
    15
100
AcDbLine
 10
116.4026081942
 20
150.1216031604
 30
0.0
 11
116.4026081942
 21
142.5582133226
 31
0.0
  0
LINE
  5
2EB
330
1F
100
AcDbEntity
  8
0
  6
Continuous
 62
     7
370
    15
100
AcDbLine
 10
74.8026080809
 20
141.7009495192
 30
0.0
 11
116.4026081942
 21
141.7009495192
 31
0.0
  0
LINE
  5
2EC
330
1F
100
AcDbEntity
  8
0
  6
Continuous
 62
     7
370
    15
100
AcDbLine
 10
74.8026080809
 20
141.7009495192
 30
0.0
 11
74.8026080809
 21
142.5582133226
 31
0.0
  0
LINE
  5
2ED
330
1F
100
AcDbEntity
  8
0
  6
Continuous
 62
     7
370
    15
100
AcDbLine
 10
116.4026081942
 20
141.7009495192
 30
0.0
 11
116.4026081942
 21
142.5582133226
 31
0.0
  0
LINE
  5
2EE
330
1F
100
AcDbEntity
  8
0
  6
Continuous
 62
     7
370
    15
100
AcDbLine
 10
95.6026081376
 20
131.2509514384
 30
0.0
 11
80.202608221
 21
131.2509514384
 31
0.0
  0
LINE
  5
2EF
330
1F
100
AcDbEntity
  8
0
  6
Continuous
 62
     7
370
    15
100
AcDbLine
 10
111.0026080541
 20
131.2509514384
 30
0.0
 11
95.6026081376
 21
131.2509514384
 31
0.0
  0
LINE
  5
2F0
330
1F
100
AcDbEntity
  8
0
  6
Continuous
 62
     7
370
    15
100
AcDbLine
 10
95.6026081376
 20
135.2509520941
 30
0.0
 11
115.0026087098
 21
135.2509520941
 31
0.0
  0
LINE
  5
2F1
330
1F
100
AcDbEntity
  8
0
  6
Continuous
 62
     7
370
    15
100
AcDbLine
 10
76.2026075654
 20
135.2509520941
 30
0.0
 11
95.6026081376
 21
135.2509520941
 31
0.0
  0
LINE
  5
2F2
330
1F
100
AcDbEntity
  8
0
  6
Continuous
 62
     7
370
    15
100
AcDbLine
 10
95.6026081376
 20
138.7509517364
 30
0.0
 11
76.2026075654
 21
138.7509517364
 31
0.0
  0
LINE
  5
2F3
330
1F
100
AcDbEntity
  8
0
  6
Continuous
 62
     7
370
    15
100
AcDbLine
 10
115.0026087098
 20
138.7509517364
 30
0.0
 11
95.6026081376
 21
138.7509517364
 31
0.0
  0
LINE
  5
2F4
330
1F
100
AcDbEntity
  8
0
  6
Continuous
 62
     7
370
    15
100
AcDbLine
 10
81.7026084669
 20
140.750948339
 30
0.0
 11
109.5026078082
 21
140.750948339
 31
0.0
  0
LINE
  5
2F5
330
1F
100
AcDbEntity
  8
0
  6
Continuous
 62
     7
370
    15
100
AcDbLine
 10
120.4026088498
 20
303.700949996
 30
0.0
 11
120.4026088498
 21
149.7009508305
 31
0.0
  0
LINE
  5
2F6
330
1F
100
AcDbEntity
  8
0
  6
Continuous
 62
     7
370
    15
100
AcDbLine
 10
116.6026078544
 20
303.700949996
 30
0.0
 11
116.6026078544
 21
149.7009508305
 31
0.0
  0
LINE
  5
2F7
330
1F
100
AcDbEntity
  8
0
  6
Continuous
 62
     7
370
    15
100
AcDbLine
 10
70.8026074253
 20
303.700949996
 30
0.0
 11
70.8026074253
 21
149.7009508305
 31
0.0
  0
LINE
  5
2F8
330
1F
100
AcDbEntity
  8
0
  6
Continuous
 62
     7
370
    15
100
AcDbLine
 10
74.6026084207
 20
303.700949996
 30
0.0
 11
74.6026084207
 21
149.7009508305
 31
0.0
  0
LINE
  5
2F9
330
1F
100
AcDbEntity
  8
0
  6
Continuous
 62
     7
370
    15
100
AcDbLine
 10
208.9818367611
 20
65.6015505059
 30
0.0
 11
208.6136365186
 21
64.8119468218
 31
0.0
  0
LINE
  5
2FA
330
1F
100
AcDbEntity
  8
0
  6
Continuous
 62
     7
370
    15
100
AcDbLine
 10
208.6136365186
 20
53.1119471392
 30
0.0
 11
208.9818367611
 21
52.3223434551
 31
0.0
  0
LINE
  5
2FB
330
1F
100
AcDbEntity
  8
0
  6
Continuous
 62
     7
370
    15
100
AcDbLine
 10
390.4454359661
 20
52.3223434551
 30
0.0
 11
390.8136362086
 21
53.1119471392
 31
0.0
  0
LINE
  5
2FC
330
1F
100
AcDbEntity
  8
0
  6
Continuous
 62
     7
370
    15
100
AcDbLine
 10
390.8136362086
 20
64.8119468218
 30
0.0
 11
390.4454359661
 21
65.6015505059
 31
0.0
  0
LINE
  5
2FD
330
1F
100
AcDbEntity
  8
0
  6
Continuous
 62
     7
370
    15
100
AcDbLine
 10
384.3818331014
 20
65.6015505059
 30
0.0
 11
384.0136328589
 21
64.8119468218
 31
0.0
  0
LINE
  5
2FE
330
1F
100
AcDbEntity
  8
0
  6
Continuous
 62
     7
370
    15
100
AcDbLine
 10
384.0136328589
 20
53.1119471392
 30
0.0
 11
384.3818331014
 21
52.3223434551
 31
0.0
  0
LINE
  5
2FF
330
1F
100
AcDbEntity
  8
0
  6
Continuous
 62
     7
370
    15
100
AcDbLine
 10
215.0454396259
 20
52.3223434551
 30
0.0
 11
215.4136398684
 21
53.1119471392
 31
0.0
  0
LINE
  5
300
330
1F
100
AcDbEntity
  8
0
  6
Continuous
 62
     7
370
    15
100
AcDbLine
 10
215.4136398684
 20
64.8119468218
 30
0.0
 11
215.0454396259
 21
65.6015505059
 31
0.0
  0
LINE
  5
301
330
1F
100
AcDbEntity
  8
0
  6
Continuous
 62
     7
370
    15
100
AcDbLine
 10
376.7136359464
 20
90.9619485005
 30
0.0
 11
222.7136367809
 21
90.9619485005
 31
0.0
  0
LINE
  5
302
330
1F
100
AcDbEntity
  8
0
  6
Continuous
 62
     7
370
    15
100
AcDbLine
 10
382.5529018294
 20
90.3090392216
 30
0.0
 11
376.7136359464
 21
90.4619474872
 31
0.0
  0
LINE
  5
303
330
1F
100
AcDbEntity
  8
0
  6
Continuous
 62
     7
370
    15
100
AcDbLine
 10
376.7136359464
 20
27.4619464739
 30
0.0
 11
382.5529018294
 21
27.6148547395
 31
0.0
  0
LINE
  5
304
330
1F
100
AcDbEntity
  8
0
  6
Continuous
 62
     7
370
    15
100
AcDbLine
 10
216.8743708979
 20
27.6148547395
 30
0.0
 11
222.7136367809
 21
27.4619464739
 31
0.0
  0
LINE
  5
305
330
1F
100
AcDbEntity
  8
0
  6
Continuous
 62
     7
370
    15
100
AcDbLine
 10
222.7136367809
 20
90.4619474872
 30
0.0
 11
216.8743708979
 21
90.3090392216
 31
0.0
  0
ARC
  5
306
330
1F
100
AcDbEntity
  8
0
  6
Continuous
 62
     7
370
    15
100
AcDbCircle
 10
382.5136363636
 20
88.8095544467
 30
0.0
 40
1.5
100
AcDbArc
 50
0.0
 51
88.5
  0
ARC
  5
307
330
1F
100
AcDbEntity
  8
0
  6
Continuous
 62
     7
370
    15
100
AcDbCircle
 10
382.5136363636
 20
29.1143395144
 30
0.0
 40
1.500000000000018
100
AcDbArc
 50
271.5
 51
0.0
  0
ARC
  5
308
330
1F
100
AcDbEntity
  8
0
  6
Continuous
 62
     7
370
    15
100
AcDbCircle
 10
216.9136363636
 20
29.1143395144
 30
0.0
 40
1.5
100
AcDbArc
 50
180.0
 51
268.5
  0
ARC
  5
309
330
1F
100
AcDbEntity
  8
0
  6
Continuous
 62
     7
370
    15
100
AcDbCircle
 10
216.9136363636
 20
88.8095544467
 30
0.0
 40
1.50000000000003
100
AcDbArc
 50
91.5
 51
180.0
  0
LINE
  5
30A
330
1F
100
AcDbEntity
  8
0
  6
Continuous
 62
     7
370
    15
100
AcDbLine
 10
390.8136362086
 20
54.9619467905
 30
0.0
 11
392.2136375557
 21
54.9619467905
 31
0.0
  0
LINE
  5
30B
330
1F
100
AcDbEntity
  8
0
  6
Continuous
 62
     7
370
    15
100
AcDbLine
 10
392.2136375557
 20
62.9619471705
 30
0.0
 11
390.8136362086
 21
62.9619471705
 31
0.0
  0
LINE
  5
30C
330
1F
100
AcDbEntity
  8
0
  6
Continuous
 62
     7
370
    15
100
AcDbLine
 10
392.2136375557
 20
54.9619467905
 30
0.0
 11
392.713638569
 21
55.4619468725
 31
0.0
  0
LINE
  5
30D
330
1F
100
AcDbEntity
  8
0
  6
Continuous
 62
     7
370
    15
100
AcDbLine
 10
392.713638569
 20
62.4619470886
 30
0.0
 11
392.2136375557
 21
62.9619471705
 31
0.0
  0
LINE
  5
30E
330
1F
100
AcDbEntity
  8
0
  6
Continuous
 62
     7
370
    15
100
AcDbLine
 10
208.6136365186
 20
62.9619471705
 30
0.0
 11
207.2136351715
 21
62.9619471705
 31
0.0
  0
LINE
  5
30F
330
1F
100
AcDbEntity
  8
0
  6
Continuous
 62
     7
370
    15
100
AcDbLine
 10
207.2136351715
 20
54.9619467905
 30
0.0
 11
208.6136365186
 21
54.9619467905
 31
0.0
  0
LINE
  5
310
330
1F
100
AcDbEntity
  8
0
  6
Continuous
 62
     7
370
    15
100
AcDbLine
 10
207.2136351715
 20
62.9619471705
 30
0.0
 11
206.7136341582
 21
62.4619470886
 31
0.0
  0
LINE
  5
311
330
1F
100
AcDbEntity
  8
0
  6
Continuous
 62
     7
370
    15
100
AcDbLine
 10
206.7136341582
 20
55.4619468725
 30
0.0
 11
207.2136351715
 21
54.9619467905
 31
0.0
  0
ARC
  5
312
330
1F
100
AcDbEntity
  8
0
  6
Continuous
 62
     7
370
    15
100
AcDbCircle
 10
299.7136363636
 20
58.9619469805
 30
0.0
 40
2.5
100
AcDbArc
 50
143.1301023542
 51
180.0
  0
LINE
  5
313
330
1F
100
AcDbEntity
  8
0
  6
Continuous
 62
     7
370
    15
100
AcDbLine
 10
297.2136364195
 20
58.9619469805
 30
0.0
 11
297.2136364195
 21
66.4822943485
 31
0.0
  0
ARC
  5
314
330
1F
100
AcDbEntity
  8
0
  6
Continuous
 62
     7
370
    15
100
AcDbCircle
 10
299.7136363636
 20
58.9619469805
 30
0.0
 40
7.925000000000086
100
AcDbArc
 50
104.6175600515
 51
108.3884296153
  0
LINE
  5
315
330
1F
100
AcDbEntity
  8
0
  6
Continuous
 62
     7
370
    15
100
AcDbLine
 10
297.7136362686
 20
60.4619469936
 30
0.0
 11
297.7136362686
 21
66.6304295859
 31
0.0
  0
LINE
  5
316
330
1F
100
AcDbEntity
  8
0
  6
Continuous
 62
     7
370
    15
100
AcDbLine
 10
297.7136362686
 20
51.2934643752
 30
0.0
 11
297.7136362686
 21
57.4619469675
 31
0.0
  0
ARC
  5
317
330
1F
100
AcDbEntity
  8
0
  6
Continuous
 62
     7
370
    15
100
AcDbCircle
 10
299.7136363636
 20
58.9619469805
 30
0.0
 40
7.925000000000079
100
AcDbArc
 50
251.6115703847
 51
255.3824399485
  0
LINE
  5
318
330
1F
100
AcDbEntity
  8
0
  6
Continuous
 62
     7
370
    15
100
AcDbLine
 10
297.2136364195
 20
51.4415996126
 30
0.0
 11
297.2136364195
 21
58.9619469805
 31
0.0
  0
ARC
  5
319
330
1F
100
AcDbEntity
  8
0
  6
Continuous
 62
     7
370
    15
100
AcDbCircle
 10
299.7136363636
 20
58.9619469805
 30
0.0
 40
2.500000000000017
100
AcDbArc
 50
180.0
 51
216.8698976458
  0
ARC
  5
31A
330
1F
100
AcDbEntity
  8
0
  6
Continuous
 62
     7
370
    15
100
AcDbCircle
 10
299.7136363636
 20
58.9619469805
 30
0.0
 40
7.925000000000072
100
AcDbArc
 50
230.8823509288
 51
251.6115703847
  0
LINE
  5
31B
330
1F
100
AcDbEntity
  8
0
  6
Continuous
 62
     7
370
    15
100
AcDbLine
 10
294.7136364754
 20
52.8133190213
 30
0.0
 11
294.7136364754
 21
65.1105749397
 31
0.0
  0
ARC
  5
31C
330
1F
100
AcDbEntity
  8
0
  6
Continuous
 62
     7
370
    15
100
AcDbCircle
 10
299.7136363636
 20
58.9619469805
 30
0.0
 40
7.925000000000066
100
AcDbArc
 50
108.3884296153
 51
129.1176490712
  0
LINE
  5
31D
330
1F
100
AcDbEntity
  8
0
  6
Continuous
 62
     7
370
    15
100
AcDbLine
 10
301.7136364586
 20
51.2934643752
 30
0.0
 11
301.7136364586
 21
57.4619469675
 31
0.0
  0
LINE
  5
31E
330
1F
100
AcDbEntity
  8
0
  6
Continuous
 62
     7
370
    15
100
AcDbLine
 10
302.2136363077
 20
58.9619469805
 30
0.0
 11
302.2136363077
 21
51.4415996126
 31
0.0
  0
ARC
  5
31F
330
1F
100
AcDbEntity
  8
0
  6
Continuous
 62
     7
370
    15
100
AcDbCircle
 10
299.7136363636
 20
58.9619469805
 30
0.0
 40
7.925000000000072
100
AcDbArc
 50
284.6175600515
 51
288.3884296153
  0
ARC
  5
320
330
1F
100
AcDbEntity
  8
0
  6
Continuous
 62
     7
370
    15
100
AcDbCircle
 10
299.7136363636
 20
58.9619469805
 30
0.0
 40
2.500000000000013
100
AcDbArc
 50
323.1301023542
 51
360.0
  0
LINE
  5
321
330
1F
100
AcDbEntity
  8
0
  6
Continuous
 62
     7
370
    15
100
AcDbLine
 10
302.2136363077
 20
66.4822943485
 30
0.0
 11
302.2136363077
 21
58.9619469805
 31
0.0
  0
LINE
  5
322
330
1F
100
AcDbEntity
  8
0
  6
Continuous
 62
     7
370
    15
100
AcDbLine
 10
304.7136362519
 20
52.8133190213
 30
0.0
 11
304.7136362519
 21
65.1105749397
 31
0.0
  0
ARC
  5
323
330
1F
100
AcDbEntity
  8
0
  6
Continuous
 62
     7
370
    15
100
AcDbCircle
 10
299.7136363636
 20
58.9619469805
 30
0.0
 40
7.925000000000066
100
AcDbArc
 50
288.3884296153
 51
309.1176490712
  0
ARC
  5
324
330
1F
100
AcDbEntity
  8
0
  6
Continuous
 62
     7
370
    15
100
AcDbCircle
 10
299.7136363636
 20
58.9619469805
 30
0.0
 40
7.925000000000066
100
AcDbArc
 50
50.8823509288
 51
71.6115703847
  0
LINE
  5
325
330
1F
100
AcDbEntity
  8
0
  6
Continuous
 62
     7
370
    15
100
AcDbLine
 10
301.7136364586
 20
60.4619469936
 30
0.0
 11
301.7136364586
 21
66.6304295859
 31
0.0
  0
ARC
  5
326
330
1F
100
AcDbEntity
  8
0
  6
Continuous
 62
     7
370
    15
100
AcDbCircle
 10
299.7136363636
 20
58.9619469805
 30
0.0
 40
7.925000000000086
100
AcDbArc
 50
71.6115703847
 51
75.3824399485
  0
ARC
  5
327
330
1F
100
AcDbEntity
  8
0
  6
Continuous
 62
     7
370
    15
100
AcDbCircle
 10
299.7136363636
 20
58.9619469805
 30
0.0
 40
2.5
100
AcDbArc
 50
360.0
 51
36.8698976458
  0
ARC
  5
328
330
1F
100
AcDbEntity
  8
0
  6
Continuous
 62
     7
370
    15
100
AcDbCircle
 10
299.7136363636
 20
58.9619469805
 30
0.0
 40
7.925000000000092
100
AcDbArc
 50
75.3824399485
 51
104.6175600515
  0
ARC
  5
329
330
1F
100
AcDbEntity
  8
0
  6
Continuous
 62
     7
370
    15
100
AcDbCircle
 10
299.7136363636
 20
58.9619469805
 30
0.0
 40
2.5
100
AcDbArc
 50
36.8698976458
 51
143.1301023542
  0
ARC
  5
32A
330
1F
100
AcDbEntity
  8
0
  6
Continuous
 62
     7
370
    15
100
AcDbCircle
 10
299.7136363636
 20
58.9619469805
 30
0.0
 40
7.925000000000072
100
AcDbArc
 50
255.3824399485
 51
284.6175600515
  0
ARC
  5
32B
330
1F
100
AcDbEntity
  8
0
  6
Continuous
 62
     7
370
    15
100
AcDbCircle
 10
299.7136363636
 20
58.9619469805
 30
0.0
 40
2.500000000000013
100
AcDbArc
 50
216.8698976458
 51
323.1301023542
  0
SPLINE
  5
32C
330
1F
100
AcDbEntity
  8
0
  6
Continuous
 62
     7
370
    15
100
AcDbSpline
210
0.0
220
0.0
230
1.0
 70
    24
 71
     1
 72
     4
 73
     2
 74
     0
 42
0.00000001
 43
0.00000001
 40
0.0
 40
0.0
 40
1.0
 40
1.0
 10
304.2490622836585
 20
48.61207166450998
 30
0.0
 10
306.2136364977295
 20
47.12978703665517
 30
0.0
  0
ARC
  5
32D
330
1F
100
AcDbEntity
  8
0
  6
Continuous
 62
     7
370
    15
100
AcDbCircle
 10
299.7136363636
 20
58.9619469805
 30
0.0
 40
11.30000000000013
100
AcDbArc
 50
293.6635472951
 51
246.3364527049
  0
SPLINE
  5
32E
330
1F
100
AcDbEntity
  8
0
  6
Continuous
 62
     7
370
    15
100
AcDbSpline
210
0.0
220
0.0
230
1.0
 70
    24
 71
     1
 72
     4
 73
     2
 74
     0
 42
0.00000001
 43
0.00000001
 40
0.0
 40
0.0
 40
1.0
 40
1.0
 10
293.2136362295086
 20
47.12978703665517
 30
0.0
 10
295.1782104435796
 20
48.61207166450998
 30
0.0
  0
ARC
  5
32F
330
1F
100
AcDbEntity
  8
0
  6
Continuous
 62
     7
370
    15
100
AcDbCircle
 10
299.7136363636
 20
58.9619469805
 30
0.0
 40
13.50000000000017
100
AcDbArc
 50
298.7822046806
 51
241.2177953194
  0
LINE
  5
330
330
1F
100
AcDbEntity
  8
0
  6
Continuous
 62
     7
370
    15
100
AcDbLine
 10
296.5464040979
 20
41.1619474156
 30
0.0
 11
302.8808686293
 21
41.1619474156
 31
0.0
  0
LINE
  5
331
330
1F
100
AcDbEntity
  8
0
  6
Continuous
 62
     7
370
    15
100
AcDbLine
 10
295.1782104436
 20
48.6120716645
 30
0.0
 11
296.5464040979
 21
41.1619474156
 31
0.0
  0
LINE
  5
332
330
1F
100
AcDbEntity
  8
0
  6
Continuous
 62
     7
370
    15
100
AcDbLine
 10
302.8808686293
 20
41.1619474156
 30
0.0
 11
304.2490622837
 21
48.6120716645
 31
0.0
  0
LINE
  5
333
330
1F
100
AcDbEntity
  8
0
  6
Continuous
 62
     7
370
    15
100
AcDbLine
 10
293.5567298781
 20
63.9119469537
 30
0.0
 11
294.7136364754
 21
63.9119469537
 31
0.0
  0
ARC
  5
334
330
1F
100
AcDbEntity
  8
0
  6
Continuous
 62
     7
370
    15
100
AcDbCircle
 10
299.7136363636
 20
58.9619469805
 30
0.0
 40
7.900000000000085
100
AcDbArc
 50
141.2015830483
 51
218.7984169517
  0
LINE
  5
335
330
1F
100
AcDbEntity
  8
0
  6
Continuous
 62
     7
370
    15
100
AcDbLine
 10
294.7136364754
 20
54.0119470074
 30
0.0
 11
293.5567298781
 21
54.0119470074
 31
0.0
  0
LINE
  5
336
330
1F
100
AcDbEntity
  8
0
  6
Continuous
 62
     7
370
    15
100
AcDbLine
 10
305.8705428492
 20
54.0119470074
 30
0.0
 11
304.7136362519
 21
54.0119470074
 31
0.0
  0
ARC
  5
337
330
1F
100
AcDbEntity
  8
0
  6
Continuous
 62
     7
370
    15
100
AcDbCircle
 10
299.7136363636
 20
58.9619469805
 30
0.0
 40
7.90000000000004
100
AcDbArc
 50
321.2015830483
 51
38.7984169517
  0
LINE
  5
338
330
1F
100
AcDbEntity
  8
0
  6
Continuous
 62
     7
370
    15
100
AcDbLine
 10
305.8705428492
 20
63.9119469537
 30
0.0
 11
304.7136362519
 21
63.9119469537
 31
0.0
  0
ARC
  5
339
330
1F
100
AcDbEntity
  8
0
  6
Continuous
 62
     7
370
    15
100
AcDbCircle
 10
303.8805601483
 20
39.9619469805
 30
0.0
 40
0.9999999999999973
100
AcDbArc
 50
309.79687583
 51
349.5937516601
  0
LINE
  5
33A
330
1F
100
AcDbEntity
  8
0
  6
Continuous
 62
     7
370
    15
100
AcDbLine
 10
304.5206280302
 20
39.1936288192
 30
0.0
 11
302.8808686293
 21
41.1619474156
 31
0.0
  0
LINE
  5
33B
330
1F
100
AcDbEntity
  8
0
  6
Continuous
 62
     7
370
    15
100
AcDbLine
 10
306.2136364977
 20
47.1297870367
 30
0.0
 11
304.8641119029
 21
39.7813213034
 31
0.0
  0
ARC
  5
33C
330
1F
100
AcDbEntity
  8
0
  6
Continuous
 62
     7
370
    15
100
AcDbCircle
 10
303.8805601483
 20
39.9619469805
 30
0.0
 40
1.0
100
AcDbArc
 50
270.0
 51
309.79687583
  0
LINE
  5
33D
330
1F
100
AcDbEntity
  8
0
  6
Continuous
 62
     7
370
    15
100
AcDbLine
 10
303.8805602926
 20
38.9619474276
 30
0.0
 11
295.5467124346
 21
38.9619474276
 31
0.0
  0
ARC
  5
33E
330
1F
100
AcDbEntity
  8
0
  6
Continuous
 62
     7
370
    15
100
AcDbCircle
 10
295.546712579
 20
39.9619469805
 30
0.0
 40
1.0
100
AcDbArc
 50
230.20312417
 51
270.0
  0
LINE
  5
33F
330
1F
100
AcDbEntity
  8
0
  6
Continuous
 62
     7
370
    15
100
AcDbLine
 10
294.9066446971
 20
39.1936288192
 30
0.0
 11
296.5464040979
 21
41.1619474156
 31
0.0
  0
ARC
  5
340
330
1F
100
AcDbEntity
  8
0
  6
Continuous
 62
     7
370
    15
100
AcDbCircle
 10
295.546712579
 20
39.9619469805
 30
0.0
 40
1.000000000000012
100
AcDbArc
 50
190.4062483399
 51
230.20312417
  0
LINE
  5
341
330
1F
100
AcDbEntity
  8
0
  6
Continuous
 62
     7
370
    15
100
AcDbLine
 10
294.5631608244
 20
39.7813213034
 30
0.0
 11
293.2136362295
 21
47.1297870367
 31
0.0
  0
LINE
  5
342
330
1F
100
AcDbEntity
  8
0
  6
Continuous
 62
     7
370
    15
100
AcDbLine
 10
222.7136367809
 20
81.84455754
 30
0.0
 11
376.7136359464
 21
81.84455754
 31
0.0
  0
LINE
  5
343
330
1F
100
AcDbEntity
  8
0
  6
Continuous
 62
     7
370
    15
100
AcDbLine
 10
222.7136367809
 20
83.8003032817
 30
0.0
 11
222.7136367809
 21
81.84455754
 31
0.0
  0
LINE
  5
344
330
1F
100
AcDbEntity
  8
0
  6
Continuous
 62
     7
370
    15
100
AcDbLine
 10
376.7136359464
 20
83.8003032817
 30
0.0
 11
222.7136367809
 21
83.8003032817
 31
0.0
  0
LINE
  5
345
330
1F
100
AcDbEntity
  8
0
  6
Continuous
 62
     7
370
    15
100
AcDbLine
 10
376.7136359464
 20
83.8003032817
 30
0.0
 11
376.7136359464
 21
81.84455754
 31
0.0
  0
CIRCLE
  5
346
330
1F
100
AcDbEntity
  8
0
  6
Continuous
 62
     7
370
    15
100
AcDbCircle
 10
259.7136363636
 20
43.9619469805
 30
0.0
 40
2.000000000000057
  0
CIRCLE
  5
347
330
1F
100
AcDbEntity
  8
0
  6
Continuous
 62
     7
370
    15
100
AcDbCircle
 10
339.7136363636
 20
43.9619469805
 30
0.0
 40
2.0
  0
LINE
  5
348
330
1F
100
AcDbEntity
  8
0
  6
Continuous
 62
     7
370
    15
100
AcDbLine
 10
376.7136359464
 20
36.0793364211
 30
0.0
 11
222.7136367809
 21
36.0793364211
 31
0.0
  0
LINE
  5
349
330
1F
100
AcDbEntity
  8
0
  6
Continuous
 62
     7
370
    15
100
AcDbLine
 10
222.7136367809
 20
81.84455754
 30
0.0
 11
222.7136367809
 21
36.0793364211
 31
0.0
  0
CIRCLE
  5
34A
330
1F
100
AcDbEntity
  8
0
  6
Continuous
 62
     7
370
    15
100
AcDbCircle
 10
339.7136363636
 20
73.9619469805
 30
0.0
 40
2.0
  0
CIRCLE
  5
34B
330
1F
100
AcDbEntity
  8
0
  6
Continuous
 62
     7
370
    15
100
AcDbCircle
 10
259.7136363636
 20
73.9619469805
 30
0.0
 40
2.000000000000057
  0
LINE
  5
34C
330
1F
100
AcDbEntity
  8
0
  6
Continuous
 62
     7
370
    15
100
AcDbLine
 10
376.7136359464
 20
81.84455754
 30
0.0
 11
376.7136359464
 21
36.0793364211
 31
0.0
  0
LINE
  5
34D
330
1F
100
AcDbEntity
  8
0
  6
Continuous
 62
     7
370
    15
100
AcDbLine
 10
222.7136367809
 20
34.1235906793
 30
0.0
 11
376.7136359464
 21
34.1235906793
 31
0.0
  0
LINE
  5
34E
330
1F
100
AcDbEntity
  8
0
  6
Continuous
 62
     7
370
    15
100
AcDbLine
 10
222.7136367809
 20
36.0793364211
 30
0.0
 11
222.7136367809
 21
34.1235906793
 31
0.0
  0
LINE
  5
34F
330
1F
100
AcDbEntity
  8
0
  6
Continuous
 62
     7
370
    15
100
AcDbLine
 10
376.7136359464
 20
36.0793364211
 30
0.0
 11
376.7136359464
 21
34.1235906793
 31
0.0
  0
LINE
  5
350
330
1F
100
AcDbEntity
  8
0
  6
Continuous
 62
     7
370
    15
100
AcDbLine
 10
376.7136359464
 20
81.5859795524
 30
0.0
 11
382.5529018294
 21
81.4616274996
 31
0.0
  0
LINE
  5
351
330
1F
100
AcDbEntity
  8
0
  6
Continuous
 62
     7
370
    15
100
AcDbLine
 10
382.5529018294
 20
36.4622664614
 30
0.0
 11
382.5529018294
 21
81.4616274996
 31
0.0
  0
LINE
  5
352
330
1F
100
AcDbEntity
  8
0
  6
Continuous
 62
     7
370
    15
100
AcDbLine
 10
376.7136359464
 20
36.3379144086
 30
0.0
 11
382.5529018294
 21
36.4622664614
 31
0.0
  0
LINE
  5
353
330
1F
100
AcDbEntity
  8
0
  6
Continuous
 62
     7
370
    15
100
AcDbLine
 10
376.7136359464
 20
83.5433308943
 30
0.0
 11
382.5529018294
 21
83.4189788415
 31
0.0
  0
SPLINE
  5
354
330
1F
100
AcDbEntity
  8
0
  6
Continuous
 62
     7
370
    15
100
AcDbSpline
210
0.0
220
0.0
230
1.0
 70
     8
 71
     3
 72
     9
 73
     5
 74
     0
 42
0.00000001
 43
0.00000001
 40
0.0
 40
0.0
 40
0.0
 40
0.0
 40
0.5100812550666306
 40
1.0
 40
1.0
 40
1.0
 40
1.0
 10
382.5529018293554
 20
83.41897884148145
 30
0.0
 10
382.5562303038326
 20
83.35042020535974
 30
0.0
 10
382.5627556847282
 20
83.21601292134231
 30
0.0
 10
382.563748005766
 20
82.88503720501737
 30
0.0
 10
382.5642341624434
 20
82.72288599747205
 30
0.0
  0
SPLINE
  5
355
330
1F
100
AcDbEntity
  8
0
  6
Continuous
 62
     7
370
    15
100
AcDbSpline
210
0.0
220
0.0
230
1.0
 70
     8
 71
     3
 72
     9
 73
     5
 74
     0
 42
0.00000001
 43
0.00000001
 40
0.0
 40
0.0
 40
0.0
 40
0.0
 40
0.4899279938704965
 40
1.0
 40
1.0
 40
1.0
 40
1.0
 10
382.5642341624434
 20
82.72288599747205
 30
0.0
 10
382.5637480389291
 20
82.53613604373923
 30
0.0
 10
382.5627558043143
 20
82.1549576745314
 30
0.0
 10
382.5562303042594
 20
81.69582051280715
 30
0.0
 10
382.5529018293554
 20
81.46162749963784
 30
0.0
  0
LINE
  5
356
330
1F
100
AcDbEntity
  8
0
  6
Continuous
 62
     7
370
    15
100
AcDbLine
 10
376.7136359464
 20
34.3805630668
 30
0.0
 11
382.5529018294
 21
34.5049151196
 31
0.0
  0
SPLINE
  5
357
330
1F
100
AcDbEntity
  8
0
  6
Continuous
 62
     7
370
    15
100
AcDbSpline
210
0.0
220
0.0
230
1.0
 70
     8
 71
     3
 72
     9
 73
     5
 74
     0
 42
0.00000001
 43
0.00000001
 40
0.0
 40
0.0
 40
0.0
 40
0.0
 40
0.5100720061295035
 40
1.0
 40
1.0
 40
1.0
 40
1.0
 10
382.5529018293554
 20
36.46226646142983
 30
0.0
 10
382.5562303042594
 20
36.22807344826052
 30
0.0
 10
382.5627558043143
 20
35.76893628653626
 30
0.0
 10
382.5637480389291
 20
35.38775791732844
 30
0.0
 10
382.5642341624434
 20
35.20100796359563
 30
0.0
  0
SPLINE
  5
358
330
1F
100
AcDbEntity
  8
0
  6
Continuous
 62
     7
370
    15
100
AcDbSpline
210
0.0
220
0.0
230
1.0
 70
     8
 71
     3
 72
     9
 73
     5
 74
     0
 42
0.00000001
 43
0.00000001
 40
0.0
 40
0.0
 40
0.0
 40
0.0
 40
0.4899187449333694
 40
1.0
 40
1.0
 40
1.0
 40
1.0
 10
382.5642341624434
 20
35.20100796359563
 30
0.0
 10
382.563748005766
 20
35.0388567560503
 30
0.0
 10
382.5627556847282
 20
34.70788103972537
 30
0.0
 10
382.5562303038326
 20
34.57347375570795
 30
0.0
 10
382.5529018293554
 20
34.50491511958624
 30
0.0
  0
LINE
  5
359
330
1F
100
AcDbEntity
  8
0
  6
Continuous
 62
     7
370
    15
100
AcDbLine
 10
222.7136367809
 20
36.3379144086
 30
0.0
 11
216.8743708979
 21
36.4622664614
 31
0.0
  0
LINE
  5
35A
330
1F
100
AcDbEntity
  8
0
  6
Continuous
 62
     7
370
    15
100
AcDbLine
 10
216.8743708979
 20
81.4616274996
 30
0.0
 11
216.8743708979
 21
36.4622664614
 31
0.0
  0
LINE
  5
35B
330
1F
100
AcDbEntity
  8
0
  6
Continuous
 62
     7
370
    15
100
AcDbLine
 10
216.8743708979
 20
81.4616274996
 30
0.0
 11
222.7136367809
 21
81.5859795524
 31
0.0
  0
LINE
  5
35C
330
1F
100
AcDbEntity
  8
0
  6
Continuous
 62
     7
370
    15
100
AcDbLine
 10
216.8743708979
 20
34.5049151196
 30
0.0
 11
222.7136367809
 21
34.3805630668
 31
0.0
  0
SPLINE
  5
35D
330
1F
100
AcDbEntity
  8
0
  6
Continuous
 62
     7
370
    15
100
AcDbSpline
210
0.0
220
0.0
230
1.0
 70
     8
 71
     3
 72
     9
 73
     5
 74
     0
 42
0.00000001
 43
0.00000001
 40
0.0
 40
0.0
 40
0.0
 40
0.0
 40
0.5100812550666306
 40
1.0
 40
1.0
 40
1.0
 40
1.0
 10
216.8743708978827
 20
34.50491511958624
 30
0.0
 10
216.8710424234057
 20
34.57347375570795
 30
0.0
 10
216.86451704251
 20
34.70788103972537
 30
0.0
 10
216.8635247214722
 20
35.03885675605031
 30
0.0
 10
216.8630385647948
 20
35.20100796359563
 30
0.0
  0
SPLINE
  5
35E
330
1F
100
AcDbEntity
  8
0
  6
Continuous
 62
     7
370
    15
100
AcDbSpline
210
0.0
220
0.0
230
1.0
 70
     8
 71
     3
 72
     9
 73
     5
 74
     0
 42
0.00000001
 43
0.00000001
 40
0.0
 40
0.0
 40
0.0
 40
0.0
 40
0.4899203737623068
 40
0.9999999999999999
 40
0.9999999999999999
 40
0.9999999999999999
 40
0.9999999999999999
 10
216.8630385647948
 20
35.20100796359563
 30
0.0
 10
216.863524715632
 20
35.38775413171734
 30
0.0
 10
216.8645170214499
 20
35.76893070269276
 30
0.0
 10
216.8710424233304
 20
36.22806924525061
 30
0.0
 10
216.8743708978827
 20
36.46226646142983
 30
0.0
  0
LINE
  5
35F
330
1F
100
AcDbEntity
  8
0
  6
Continuous
 62
     7
370
    15
100
AcDbLine
 10
216.8743708979
 20
83.4189788415
 30
0.0
 11
222.7136367809
 21
83.5433308943
 31
0.0
  0
SPLINE
  5
360
330
1F
100
AcDbEntity
  8
0
  6
Continuous
 62
     7
370
    15
100
AcDbSpline
210
0.0
220
0.0
230
1.0
 70
     8
 71
     3
 72
     9
 73
     5
 74
     0
 42
0.00000001
 43
0.00000001
 40
0.0
 40
0.0
 40
0.0
 40
0.0
 40
0.5100796262376931
 40
0.9999999999999999
 40
0.9999999999999999
 40
0.9999999999999999
 40
0.9999999999999999
 10
216.8743708978827
 20
81.46162749963784
 30
0.0
 10
216.8710424233304
 20
81.69582471581707
 30
0.0
 10
216.8645170214499
 20
82.15496325837492
 30
0.0
 10
216.863524715632
 20
82.53613982935035
 30
0.0
 10
216.8630385647948
 20
82.72288599747205
 30
0.0
  0
SPLINE
  5
361
330
1F
100
AcDbEntity
  8
0
  6
Continuous
 62
     7
370
    15
100
AcDbSpline
210
0.0
220
0.0
230
1.0
 70
     8
 71
     3
 72
     9
 73
     5
 74
     0
 42
0.00000001
 43
0.00000001
 40
0.0
 40
0.0
 40
0.0
 40
0.0
 40
0.4899187449333694
 40
1.0
 40
1.0
 40
1.0
 40
1.0
 10
216.8630385647948
 20
82.72288599747205
 30
0.0
 10
216.8635247214722
 20
82.88503720501737
 30
0.0
 10
216.86451704251
 20
83.21601292134231
 30
0.0
 10
216.8710424234057
 20
83.35042020535974
 30
0.0
 10
216.8743708978827
 20
83.41897884148145
 30
0.0
  0
LINE
  5
362
330
1F
100
AcDbEntity
  8
0
  6
Continuous
 62
     7
370
    15
100
AcDbLine
 10
384.0136328589
 20
36.4622664614
 30
0.0
 11
384.0136328589
 21
81.4616274996
 31
0.0
  0
SPLINE
  5
363
330
1F
100
AcDbEntity
  8
0
  6
Continuous
 62
     7
370
    15
100
AcDbSpline
210
0.0
220
0.0
230
1.0
 70
    24
 71
     3
 72
    11
 73
     7
 74
     0
 42
0.00000001
 43
0.00000001
 40
0.0
 40
0.0
 40
0.0
 40
0.0
 40
0.2500000882148169
 40
0.4999998700052871
 40
0.7499983895111167
 40
1.0
 40
1.0
 40
1.0
 40
1.0
 10
382.5529018293554
 20
36.46226646142983
 30
0.0
 10
382.7455411027922
 20
36.46226646142983
 30
0.0
 10
383.1308194135482
 20
36.46226646142983
 30
0.0
 10
383.6123635674786
 20
36.46226646142983
 30
0.0
 10
383.9482803772569
 20
36.46226646142983
 30
0.0
 10
383.9918486085506
 20
36.46226646142983
 30
0.0
 10
384.0136328588659
 20
36.46226646142984
 30
0.0
  0
SPLINE
  5
364
330
1F
100
AcDbEntity
  8
0
  6
Continuous
 62
     7
370
    15
100
AcDbSpline
210
0.0
220
0.0
230
1.0
 70
    24
 71
     3
 72
    11
 73
     7
 74
     0
 42
0.00000001
 43
0.00000001
 40
0.0
 40
0.0
 40
0.0
 40
0.0
 40
0.2500016104888833
 40
0.5000001299947129
 40
0.7499999117851831
 40
1.0
 40
1.0
 40
1.0
 40
1.0
 10
384.0136328588659
 20
81.46162749963784
 30
0.0
 10
383.9918486085505
 20
81.46162749963784
 30
0.0
 10
383.9482803772569
 20
81.46162749963784
 30
0.0
 10
383.6123635674786
 20
81.46162749963784
 30
0.0
 10
383.1308194135482
 20
81.46162749963784
 30
0.0
 10
382.7455411027922
 20
81.46162749963784
 30
0.0
 10
382.5529018293554
 20
81.46162749963784
 30
0.0
  0
LINE
  5
365
330
1F
100
AcDbEntity
  8
0
  6
Continuous
 62
     7
370
    15
100
AcDbLine
 10
215.4136398684
 20
81.4616274996
 30
0.0
 11
215.4136398684
 21
36.4622664614
 31
0.0
  0
SPLINE
  5
366
330
1F
100
AcDbEntity
  8
0
  6
Continuous
 62
     7
370
    15
100
AcDbSpline
210
0.0
220
0.0
230
1.0
 70
    24
 71
     3
 72
    11
 73
     7
 74
     0
 42
0.00000001
 43
0.00000001
 40
0.0
 40
0.0
 40
0.0
 40
0.0
 40
0.2500000882148169
 40
0.4999998700052871
 40
0.7499983895111167
 40
1.0
 40
1.0
 40
1.0
 40
1.0
 10
216.8743708978827
 20
81.46162749963784
 30
0.0
 10
216.681731624446
 20
81.46162749963784
 30
0.0
 10
216.29645331369
 20
81.46162749963784
 30
0.0
 10
215.8149091597596
 20
81.46162749963784
 30
0.0
 10
215.4789923499812
 20
81.46162749963784
 30
0.0
 10
215.4354241186876
 20
81.46162749963786
 30
0.0
 10
215.4136398683722
 20
81.46162749963784
 30
0.0
  0
SPLINE
  5
367
330
1F
100
AcDbEntity
  8
0
  6
Continuous
 62
     7
370
    15
100
AcDbSpline
210
0.0
220
0.0
230
1.0
 70
    24
 71
     3
 72
    11
 73
     7
 74
     0
 42
0.00000001
 43
0.00000001
 40
0.0
 40
0.0
 40
0.0
 40
0.0
 40
0.2500016104888833
 40
0.5000001299947129
 40
0.7499999117851831
 40
1.0
 40
1.0
 40
1.0
 40
1.0
 10
215.4136398683722
 20
36.46226646142984
 30
0.0
 10
215.4354241186876
 20
36.46226646142984
 30
0.0
 10
215.4789923499813
 20
36.46226646142984
 30
0.0
 10
215.8149091597596
 20
36.46226646142983
 30
0.0
 10
216.29645331369
 20
36.46226646142983
 30
0.0
 10
216.681731624446
 20
36.46226646142983
 30
0.0
 10
216.8743708978827
 20
36.46226646142983
 30
0.0
  0
SPLINE
  5
368
330
1F
100
AcDbEntity
  8
0
  6
Continuous
 62
     7
370
    15
100
AcDbSpline
210
0.0
220
0.0
230
1.0
 70
    24
 71
     3
 72
     9
 73
     5
 74
     0
 42
0.00000001
 43
0.00000001
 40
0.0
 40
0.0
 40
0.0
 40
0.0
 40
0.499979764122491
 40
1.0
 40
1.0
 40
1.0
 40
1.0
 10
384.0136328588659
 20
81.77700312572503
 30
0.0
 10
384.0136328588659
 20
81.72934646406351
 30
0.0
 10
384.013632858866
 20
81.63402928308686
 30
0.0
 10
384.0136328588659
 20
81.51909631130054
 30
0.0
 10
384.0136328588659
 20
81.46162749963784
 30
0.0
  0
SPLINE
  5
369
330
1F
100
AcDbEntity
  8
0
  6
Continuous
 62
     7
370
    15
100
AcDbSpline
210
0.0
220
0.0
230
1.0
 70
     8
 71
     3
 72
    11
 73
     7
 74
     0
 42
0.00000001
 43
0.00000001
 40
0.0
 40
0.0
 40
0.0
 40
0.0
 40
0.2796376916759565
 40
0.5592699300005486
 40
0.7796340715365582
 40
1.0
 40
1.0
 40
1.0
 40
1.0
 10
382.5642341624434
 20
82.72288599747205
 30
0.0
 10
382.7785722347668
 20
82.70123778031277
 30
0.0
 10
383.2072441995023
 20
82.65794176816667
 30
0.0
 10
383.6811901025911
 20
82.40444587290706
 30
0.0
 10
383.9634990530166
 20
82.09740763761481
 30
0.0
 10
383.9969215450794
 20
81.88380491837033
 30
0.0
 10
384.0136328588659
 20
81.77700312572503
 30
0.0
  0
SPLINE
  5
36A
330
1F
100
AcDbEntity
  8
0
  6
Continuous
 62
     7
370
    15
100
AcDbSpline
210
0.0
220
0.0
230
1.0
 70
    24
 71
     3
 72
     9
 73
     5
 74
     0
 42
0.00000001
 43
0.00000001
 40
0.0
 40
0.0
 40
0.0
 40
0.0
 40
0.499979764122491
 40
1.0
 40
1.0
 40
1.0
 40
1.0
 10
215.4136398683722
 20
36.14689083534265
 30
0.0
 10
215.4136398683722
 20
36.19454749700418
 30
0.0
 10
215.4136398683722
 20
36.28986467798083
 30
0.0
 10
215.4136398683722
 20
36.40479764976715
 30
0.0
 10
215.4136398683722
 20
36.46226646142984
 30
0.0
  0
SPLINE
  5
36B
330
1F
100
AcDbEntity
  8
0
  6
Continuous
 62
     7
370
    15
100
AcDbSpline
210
0.0
220
0.0
230
1.0
 70
     8
 71
     3
 72
    11
 73
     7
 74
     0
 42
0.00000001
 43
0.00000001
 40
0.0
 40
0.0
 40
0.0
 40
0.0
 40
0.2796376916759565
 40
0.5592699300005486
 40
0.7796340715365582
 40
1.0
 40
1.0
 40
1.0
 40
1.0
 10
216.8630385647948
 20
35.20100796359563
 30
0.0
 10
216.6487004924713
 20
35.22265618075492
 30
0.0
 10
216.2200285277359
 20
35.26595219290102
 30
0.0
 10
215.7460826246472
 20
35.51944808816062
 30
0.0
 10
215.4637736742216
 20
35.82648632345288
 30
0.0
 10
215.4303511821589
 20
36.04008904269736
 30
0.0
 10
215.4136398683722
 20
36.14689083534265
 30
0.0
  0
SPLINE
  5
36C
330
1F
100
AcDbEntity
  8
0
  6
Continuous
 62
     7
370
    15
100
AcDbSpline
210
0.0
220
0.0
230
1.0
 70
    24
 71
     3
 72
     9
 73
     5
 74
     0
 42
0.00000001
 43
0.00000001
 40
0.0
 40
0.0
 40
0.0
 40
0.0
 40
0.5000202358775091
 40
1.0
 40
1.0
 40
1.0
 40
1.0
 10
384.0136328588659
 20
36.46226646142984
 30
0.0
 10
384.0136328588659
 20
36.40479764976715
 30
0.0
 10
384.0136328588659
 20
36.28986467798084
 30
0.0
 10
384.0136328588659
 20
36.19454749700418
 30
0.0
 10
384.0136328588659
 20
36.14689083534265
 30
0.0
  0
SPLINE
  5
36D
330
1F
100
AcDbEntity
  8
0
  6
Continuous
 62
     7
370
    15
100
AcDbSpline
210
0.0
220
0.0
230
1.0
 70
     8
 71
     3
 72
    11
 73
     7
 74
     0
 42
0.00000001
 43
0.00000001
 40
0.0
 40
0.0
 40
0.0
 40
0.0
 40
0.2796376916759565
 40
0.5592699300005486
 40
0.7796340715365582
 40
1.0
 40
1.0
 40
1.0
 40
1.0
 10
382.5642341624434
 20
35.20100796359563
 30
0.0
 10
382.7785722347668
 20
35.22265618075492
 30
0.0
 10
383.2072441995023
 20
35.26595219290102
 30
0.0
 10
383.6811901025911
 20
35.51944808816062
 30
0.0
 10
383.9634990530166
 20
35.82648632345288
 30
0.0
 10
383.9969215450794
 20
36.04008904269736
 30
0.0
 10
384.0136328588659
 20
36.14689083534265
 30
0.0
  0
SPLINE
  5
36E
330
1F
100
AcDbEntity
  8
0
  6
Continuous
 62
     7
370
    15
100
AcDbSpline
210
0.0
220
0.0
230
1.0
 70
    24
 71
     3
 72
     9
 73
     5
 74
     0
 42
0.00000001
 43
0.00000001
 40
0.0
 40
0.0
 40
0.0
 40
0.0
 40
0.5000202358775091
 40
1.0
 40
1.0
 40
1.0
 40
1.0
 10
215.4136398683722
 20
81.46162749963784
 30
0.0
 10
215.4136398683722
 20
81.51909631130054
 30
0.0
 10
215.4136398683722
 20
81.63402928308686
 30
0.0
 10
215.4136398683722
 20
81.72934646406351
 30
0.0
 10
215.4136398683722
 20
81.77700312572503
 30
0.0
  0
SPLINE
  5
36F
330
1F
100
AcDbEntity
  8
0
  6
Continuous
 62
     7
370
    15
100
AcDbSpline
210
0.0
220
0.0
230
1.0
 70
     8
 71
     3
 72
    11
 73
     7
 74
     0
 42
0.00000001
 43
0.00000001
 40
0.0
 40
0.0
 40
0.0
 40
0.0
 40
0.2796368981982217
 40
0.5592680474900326
 40
0.7796330594060509
 40
1.0
 40
1.0
 40
1.0
 40
1.0
 10
215.4136398683722
 20
81.77700312572503
 30
0.0
 10
215.4406988164144
 20
81.91289277522907
 30
0.0
 10
215.4948161562083
 20
82.18466928055402
 30
0.0
 10
215.880369767745
 20
82.49208020225501
 30
0.0
 10
216.3572027534817
 20
82.68046389818018
 30
0.0
 10
216.6944261357851
 20
82.70874525645428
 30
0.0
 10
216.8630385647948
 20
82.72288599747205
 30
0.0
  0
SPLINE
  5
370
330
1F
100
AcDbEntity
  8
0
  6
Continuous
 62
     7
370
    15
100
AcDbSpline
210
0.0
220
0.0
230
1.0
 70
     8
 71
     3
 72
    11
 73
     7
 74
     0
 42
0.00000001
 43
0.00000001
 40
0.0
 40
0.0
 40
0.0
 40
0.0
 40
0.2499988483805212
 40
0.5000007746485685
 40
0.7500008222212621
 40
1.0
 40
1.0
 40
1.0
 40
1.0
 10
382.5529018293554
 20
83.41897884148145
 30
0.0
 10
382.7455416928564
 20
83.39270234323668
 30
0.0
 10
383.1308237915645
 20
83.34014902324121
 30
0.0
 10
383.6123623922051
 20
82.99883122276903
 30
0.0
 10
383.9482787478244
 20
82.51862645123695
 30
0.0
 10
383.9918481804498
 20
82.14018517725965
 30
0.0
 10
384.0136328588659
 20
81.95096486943746
 30
0.0
  0
SPLINE
  5
371
330
1F
100
AcDbEntity
  8
0
  6
Continuous
 62
     7
370
    15
100
AcDbSpline
210
0.0
220
0.0
230
1.0
 70
    24
 71
     3
 72
     9
 73
     5
 74
     0
 42
0.00000001
 43
0.00000001
 40
0.0
 40
0.0
 40
0.0
 40
0.0
 40
0.5000581565071025
 40
1.0
 40
1.0
 40
1.0
 40
1.0
 10
384.0136328588659
 20
81.95096486943746
 30
0.0
 10
384.0136328588659
 20
81.93448202990214
 30
0.0
 10
384.013632858866
 20
81.90152018472307
 30
0.0
 10
384.0136328588659
 20
81.81850559349861
 30
0.0
 10
384.0136328588659
 20
81.77700312572503
 30
0.0
  0
SPLINE
  5
372
330
1F
100
AcDbEntity
  8
0
  6
Continuous
 62
     7
370
    15
100
AcDbSpline
210
0.0
220
0.0
230
1.0
 70
     8
 71
     3
 72
    11
 73
     7
 74
     0
 42
0.00000001
 43
0.00000001
 40
0.0
 40
0.0
 40
0.0
 40
0.0
 40
0.2499988483805212
 40
0.5000007746485685
 40
0.7500008222212621
 40
1.0
 40
1.0
 40
1.0
 40
1.0
 10
216.8743708978827
 20
34.50491511958624
 30
0.0
 10
216.6817310343818
 20
34.53119161783101
 30
0.0
 10
216.2964489356737
 20
34.58374493782647
 30
0.0
 10
215.8149103350331
 20
34.92506273829866
 30
0.0
 10
215.4789939794138
 20
35.40526750983074
 30
0.0
 10
215.4354245467884
 20
35.78370878380803
 30
0.0
 10
215.4136398683722
 20
35.97292909163023
 30
0.0
  0
SPLINE
  5
373
330
1F
100
AcDbEntity
  8
0
  6
Continuous
 62
     7
370
    15
100
AcDbSpline
210
0.0
220
0.0
230
1.0
 70
    24
 71
     3
 72
     9
 73
     5
 74
     0
 42
0.00000001
 43
0.00000001
 40
0.0
 40
0.0
 40
0.0
 40
0.0
 40
0.4999418434928976
 40
1.0
 40
1.0
 40
1.0
 40
1.0
 10
215.4136398683722
 20
36.14689083534265
 30
0.0
 10
215.4136398683722
 20
36.10538836756908
 30
0.0
 10
215.4136398683723
 20
36.0223737763446
 30
0.0
 10
215.4136398683722
 20
35.98941193116554
 30
0.0
 10
215.4136398683722
 20
35.97292909163023
 30
0.0
  0
SPLINE
  5
374
330
1F
100
AcDbEntity
  8
0
  6
Continuous
 62
     7
370
    15
100
AcDbSpline
210
0.0
220
0.0
230
1.0
 70
    24
 71
     3
 72
     9
 73
     5
 74
     0
 42
0.00000001
 43
0.00000001
 40
0.0
 40
0.0
 40
0.0
 40
0.0
 40
0.4999418434928976
 40
1.0
 40
1.0
 40
1.0
 40
1.0
 10
384.0136328588659
 20
36.14689083534265
 30
0.0
 10
384.013632858866
 20
36.10538836756908
 30
0.0
 10
384.0136328588659
 20
36.0223737763446
 30
0.0
 10
384.013632858866
 20
35.98941193116554
 30
0.0
 10
384.0136328588659
 20
35.97292909163023
 30
0.0
  0
SPLINE
  5
375
330
1F
100
AcDbEntity
  8
0
  6
Continuous
 62
     7
370
    15
100
AcDbSpline
210
0.0
220
0.0
230
1.0
 70
     8
 71
     3
 72
    11
 73
     7
 74
     0
 42
0.00000001
 43
0.00000001
 40
0.0
 40
0.0
 40
0.0
 40
0.0
 40
0.249999177778738
 40
0.4999992253514315
 40
0.7500011516194789
 40
1.0
 40
1.0
 40
1.0
 40
1.0
 10
384.0136328588659
 20
35.97292909163023
 30
0.0
 10
383.9918481804498
 20
35.78370878380802
 30
0.0
 10
383.9482787478244
 20
35.40526750983074
 30
0.0
 10
383.6123623922051
 20
34.92506273829866
 30
0.0
 10
383.1308237915645
 20
34.58374493782647
 30
0.0
 10
382.7455416928564
 20
34.53119161783101
 30
0.0
 10
382.5529018293554
 20
34.50491511958624
 30
0.0
  0
SPLINE
  5
376
330
1F
100
AcDbEntity
  8
0
  6
Continuous
 62
     7
370
    15
100
AcDbSpline
210
0.0
220
0.0
230
1.0
 70
    24
 71
     3
 72
     9
 73
     5
 74
     0
 42
0.00000001
 43
0.00000001
 40
0.0
 40
0.0
 40
0.0
 40
0.0
 40
0.4999418434928976
 40
1.0
 40
1.0
 40
1.0
 40
1.0
 10
215.4136398683722
 20
81.77700312572503
 30
0.0
 10
215.4136398683722
 20
81.81850559349861
 30
0.0
 10
215.4136398683723
 20
81.90152018472307
 30
0.0
 10
215.4136398683722
 20
81.93448202990214
 30
0.0
 10
215.4136398683722
 20
81.95096486943746
 30
0.0
  0
SPLINE
  5
377
330
1F
100
AcDbEntity
  8
0
  6
Continuous
 62
     7
370
    15
100
AcDbSpline
210
0.0
220
0.0
230
1.0
 70
     8
 71
     3
 72
    11
 73
     7
 74
     0
 42
0.00000001
 43
0.00000001
 40
0.0
 40
0.0
 40
0.0
 40
0.0
 40
0.249999177778738
 40
0.4999992253514315
 40
0.7500011516194789
 40
1.0
 40
1.0
 40
1.0
 40
1.0
 10
215.4136398683722
 20
81.95096486943746
 30
0.0
 10
215.4354245467884
 20
82.14018517725965
 30
0.0
 10
215.4789939794138
 20
82.51862645123695
 30
0.0
 10
215.8149103350331
 20
82.99883122276903
 30
0.0
 10
216.2964489356737
 20
83.34014902324121
 30
0.0
 10
216.6817310343818
 20
83.39270234323668
 30
0.0
 10
216.8743708978827
 20
83.41897884148145
 30
0.0
  0
LINE
  5
378
330
1F
100
AcDbEntity
  8
0
  6
Continuous
 62
     7
370
    15
100
AcDbLine
 10
376.7136359464
 20
90.0326115056
 30
0.0
 11
222.7136367809
 21
90.0326115056
 31
0.0
  0
LINE
  5
379
330
1F
100
AcDbEntity
  8
0
  6
Continuous
 62
     7
370
    15
100
AcDbLine
 10
222.7136367809
 20
90.0326115056
 30
0.0
 11
222.7136367809
 21
83.8003032817
 31
0.0
  0
LINE
  5
37A
330
1F
100
AcDbEntity
  8
0
  6
Continuous
 62
     7
370
    15
100
AcDbLine
 10
376.7136359464
 20
90.0326115056
 30
0.0
 11
376.7136359464
 21
83.8003032817
 31
0.0
  0
LINE
  5
37B
330
1F
100
AcDbEntity
  8
0
  6
Continuous
 62
     7
370
    15
100
AcDbLine
 10
222.7136367809
 20
30.4916766449
 30
0.0
 11
376.7136359464
 21
30.4916766449
 31
0.0
  0
LINE
  5
37C
330
1F
100
AcDbEntity
  8
0
  6
Continuous
 62
     7
370
    15
100
AcDbLine
 10
222.7136367809
 20
34.1235906793
 30
0.0
 11
222.7136367809
 21
30.4916766449
 31
0.0
  0
LINE
  5
37D
330
1F
100
AcDbEntity
  8
0
  6
Continuous
 62
     7
370
    15
100
AcDbLine
 10
376.7136359464
 20
34.1235906793
 30
0.0
 11
376.7136359464
 21
30.4916766449
 31
0.0
  0
LINE
  5
37E
330
1F
100
AcDbEntity
  8
0
  6
Continuous
 62
     7
370
    15
100
AcDbLine
 10
376.7136359464
 20
89.5909019722
 30
0.0
 11
382.5529018294
 21
89.4412049069
 31
0.0
  0
LINE
  5
37F
330
1F
100
AcDbEntity
  8
0
  6
Continuous
 62
     7
370
    15
100
AcDbLine
 10
382.5529018294
 20
85.0071539147
 30
0.0
 11
382.5529018294
 21
89.4412049069
 31
0.0
  0
SPLINE
  5
380
330
1F
100
AcDbEntity
  8
0
  6
Continuous
 62
     7
370
    15
100
AcDbSpline
210
0.0
220
0.0
230
1.0
 70
     8
 71
     3
 72
     9
 73
     5
 74
     0
 42
0.00000001
 43
0.00000001
 40
0.0
 40
0.0
 40
0.0
 40
0.0
 40
0.3935754048000664
 40
1.0
 40
1.0
 40
1.0
 40
1.0
 10
379.0136376272376
 20
85.0725439353564
 30
0.0
 10
379.478039311372
 20
85.06349479371167
 30
0.0
 10
380.657995371813
 20
85.04050265158494
 30
0.0
 10
381.8375754549396
 20
85.01974304859014
 30
0.0
 10
382.5529018293555
 20
85.0071539147475
 30
0.0
  0
LINE
  5
381
330
1F
100
AcDbEntity
  8
0
  6
Continuous
 62
     7
370
    15
100
AcDbLine
 10
379.0136376272
 20
84.1542729153
 30
0.0
 11
379.0136376272
 21
85.0725439354
 31
0.0
  0
SPLINE
  5
382
330
1F
100
AcDbEntity
  8
0
  6
Continuous
 62
     7
370
    15
100
AcDbSpline
210
0.0
220
0.0
230
1.0
 70
     8
 71
     3
 72
     9
 73
     5
 74
     0
 42
0.00000001
 43
0.00000001
 40
0.0
 40
0.0
 40
0.0
 40
0.0
 40
0.3261576344156082
 40
0.9999999999999999
 40
0.9999999999999999
 40
0.9999999999999999
 40
0.9999999999999999
 10
382.5529018293555
 20
84.0381965948918
 30
0.0
 10
382.1682031508458
 20
84.05130253338511
 30
0.0
 10
380.9887161852899
 20
84.0914853686475
 30
0.0
 10
379.8087493027079
 20
84.12899639593718
 30
0.0
 10
379.0136376272376
 20
84.15427291530158
 30
0.0
  0
LINE
  5
383
330
1F
100
AcDbEntity
  8
0
  6
Continuous
 62
     7
370
    15
100
AcDbLine
 10
382.5529018294
 20
83.4189788415
 30
0.0
 11
382.5529018294
 21
84.0381965949
 31
0.0
  0
LINE
  5
384
330
1F
100
AcDbEntity
  8
0
  6
Continuous
 62
     7
370
    15
100
AcDbLine
 10
379.0136376272
 20
32.8513500257
 30
0.0
 11
379.0136376272
 21
33.7696210458
 31
0.0
  0
SPLINE
  5
385
330
1F
100
AcDbEntity
  8
0
  6
Continuous
 62
     7
370
    15
100
AcDbSpline
210
0.0
220
0.0
230
1.0
 70
     8
 71
     3
 72
     9
 73
     5
 74
     0
 42
0.00000001
 43
0.00000001
 40
0.0
 40
0.0
 40
0.0
 40
0.0
 40
0.3261575386455923
 40
1.0
 40
1.0
 40
1.0
 40
1.0
 10
382.5529018293555
 20
32.91674004632024
 30
0.0
 10
382.1682031234945
 20
32.91012141080291
 30
0.0
 10
380.9887157277454
 20
32.88982865428775
 30
0.0
 10
379.8087491860258
 20
32.86684045231246
 30
0.0
 10
379.0136376272376
 20
32.85135002571133
 30
0.0
  0
LINE
  5
386
330
1F
100
AcDbEntity
  8
0
  6
Continuous
 62
     7
370
    15
100
AcDbLine
 10
382.5529018294
 20
28.4826890542
 30
0.0
 11
382.5529018294
 21
32.9167400463
 31
0.0
  0
LINE
  5
387
330
1F
100
AcDbEntity
  8
0
  6
Continuous
 62
     7
370
    15
100
AcDbLine
 10
382.5529018294
 20
28.4826890542
 30
0.0
 11
376.7136359464
 21
28.3329919888
 31
0.0
  0
LINE
  5
388
330
1F
100
AcDbEntity
  8
0
  6
Continuous
 62
     7
370
    15
100
AcDbLine
 10
382.5529018294
 20
33.8856973662
 30
0.0
 11
382.5529018294
 21
34.5049151196
 31
0.0
  0
SPLINE
  5
389
330
1F
100
AcDbEntity
  8
0
  6
Continuous
 62
     7
370
    15
100
AcDbSpline
210
0.0
220
0.0
230
1.0
 70
     8
 71
     3
 72
     9
 73
     5
 74
     0
 42
0.00000001
 43
0.00000001
 40
0.0
 40
0.0
 40
0.0
 40
0.0
 40
0.3935753824039972
 40
1.0
 40
1.0
 40
1.0
 40
1.0
 10
379.0136376272376
 20
33.76962104576613
 30
0.0
 10
379.4780393199441
 20
33.78438234480139
 30
0.0
 10
380.6579954693099
 20
33.82188799097539
 30
0.0
 10
381.8375754752994
 20
33.86160935387134
 30
0.0
 10
382.5529018293555
 20
33.8856973661759
 30
0.0
  0
LINE
  5
38A
330
1F
100
AcDbEntity
  8
0
  6
Continuous
 62
     7
370
    15
100
AcDbLine
 10
216.8743708979
 20
28.4826890542
 30
0.0
 11
222.7136367809
 21
28.3329919888
 31
0.0
  0
LINE
  5
38B
330
1F
100
AcDbEntity
  8
0
  6
Continuous
 62
     7
370
    15
100
AcDbLine
 10
216.8743708979
 20
32.9167400463
 30
0.0
 11
216.8743708979
 21
28.4826890542
 31
0.0
  0
SPLINE
  5
38C
330
1F
100
AcDbEntity
  8
0
  6
Continuous
 62
     7
370
    15
100
AcDbSpline
210
0.0
220
0.0
230
1.0
 70
     8
 71
     3
 72
     9
 73
     5
 74
     0
 42
0.00000001
 43
0.00000001
 40
0.0
 40
0.0
 40
0.0
 40
0.0
 40
0.3935754048000664
 40
1.0
 40
1.0
 40
1.0
 40
1.0
 10
220.4136351000007
 20
32.85135002571133
 30
0.0
 10
219.9492334158663
 20
32.86039916735607
 30
0.0
 10
218.7692773554253
 20
32.8833913094828
 30
0.0
 10
217.5896972722987
 20
32.9041509124776
 30
0.0
 10
216.8743708978828
 20
32.91674004632024
 30
0.0
  0
LINE
  5
38D
330
1F
100
AcDbEntity
  8
0
  6
Continuous
 62
     7
370
    15
100
AcDbLine
 10
220.4136351
 20
33.7696210458
 30
0.0
 11
220.4136351
 21
32.8513500257
 31
0.0
  0
SPLINE
  5
38E
330
1F
100
AcDbEntity
  8
0
  6
Continuous
 62
     7
370
    15
100
AcDbSpline
210
0.0
220
0.0
230
1.0
 70
     8
 71
     3
 72
     9
 73
     5
 74
     0
 42
0.00000001
 43
0.00000001
 40
0.0
 40
0.0
 40
0.0
 40
0.0
 40
0.3261576344156082
 40
0.9999999999999999
 40
0.9999999999999999
 40
0.9999999999999999
 40
0.9999999999999999
 10
216.8743708978827
 20
33.8856973661759
 30
0.0
 10
217.2590695763924
 20
33.87259142768261
 30
0.0
 10
218.4385565419482
 20
33.83240859242021
 30
0.0
 10
219.6185234245303
 20
33.79489756513052
 30
0.0
 10
220.4136351000006
 20
33.76962104576613
 30
0.0
  0
LINE
  5
38F
330
1F
100
AcDbEntity
  8
0
  6
Continuous
 62
     7
370
    15
100
AcDbLine
 10
216.8743708979
 20
34.5049151196
 30
0.0
 11
216.8743708979
 21
33.8856973662
 31
0.0
  0
LINE
  5
390
330
1F
100
AcDbEntity
  8
0
  6
Continuous
 62
     7
370
    15
100
AcDbLine
 10
220.4136351
 20
85.0725439354
 30
0.0
 11
220.4136351
 21
84.1542729153
 31
0.0
  0
SPLINE
  5
391
330
1F
100
AcDbEntity
  8
0
  6
Continuous
 62
     7
370
    15
100
AcDbSpline
210
0.0
220
0.0
230
1.0
 70
     8
 71
     3
 72
     9
 73
     5
 74
     0
 42
0.00000001
 43
0.00000001
 40
0.0
 40
0.0
 40
0.0
 40
0.0
 40
0.3261575386455923
 40
1.0
 40
1.0
 40
1.0
 40
1.0
 10
216.8743708978828
 20
85.0071539147475
 30
0.0
 10
217.2590696037437
 20
85.01377255026483
 30
0.0
 10
218.4385569994928
 20
85.03406530677998
 30
0.0
 10
219.6185235412124
 20
85.05705350875529
 30
0.0
 10
220.4136351000007
 20
85.0725439353564
 30
0.0
  0
LINE
  5
392
330
1F
100
AcDbEntity
  8
0
  6
Continuous
 62
     7
370
    15
100
AcDbLine
 10
216.8743708979
 20
89.4412049069
 30
0.0
 11
216.8743708979
 21
85.0071539147
 31
0.0
  0
LINE
  5
393
330
1F
100
AcDbEntity
  8
0
  6
Continuous
 62
     7
370
    15
100
AcDbLine
 10
216.8743708979
 20
89.4412049069
 30
0.0
 11
222.7136367809
 21
89.5909019722
 31
0.0
  0
LINE
  5
394
330
1F
100
AcDbEntity
  8
0
  6
Continuous
 62
     7
370
    15
100
AcDbLine
 10
216.8743708979
 20
84.0381965949
 30
0.0
 11
216.8743708979
 21
83.4189788415
 31
0.0
  0
SPLINE
  5
395
330
1F
100
AcDbEntity
  8
0
  6
Continuous
 62
     7
370
    15
100
AcDbSpline
210
0.0
220
0.0
230
1.0
 70
     8
 71
     3
 72
     9
 73
     5
 74
     0
 42
0.00000001
 43
0.00000001
 40
0.0
 40
0.0
 40
0.0
 40
0.0
 40
0.3935753824039972
 40
1.0
 40
1.0
 40
1.0
 40
1.0
 10
220.4136351000006
 20
84.15427291530158
 30
0.0
 10
219.9492334072941
 20
84.13951161626633
 30
0.0
 10
218.7692772579284
 20
84.1020059700923
 30
0.0
 10
217.5896972519388
 20
84.06228460719636
 30
0.0
 10
216.8743708978827
 20
84.0381965948918
 30
0.0
  0
SPLINE
  5
396
330
1F
100
AcDbEntity
  8
0
  6
Continuous
 62
     7
370
    15
100
AcDbSpline
210
0.0
220
0.0
230
1.0
 70
     8
 71
     3
 72
    15
 73
    11
 74
     0
 42
0.00000001
 43
0.00000001
 40
0.0
 40
0.0
 40
0.0
 40
0.0
 40
0.0885158855875776
 40
0.1769411378713458
 40
0.268309683995762
 40
0.3961926676720193
 40
0.5755497359364812
 40
0.8430860882844632
 40
0.9422965510031799
 40
1.0
 40
1.0
 40
1.0
 40
1.0
 10
383.9499974499877
 20
83.02193181353594
 30
0.0
 10
383.9393620514847
 20
83.0650515571913
 30
0.0
 10
383.9181021442905
 20
83.1512468932765
 30
0.0
 10
383.8533764690329
 20
83.31692561610691
 30
0.0
 10
383.7493693624891
 20
83.50251367421123
 30
0.0
 10
383.5739981738576
 20
83.71267338752874
 30
0.0
 10
383.2740727062761
 20
83.92430009885916
 30
0.0
 10
382.960525722166
 20
84.01489586266926
 30
0.0
 10
382.7005106281014
 20
84.03332682033029
 30
0.0
 10
382.5925889113401
 20
84.03688727496025
 30
0.0
 10
382.5529018293555
 20
84.0381965948918
 30
0.0
  0
SPLINE
  5
397
330
1F
100
AcDbEntity
  8
0
  6
Continuous
 62
     7
370
    15
100
AcDbSpline
210
0.0
220
0.0
230
1.0
 70
    24
 71
     1
 72
     4
 73
     2
 74
     0
 42
0.00000001
 43
0.00000001
 40
0.0
 40
0.0
 40
1.0
 40
1.0
 10
384.013632858866
 20
82.4645017250159
 30
0.0
 10
383.9499974499877
 20
83.02193181353594
 30
0.0
  0
LINE
  5
398
330
1F
100
AcDbEntity
  8
0
  6
Continuous
 62
     7
370
    15
100
AcDbLine
 10
384.0136328589
 20
81.9509648694
 30
0.0
 11
384.0136328589
 21
82.464501725
 31
0.0
  0
SPLINE
  5
399
330
1F
100
AcDbEntity
  8
0
  6
Continuous
 62
     7
370
    15
100
AcDbSpline
210
0.0
220
0.0
230
1.0
 70
    24
 71
     1
 72
     4
 73
     2
 74
     0
 42
0.00000001
 43
0.00000001
 40
0.0
 40
0.0
 40
1.0
 40
1.0
 10
383.9499974499877
 20
34.90196214753176
 30
0.0
 10
384.013632858866
 20
35.45939223605181
 30
0.0
  0
SPLINE
  5
39A
330
1F
100
AcDbEntity
  8
0
  6
Continuous
 62
     7
370
    15
100
AcDbSpline
210
0.0
220
0.0
230
1.0
 70
     8
 71
     3
 72
    15
 73
    11
 74
     0
 42
0.00000001
 43
0.00000001
 40
0.0
 40
0.0
 40
0.0
 40
0.0
 40
0.0064135613662394
 40
0.0860676469084287
 40
0.3399063348020275
 40
0.546855600561762
 40
0.6832070465972154
 40
0.7924616111272901
 40
0.9024270327883828
 40
1.0
 40
1.0
 40
1.0
 40
1.0
 10
382.5529018293555
 20
33.8856973661759
 30
0.0
 10
382.557297470264
 20
33.88585125167349
 30
0.0
 10
382.6162853629559
 20
33.88791633874681
 30
0.0
 10
382.8443770944934
 20
33.89494601920144
 30
0.0
 10
383.1522072886648
 20
33.95097419577614
 30
0.0
 10
383.4794120842863
 20
34.13021125138705
 30
0.0
 10
383.6932764297101
 20
34.34411260841398
 30
0.0
 10
383.8281254626049
 20
34.55098007458849
 30
0.0
 10
383.9125738549785
 20
34.75160815498535
 30
0.0
 10
383.9380295860064
 20
34.85387975108103
 30
0.0
 10
383.9499974499877
 20
34.90196214753176
 30
0.0
  0
LINE
  5
39B
330
1F
100
AcDbEntity
  8
0
  6
Continuous
 62
     7
370
    15
100
AcDbLine
 10
384.0136328589
 20
35.4593922361
 30
0.0
 11
384.0136328589
 21
35.9729290916
 31
0.0
  0
SPLINE
  5
39C
330
1F
100
AcDbEntity
  8
0
  6
Continuous
 62
     7
370
    15
100
AcDbSpline
210
0.0
220
0.0
230
1.0
 70
     8
 71
     3
 72
    15
 73
    11
 74
     0
 42
0.00000001
 43
0.00000001
 40
0.0
 40
0.0
 40
0.0
 40
0.0
 40
0.0885158855875776
 40
0.1769411378713458
 40
0.268309683995762
 40
0.3961926676720193
 40
0.5755497359364812
 40
0.8430860882844632
 40
0.9422965510031799
 40
1.0
 40
1.0
 40
1.0
 40
1.0
 10
215.4772752772506
 20
34.90196214753176
 30
0.0
 10
215.4879106757535
 20
34.85884240387641
 30
0.0
 10
215.5091705829478
 20
34.7726470677912
 30
0.0
 10
215.5738962582053
 20
34.60696834496079
 30
0.0
 10
215.6779033647491
 20
34.42138028685647
 30
0.0
 10
215.8532745533806
 20
34.21122057353897
 30
0.0
 10
216.1532000209621
 20
33.99959386220854
 30
0.0
 10
216.4667470050722
 20
33.90899809839844
 30
0.0
 10
216.7267620991369
 20
33.89056714073742
 30
0.0
 10
216.8346838158981
 20
33.88700668610745
 30
0.0
 10
216.8743708978827
 20
33.8856973661759
 30
0.0
  0
SPLINE
  5
39D
330
1F
100
AcDbEntity
  8
0
  6
Continuous
 62
     7
370
    15
100
AcDbSpline
210
0.0
220
0.0
230
1.0
 70
    24
 71
     1
 72
     4
 73
     2
 74
     0
 42
0.00000001
 43
0.00000001
 40
0.0
 40
0.0
 40
1.0
 40
1.0
 10
215.4136398683722
 20
35.45939223605181
 30
0.0
 10
215.4772752772506
 20
34.90196214753176
 30
0.0
  0
LINE
  5
39E
330
1F
100
AcDbEntity
  8
0
  6
Continuous
 62
     7
370
    15
100
AcDbLine
 10
215.4136398684
 20
35.9729290916
 30
0.0
 11
215.4136398684
 21
35.4593922361
 31
0.0
  0
SPLINE
  5
39F
330
1F
100
AcDbEntity
  8
0
  6
Continuous
 62
     7
370
    15
100
AcDbSpline
210
0.0
220
0.0
230
1.0
 70
    24
 71
     1
 72
     4
 73
     2
 74
     0
 42
0.00000001
 43
0.00000001
 40
0.0
 40
0.0
 40
1.0
 40
1.0
 10
215.4772752772506
 20
83.02193181353594
 30
0.0
 10
215.4136398683722
 20
82.4645017250159
 30
0.0
  0
SPLINE
  5
3A0
330
1F
100
AcDbEntity
  8
0
  6
Continuous
 62
     7
370
    15
100
AcDbSpline
210
0.0
220
0.0
230
1.0
 70
     8
 71
     3
 72
    15
 73
    11
 74
     0
 42
0.00000001
 43
0.00000001
 40
0.0
 40
0.0
 40
0.0
 40
0.0
 40
0.0064135613662394
 40
0.0860676469084287
 40
0.3399063348020275
 40
0.546855600561762
 40
0.6832070465972154
 40
0.7924616111272901
 40
0.9024270327883828
 40
1.0
 40
1.0
 40
1.0
 40
1.0
 10
216.8743708978827
 20
84.03819659489182
 30
0.0
 10
216.8699752569743
 20
84.03804270939422
 30
0.0
 10
216.8109873642823
 20
84.0359776223209
 30
0.0
 10
216.5828956327448
 20
84.02894794186628
 30
0.0
 10
216.2750654385734
 20
83.97291976529156
 30
0.0
 10
215.9478606429519
 20
83.79368270968065
 30
0.0
 10
215.7339962975282
 20
83.57978135265373
 30
0.0
 10
215.5991472646333
 20
83.37291388647921
 30
0.0
 10
215.5146988722597
 20
83.17228580608236
 30
0.0
 10
215.4892431412319
 20
83.07001420998668
 30
0.0
 10
215.4772752772506
 20
83.02193181353594
 30
0.0
  0
LINE
  5
3A1
330
1F
100
AcDbEntity
  8
0
  6
Continuous
 62
     7
370
    15
100
AcDbLine
 10
215.4136398684
 20
82.464501725
 30
0.0
 11
215.4136398684
 21
81.9509648694
 31
0.0
  0
SPLINE
  5
3A2
330
1F
100
AcDbEntity
  8
0
  6
Continuous
 62
     7
370
    15
100
AcDbSpline
210
0.0
220
0.0
230
1.0
 70
    24
 71
     1
 72
     4
 73
     2
 74
     0
 42
0.00000001
 43
0.00000001
 40
0.0
 40
0.0
 40
1.0
 40
1.0
 10
383.9499974499877
 20
83.93380464750317
 30
0.0
 10
384.013632858866
 20
83.64482270318058
 30
0.0
  0
LINE
  5
3A3
330
1F
100
AcDbEntity
  8
0
  6
Continuous
 62
     7
370
    15
100
AcDbLine
 10
384.0136328589
 20
83.6448227032
 30
0.0
 11
384.0136328589
 21
82.4619461759
 31
0.0
  0
LINE
  5
3A4
330
1F
100
AcDbEntity
  8
0
  6
Continuous
 62
     7
370
    15
100
AcDbLine
 10
384.0136328589
 20
76.461947055
 30
0.0
 11
384.0136328589
 21
74.7873433842
 31
0.0
  0
SPLINE
  5
3A5
330
1F
100
AcDbEntity
  8
0
  6
Continuous
 62
     7
370
    15
100
AcDbSpline
210
0.0
220
0.0
230
1.0
 70
    24
 71
     1
 72
     4
 73
     2
 74
     0
 42
0.00000001
 43
0.00000001
 40
0.0
 40
0.0
 40
1.0
 40
1.0
 10
215.4136398683723
 20
83.64482270318058
 30
0.0
 10
215.4772752772506
 20
83.93380464750317
 30
0.0
  0
LINE
  5
3A6
330
1F
100
AcDbEntity
  8
0
  6
Continuous
 62
     7
370
    15
100
AcDbLine
 10
215.4136398684
 20
74.7873433842
 30
0.0
 11
215.4136398684
 21
76.461947055
 31
0.0
  0
LINE
  5
3A7
330
1F
100
AcDbEntity
  8
0
  6
Continuous
 62
     7
370
    15
100
AcDbLine
 10
215.4136398684
 20
82.4619461759
 30
0.0
 11
215.4136398684
 21
83.6448227032
 31
0.0
  0
SPLINE
  5
3A8
330
1F
100
AcDbEntity
  8
0
  6
Continuous
 62
     7
370
    15
100
AcDbSpline
210
0.0
220
0.0
230
1.0
 70
    24
 71
     1
 72
     4
 73
     2
 74
     0
 42
0.00000001
 43
0.00000001
 40
0.0
 40
0.0
 40
1.0
 40
1.0
 10
384.013632858866
 20
34.27907125788716
 30
0.0
 10
383.9499974499877
 20
33.99008931356457
 30
0.0
  0
LINE
  5
3A9
330
1F
100
AcDbEntity
  8
0
  6
Continuous
 62
     7
370
    15
100
AcDbLine
 10
384.0136328589
 20
43.1365505769
 30
0.0
 11
384.0136328589
 21
41.461946906
 31
0.0
  0
LINE
  5
3AA
330
1F
100
AcDbEntity
  8
0
  6
Continuous
 62
     7
370
    15
100
AcDbLine
 10
384.0136328589
 20
35.4619477852
 30
0.0
 11
384.0136328589
 21
34.2790712579
 31
0.0
  0
SPLINE
  5
3AB
330
1F
100
AcDbEntity
  8
0
  6
Continuous
 62
     7
370
    15
100
AcDbSpline
210
0.0
220
0.0
230
1.0
 70
    24
 71
     1
 72
     4
 73
     2
 74
     0
 42
0.00000001
 43
0.00000001
 40
0.0
 40
0.0
 40
1.0
 40
1.0
 10
215.4772752772506
 20
33.99008931356457
 30
0.0
 10
215.4136398683723
 20
34.27907125788716
 30
0.0
  0
LINE
  5
3AC
330
1F
100
AcDbEntity
  8
0
  6
Continuous
 62
     7
370
    15
100
AcDbLine
 10
215.4136398684
 20
34.2790712579
 30
0.0
 11
215.4136398684
 21
35.4619477852
 31
0.0
  0
LINE
  5
3AD
330
1F
100
AcDbEntity
  8
0
  6
Continuous
 62
     7
370
    15
100
AcDbLine
 10
215.4136398684
 20
41.461946906
 30
0.0
 11
215.4136398684
 21
43.1365505769
 31
0.0
  0
SPLINE
  5
3AE
330
1F
100
AcDbEntity
  8
0
  6
Continuous
 62
     7
370
    15
100
AcDbSpline
210
0.0
220
0.0
230
1.0
 70
     8
 71
     3
 72
    15
 73
    11
 74
     0
 42
0.00000001
 43
0.00000001
 40
0.0
 40
0.0
 40
0.0
 40
0.0
 40
0.0717201582935023
 40
0.2907709821802957
 40
0.5089958934196105
 40
0.6521923107853275
 40
0.7677916785516988
 40
0.8640154389358167
 40
0.960567909604767
 40
1.0
 40
1.0
 40
1.0
 40
1.0
 10
382.5529018293555
 20
85.0071539147475
 30
0.0
 10
382.6019246502713
 20
85.00303801149843
 30
0.0
 10
382.8006751009968
 20
84.98635113769937
 30
0.0
 10
383.0936670042803
 20
84.86378739055303
 30
0.0
 10
383.4181826126475
 20
84.65183870643439
 30
0.0
 10
383.6520965359126
 20
84.41685990337147
 30
0.0
 10
383.7963159273605
 20
84.22299163399236
 30
0.0
 10
383.8877304352195
 20
84.06506815023417
 30
0.0
 10
383.9311500966078
 20
83.97271716228954
 30
0.0
 10
383.9457607339405
 20
83.94255183192264
 30
0.0
 10
383.9499974499877
 20
83.93380464750317
 30
0.0
  0
SPLINE
  5
3AF
330
1F
100
AcDbEntity
  8
0
  6
Continuous
 62
     7
370
    15
100
AcDbSpline
210
0.0
220
0.0
230
1.0
 70
     8
 71
     3
 72
    15
 73
    11
 74
     0
 42
0.00000001
 43
0.00000001
 40
0.0
 40
0.0
 40
0.0
 40
0.0
 40
0.0717201582935023
 40
0.2907709821802957
 40
0.5089958934196105
 40
0.6521923107853275
 40
0.7677916785516988
 40
0.8640154389358167
 40
0.960567909604767
 40
1.0
 40
1.0
 40
1.0
 40
1.0
 10
382.5529018293555
 20
32.91674004632024
 30
0.0
 10
382.6019246502713
 20
32.92085594956931
 30
0.0
 10
382.8006751009968
 20
32.93754282336837
 30
0.0
 10
383.0936670042803
 20
33.0601065705147
 30
0.0
 10
383.4181826126475
 20
33.27205525463334
 30
0.0
 10
383.6520965359126
 20
33.50703405769627
 30
0.0
 10
383.7963159273605
 20
33.70090232707537
 30
0.0
 10
383.8877304352195
 20
33.85882581083358
 30
0.0
 10
383.9311500966078
 20
33.9511767987782
 30
0.0
 10
383.9457607339405
 20
33.9813421291451
 30
0.0
 10
383.9499974499877
 20
33.99008931356457
 30
0.0
  0
SPLINE
  5
3B0
330
1F
100
AcDbEntity
  8
0
  6
Continuous
 62
     7
370
    15
100
AcDbSpline
210
0.0
220
0.0
230
1.0
 70
     8
 71
     3
 72
    15
 73
    11
 74
     0
 42
0.00000001
 43
0.00000001
 40
0.0
 40
0.0
 40
0.0
 40
0.0
 40
0.0717201582935023
 40
0.2907709821802957
 40
0.5089958934196105
 40
0.6521923107853275
 40
0.7677916785516988
 40
0.8640154389358167
 40
0.960567909604767
 40
1.0
 40
1.0
 40
1.0
 40
1.0
 10
216.8743708978828
 20
32.91674004632024
 30
0.0
 10
216.8253480769669
 20
32.92085594956931
 30
0.0
 10
216.6265976262414
 20
32.93754282336837
 30
0.0
 10
216.3336057229579
 20
33.0601065705147
 30
0.0
 10
216.0090901145908
 20
33.27205525463334
 30
0.0
 10
215.7751761913257
 20
33.50703405769627
 30
0.0
 10
215.6309567998778
 20
33.70090232707537
 30
0.0
 10
215.5395422920188
 20
33.85882581083358
 30
0.0
 10
215.4961226306305
 20
33.9511767987782
 30
0.0
 10
215.4815119932978
 20
33.9813421291451
 30
0.0
 10
215.4772752772506
 20
33.99008931356457
 30
0.0
  0
SPLINE
  5
3B1
330
1F
100
AcDbEntity
  8
0
  6
Continuous
 62
     7
370
    15
100
AcDbSpline
210
0.0
220
0.0
230
1.0
 70
     8
 71
     3
 72
    15
 73
    11
 74
     0
 42
0.00000001
 43
0.00000001
 40
0.0
 40
0.0
 40
0.0
 40
0.0
 40
0.0717201582935023
 40
0.2907709821802957
 40
0.5089958934196105
 40
0.6521923107853275
 40
0.7677916785516988
 40
0.8640154389358167
 40
0.960567909604767
 40
1.0
 40
1.0
 40
1.0
 40
1.0
 10
216.8743708978828
 20
85.0071539147475
 30
0.0
 10
216.8253480769669
 20
85.00303801149843
 30
0.0
 10
216.6265976262414
 20
84.98635113769937
 30
0.0
 10
216.3336057229579
 20
84.86378739055303
 30
0.0
 10
216.0090901145908
 20
84.65183870643439
 30
0.0
 10
215.7751761913257
 20
84.41685990337147
 30
0.0
 10
215.6309567998778
 20
84.22299163399236
 30
0.0
 10
215.5395422920188
 20
84.06506815023417
 30
0.0
 10
215.4961226306305
 20
83.97271716228954
 30
0.0
 10
215.4815119932978
 20
83.94255183192264
 30
0.0
 10
215.4772752772506
 20
83.93380464750317
 30
0.0
  0
ARC
  5
3B2
330
1F
100
AcDbEntity
  8
0
  6
Continuous
 62
     7
370
    15
100
AcDbCircle
 10
382.5301849207
 20
29.966042377
 30
0.0
 40
1.483527262361014
100
AcDbArc
 50
270.8773912659
 51
359.4074915447
  0
LINE
  5
3B3
330
1F
100
AcDbEntity
  8
0
  6
Continuous
 62
     7
370
    15
100
AcDbLine
 10
384.0136328589
 20
29.9507011636
 30
0.0
 11
384.0136328589
 21
34.2790712579
 31
0.0
  0
ARC
  5
3B4
330
1F
100
AcDbEntity
  8
0
  6
Continuous
 62
     7
370
    15
100
AcDbCircle
 10
382.5301849207
 20
87.9578515841
 30
0.0
 40
1.483527262361015
100
AcDbArc
 50
0.5925084553
 51
89.1226087341
  0
LINE
  5
3B5
330
1F
100
AcDbEntity
  8
0
  6
Continuous
 62
     7
370
    15
100
AcDbLine
 10
384.0136328589
 20
83.6448227032
 30
0.0
 11
384.0136328589
 21
87.9731927975
 31
0.0
  0
ARC
  5
3B6
330
1F
100
AcDbEntity
  8
0
  6
Continuous
 62
     7
370
    15
100
AcDbCircle
 10
216.8970878066
 20
87.9578515841
 30
0.0
 40
1.483527262361043
100
AcDbArc
 50
90.8773912659
 51
179.4074915447
  0
LINE
  5
3B7
330
1F
100
AcDbEntity
  8
0
  6
Continuous
 62
     7
370
    15
100
AcDbLine
 10
215.4136398684
 20
87.9731927975
 30
0.0
 11
215.4136398684
 21
83.6448227032
 31
0.0
  0
ARC
  5
3B8
330
1F
100
AcDbEntity
  8
0
  6
Continuous
 62
     7
370
    15
100
AcDbCircle
 10
216.8970878066
 20
29.966042377
 30
0.0
 40
1.483527262361043
100
AcDbArc
 50
180.5925084553
 51
269.1226087341
  0
LINE
  5
3B9
330
1F
100
AcDbEntity
  8
0
  6
Continuous
 62
     7
370
    15
100
AcDbLine
 10
215.4136398684
 20
34.2790712579
 30
0.0
 11
215.4136398684
 21
29.9507011636
 31
0.0
  0
LINE
  5
3BA
330
1F
100
AcDbEntity
  8
0
  6
Continuous
 62
     7
370
    15
100
AcDbLine
 10
222.7136367809
 20
26.038092093
 30
0.0
 11
376.7136359464
 21
26.038092093
 31
0.0
  0
LINE
  5
3BB
330
1F
100
AcDbEntity
  8
0
  6
Continuous
 62
     7
370
    15
100
AcDbLine
 10
222.7136367809
 20
30.4916766449
 30
0.0
 11
222.7136367809
 21
26.038092093
 31
0.0
  0
LINE
  5
3BC
330
1F
100
AcDbEntity
  8
0
  6
Continuous
 62
     7
370
    15
100
AcDbLine
 10
376.7136359464
 20
30.4916766449
 30
0.0
 11
376.7136359464
 21
26.038092093
 31
0.0
  0
LINE
  5
3BD
330
1F
100
AcDbEntity
  8
0
  6
Continuous
 62
     7
370
    15
100
AcDbLine
 10
376.7136359464
 20
19.7876361175
 30
0.0
 11
222.7136367809
 21
19.7876361175
 31
0.0
  0
LINE
  5
3BE
330
1F
100
AcDbEntity
  8
0
  6
Continuous
 62
     7
370
    15
100
AcDbLine
 10
222.7136367809
 20
26.038092093
 30
0.0
 11
222.7136367809
 21
19.7876361175
 31
0.0
  0
LINE
  5
3BF
330
1F
100
AcDbEntity
  8
0
  6
Continuous
 62
     7
370
    15
100
AcDbLine
 10
376.7136359464
 20
26.038092093
 30
0.0
 11
376.7136359464
 21
19.7876361175
 31
0.0
  0
LINE
  5
3C0
330
1F
100
AcDbEntity
  8
0
  6
Continuous
 62
     7
370
    15
100
AcDbLine
 10
222.7136367809
 20
17.961945848
 30
0.0
 11
376.7136359464
 21
17.961945848
 31
0.0
  0
LINE
  5
3C1
330
1F
100
AcDbEntity
  8
0
  6
Continuous
 62
     7
370
    15
100
AcDbLine
 10
222.7136367809
 20
19.7876361175
 30
0.0
 11
222.7136367809
 21
17.961945848
 31
0.0
  0
LINE
  5
3C2
330
1F
100
AcDbEntity
  8
0
  6
Continuous
 62
     7
370
    15
100
AcDbLine
 10
376.7136359464
 20
19.7876361175
 30
0.0
 11
376.7136359464
 21
17.961945848
 31
0.0
  0
LINE
  5
3C3
330
1F
100
AcDbEntity
  8
0
  6
Continuous
 62
     7
370
    15
100
AcDbLine
 10
208.6136365186
 20
64.8119468218
 30
0.0
 11
208.6136365186
 21
53.1119471392
 31
0.0
  0
SPLINE
  5
3C4
330
1F
100
AcDbEntity
  8
0
  6
Continuous
 62
     7
370
    15
100
AcDbSpline
210
0.0
220
0.0
230
1.0
 70
     8
 71
     3
 72
    10
 73
     6
 74
     0
 42
0.00000001
 43
0.00000001
 40
0.0
 40
0.0
 40
0.0
 40
0.0
 40
0.335146639082404
 40
0.6788482432802816
 40
1.0
 40
1.0
 40
1.0
 40
1.0
 10
209.3856358777221
 20
64.55976981434023
 30
0.0
 10
209.2199421452655
 20
64.72927367260672
 30
0.0
 10
208.8843251762019
 20
65.07260815069814
 30
0.0
 10
208.8951195884172
 20
65.59236321155936
 30
0.0
 10
209.2258698022809
 20
65.92844557027244
 30
0.0
 10
209.3856358777222
 20
66.09078729289568
 30
0.0
  0
SPLINE
  5
3C5
330
1F
100
AcDbEntity
  8
0
  6
Continuous
 62
     7
370
    15
100
AcDbSpline
210
0.0
220
0.0
230
1.0
 70
     8
 71
     3
 72
    10
 73
     6
 74
     0
 42
0.00000001
 43
0.00000001
 40
0.0
 40
0.0
 40
0.0
 40
0.0
 40
0.3599234051847547
 40
0.7307468729942117
 40
1.0
 40
1.0
 40
1.0
 40
1.0
 10
209.3856358777221
 20
57.43092973480913
 30
0.0
 10
209.2096539235237
 20
58.27928018584647
 30
0.0
 10
208.8523605080875
 20
60.00167286820214
 30
0.0
 10
208.9228372295944
 20
62.42339756899999
 30
0.0
 10
209.2486008944897
 20
63.92718859137712
 30
0.0
 10
209.3856358777221
 20
64.55976981434023
 30
0.0
  0
SPLINE
  5
3C6
330
1F
100
AcDbEntity
  8
0
  6
Continuous
 62
     7
370
    15
100
AcDbSpline
210
0.0
220
0.0
230
1.0
 70
     8
 71
     3
 72
    10
 73
     6
 74
     0
 42
0.00000001
 43
0.00000001
 40
0.0
 40
0.0
 40
0.0
 40
0.0
 40
0.3599231800570013
 40
0.7307461979050449
 40
1.0
 40
1.0
 40
1.0
 40
1.0
 10
209.3856358777221
 20
51.83310666817223
 30
0.0
 10
209.2096538585037
 20
52.49926172263013
 30
0.0
 10
208.8523604176558
 20
53.851745530934
 30
0.0
 10
208.9228379360046
 20
55.75337690394866
 30
0.0
 10
209.2486008957374
 20
56.9342044877125
 30
0.0
 10
209.3856358777221
 20
57.43092973480913
 30
0.0
  0
SPLINE
  5
3C7
330
1F
100
AcDbEntity
  8
0
  6
Continuous
 62
     7
370
    15
100
AcDbSpline
210
0.0
220
0.0
230
1.0
 70
    24
 71
     1
 72
     4
 73
     2
 74
     0
 42
0.00000001
 43
0.00000001
 40
0.0
 40
0.0
 40
1.0
 40
1.0
 10
208.9818367611107
 20
52.3223434551338
 30
0.0
 10
209.3856358777221
 20
51.83310666817223
 30
0.0
  0
LINE
  5
3C8
330
1F
100
AcDbEntity
  8
0
  6
Continuous
 62
     7
370
    15
100
AcDbLine
 10
209.3856358777
 20
57.4309297348
 30
0.0
 11
214.6416405092
 21
57.4309298512
 31
0.0
  0
LINE
  5
3C9
330
1F
100
AcDbEntity
  8
0
  6
Continuous
 62
     7
370
    15
100
AcDbLine
 10
209.3856358777
 20
64.5597698143
 30
0.0
 11
214.6416405092
 21
64.5597698143
 31
0.0
  0
SPLINE
  5
3CA
330
1F
100
AcDbEntity
  8
0
  6
Continuous
 62
     7
370
    15
100
AcDbSpline
210
0.0
220
0.0
230
1.0
 70
     8
 71
     3
 72
    10
 73
     6
 74
     0
 42
0.00000001
 43
0.00000001
 40
0.0
 40
0.0
 40
0.0
 40
0.0
 40
0.3599234504017276
 40
0.7307469740515974
 40
1.0
 40
1.0
 40
1.0
 40
1.0
 10
214.6416405092415
 20
64.55976981434023
 30
0.0
 10
214.8176235368179
 20
63.71141933872534
 30
0.0
 10
215.1749191360417
 20
61.98902658465812
 30
0.0
 10
215.1044272341584
 20
59.56730319159693
 30
0.0
 10
214.7786719326148
 20
58.0635112627605
 30
0.0
 10
214.6416405092415
 20
57.43092985122446
 30
0.0
  0
LINE
  5
3CB
330
1F
100
AcDbEntity
  8
0
  6
Continuous
 62
     7
370
    15
100
AcDbLine
 10
390.8136362086
 20
53.1119471392
 30
0.0
 11
390.8136362086
 21
64.8119468218
 31
0.0
  0
SPLINE
  5
3CC
330
1F
100
AcDbEntity
  8
0
  6
Continuous
 62
     7
370
    15
100
AcDbSpline
210
0.0
220
0.0
230
1.0
 70
     8
 71
     3
 72
    10
 73
     6
 74
     0
 42
0.00000001
 43
0.00000001
 40
0.0
 40
0.0
 40
0.0
 40
0.0
 40
0.335146639082404
 40
0.6788482432802816
 40
1.0
 40
1.0
 40
1.0
 40
1.0
 10
390.0416368495162
 20
53.36412414672766
 30
0.0
 10
390.2073305819729
 20
53.19462028846116
 30
0.0
 10
390.5429475510366
 20
52.85128581036976
 30
0.0
 10
390.5321531388212
 20
52.33153074950856
 30
0.0
 10
390.2014029249575
 20
51.99544839079549
 30
0.0
 10
390.0416368495163
 20
51.83310666817225
 30
0.0
  0
SPLINE
  5
3CD
330
1F
100
AcDbEntity
  8
0
  6
Continuous
 62
     7
370
    15
100
AcDbSpline
210
0.0
220
0.0
230
1.0
 70
     8
 71
     3
 72
    10
 73
     6
 74
     0
 42
0.00000001
 43
0.00000001
 40
0.0
 40
0.0
 40
0.0
 40
0.0
 40
0.3599234051847547
 40
0.7307468729942117
 40
1.0
 40
1.0
 40
1.0
 40
1.0
 10
390.0416368495162
 20
60.49296422625873
 30
0.0
 10
390.2176188037146
 20
59.6446137752214
 30
0.0
 10
390.5749122191509
 20
57.92222109286573
 30
0.0
 10
390.504435497644
 20
55.50049639206789
 30
0.0
 10
390.1786718327487
 20
53.99670536969075
 30
0.0
 10
390.0416368495162
 20
53.36412414672766
 30
0.0
  0
SPLINE
  5
3CE
330
1F
100
AcDbEntity
  8
0
  6
Continuous
 62
     7
370
    15
100
AcDbSpline
210
0.0
220
0.0
230
1.0
 70
     8
 71
     3
 72
    10
 73
     6
 74
     0
 42
0.00000001
 43
0.00000001
 40
0.0
 40
0.0
 40
0.0
 40
0.0
 40
0.3599231800570013
 40
0.7307461979050449
 40
1.0
 40
1.0
 40
1.0
 40
1.0
 10
390.0416368495162
 20
66.09078729289567
 30
0.0
 10
390.2176188687347
 20
65.42463223843777
 30
0.0
 10
390.5749123095827
 20
64.07214843013388
 30
0.0
 10
390.5044347912337
 20
62.17051705711922
 30
0.0
 10
390.178671831501
 20
60.98968947335537
 30
0.0
 10
390.0416368495162
 20
60.49296422625873
 30
0.0
  0
SPLINE
  5
3CF
330
1F
100
AcDbEntity
  8
0
  6
Continuous
 62
     7
370
    15
100
AcDbSpline
210
0.0
220
0.0
230
1.0
 70
    24
 71
     1
 72
     4
 73
     2
 74
     0
 42
0.00000001
 43
0.00000001
 40
0.0
 40
0.0
 40
1.0
 40
1.0
 10
390.4454359661278
 20
65.60155050593413
 30
0.0
 10
390.0416368495162
 20
66.09078729289567
 30
0.0
  0
LINE
  5
3D0
330
1F
100
AcDbEntity
  8
0
  6
Continuous
 62
     7
370
    15
100
AcDbLine
 10
390.0416368495
 20
60.4929642263
 30
0.0
 11
384.785632218
 21
60.4929641098
 31
0.0
  0
LINE
  5
3D1
330
1F
100
AcDbEntity
  8
0
  6
Continuous
 62
     7
370
    15
100
AcDbLine
 10
390.0416368495
 20
53.3641241467
 30
0.0
 11
384.785632218
 21
53.3641241467
 31
0.0
  0
SPLINE
  5
3D2
330
1F
100
AcDbEntity
  8
0
  6
Continuous
 62
     7
370
    15
100
AcDbSpline
210
0.0
220
0.0
230
1.0
 70
     8
 71
     3
 72
    10
 73
     6
 74
     0
 42
0.00000001
 43
0.00000001
 40
0.0
 40
0.0
 40
0.0
 40
0.0
 40
0.3599234504017276
 40
0.7307469740515974
 40
1.0
 40
1.0
 40
1.0
 40
1.0
 10
384.7856322179969
 20
53.36412414672766
 30
0.0
 10
384.6096491904204
 20
54.21247462234254
 30
0.0
 10
384.2523535911967
 20
55.93486737640975
 30
0.0
 10
384.32284549308
 20
58.35659076947095
 30
0.0
 10
384.6486007946236
 20
59.86038269830737
 30
0.0
 10
384.7856322179969
 20
60.49296410984341
 30
0.0
  0
SPLINE
  5
3D3
330
1F
100
AcDbEntity
  8
0
  6
Continuous
 62
     7
370
    15
100
AcDbSpline
210
0.0
220
0.0
230
1.0
 70
    24
 71
     1
 72
     4
 73
     2
 74
     0
 42
0.00000001
 43
0.00000001
 40
0.0
 40
0.0
 40
1.0
 40
1.0
 10
384.7856322179969
 20
66.09078729289567
 30
0.0
 10
384.3818331013855
 20
65.60155050593413
 30
0.0
  0
SPLINE
  5
3D4
330
1F
100
AcDbEntity
  8
0
  6
Continuous
 62
     7
370
    15
100
AcDbSpline
210
0.0
220
0.0
230
1.0
 70
     8
 71
     3
 72
    10
 73
     6
 74
     0
 42
0.00000001
 43
0.00000001
 40
0.0
 40
0.0
 40
0.0
 40
0.0
 40
0.3599245572356723
 40
0.7307476259365244
 40
0.9999999999999999
 40
0.9999999999999999
 40
0.9999999999999999
 40
0.9999999999999999
 10
384.7856322179969
 20
60.49296410984341
 30
0.0
 10
384.6096491639021
 20
61.15911894200165
 30
0.0
 10
384.2523542908527
 20
62.51159976699586
 30
0.0
 10
384.3228451297335
 20
64.4132288829805
 30
0.0
 10
384.6486007537715
 20
65.59406149594874
 30
0.0
 10
384.7856322179969
 20
66.09078729289567
 30
0.0
  0
SPLINE
  5
3D5
330
1F
100
AcDbEntity
  8
0
  6
Continuous
 62
     7
370
    15
100
AcDbSpline
210
0.0
220
0.0
230
1.0
 70
     8
 71
     3
 72
    10
 73
     6
 74
     0
 42
0.00000001
 43
0.00000001
 40
0.0
 40
0.0
 40
0.0
 40
0.0
 40
0.3211485084369372
 40
0.6556033751896184
 40
1.0
 40
1.0
 40
1.0
 40
1.0
 10
384.785632217997
 20
51.83310666817225
 30
0.0
 10
384.6258847272825
 20
51.99544823516525
 30
0.0
 10
384.2997708225341
 20
52.32685777454687
 30
0.0
 10
384.2819133979824
 20
52.84642236661096
 30
0.0
 10
384.6160945871032
 20
53.18988024353591
 30
0.0
 10
384.7856322179969
 20
53.36412414672766
 30
0.0
  0
SPLINE
  5
3D6
330
1F
100
AcDbEntity
  8
0
  6
Continuous
 62
     7
370
    15
100
AcDbSpline
210
0.0
220
0.0
230
1.0
 70
    24
 71
     1
 72
     4
 73
     2
 74
     0
 42
0.00000001
 43
0.00000001
 40
0.0
 40
0.0
 40
1.0
 40
1.0
 10
214.6416405092415
 20
51.83310666817223
 30
0.0
 10
215.045439625853
 20
52.3223434551338
 30
0.0
  0
SPLINE
  5
3D7
330
1F
100
AcDbEntity
  8
0
  6
Continuous
 62
     7
370
    15
100
AcDbSpline
210
0.0
220
0.0
230
1.0
 70
     8
 71
     3
 72
    10
 73
     6
 74
     0
 42
0.00000001
 43
0.00000001
 40
0.0
 40
0.0
 40
0.0
 40
0.0
 40
0.3599245572356723
 40
0.7307476259365244
 40
0.9999999999999999
 40
0.9999999999999999
 40
0.9999999999999999
 40
0.9999999999999999
 10
214.6416405092415
 20
57.43092985122446
 30
0.0
 10
214.8176235633363
 20
56.76477501906622
 30
0.0
 10
215.1749184363857
 20
55.41229419407201
 30
0.0
 10
215.1044275975049
 20
53.51066507808738
 30
0.0
 10
214.7786719734669
 20
52.32983246511916
 30
0.0
 10
214.6416405092415
 20
51.83310666817223
 30
0.0
  0
SPLINE
  5
3D8
330
1F
100
AcDbEntity
  8
0
  6
Continuous
 62
     7
370
    15
100
AcDbSpline
210
0.0
220
0.0
230
1.0
 70
     8
 71
     3
 72
    10
 73
     6
 74
     0
 42
0.00000001
 43
0.00000001
 40
0.0
 40
0.0
 40
0.0
 40
0.0
 40
0.3211485084369372
 40
0.6556033751896184
 40
1.0
 40
1.0
 40
1.0
 40
1.0
 10
214.6416405092415
 20
66.09078729289568
 30
0.0
 10
214.8013879999559
 20
65.92844572590268
 30
0.0
 10
215.1275019047044
 20
65.59703618652105
 30
0.0
 10
215.1453593292561
 20
65.07747159445694
 30
0.0
 10
214.8111781401353
 20
64.73401371753198
 30
0.0
 10
214.6416405092415
 20
64.55976981434023
 30
0.0
  0
LINE
  5
3D9
330
1F
100
AcDbEntity
  8
0
  6
Continuous
 62
     7
370
    15
100
AcDbLine
 10
390.0416368495
 20
66.0907872929
 30
0.0
 11
384.785632218
 21
66.0907872929
 31
0.0
  0
LINE
  5
3DA
330
1F
100
AcDbEntity
  8
0
  6
Continuous
 62
     7
370
    15
100
AcDbLine
 10
209.3856358777
 20
51.8331066682
 30
0.0
 11
214.6416405092
 21
51.8331066682
 31
0.0
  0
LINE
  5
3DB
330
1F
100
AcDbEntity
  8
0
  6
Continuous
 62
     7
370
    15
100
AcDbLine
 10
390.0416368495
 20
51.8331066682
 30
0.0
 11
384.785632218
 21
51.8331066682
 31
0.0
  0
LINE
  5
3DC
330
1F
100
AcDbEntity
  8
0
  6
Continuous
 62
     7
370
    15
100
AcDbLine
 10
209.3856358777
 20
66.0907872929
 30
0.0
 11
214.6416405092
 21
66.0907872929
 31
0.0
  0
LINE
  5
3DD
330
1F
100
AcDbEntity
  8
0
  6
Continuous
 62
     7
370
    15
100
AcDbLine
 10
222.7136367809
 20
90.9619485005
 30
0.0
 11
222.7136367809
 21
90.0326115056
 31
0.0
  0
LINE
  5
3DE
330
1F
100
AcDbEntity
  8
0
  6
Continuous
 62
     7
370
    15
100
AcDbLine
 10
376.7136359464
 20
90.9619485005
 30
0.0
 11
376.7136359464
 21
90.0326115056
 31
0.0
  0
SPLINE
  5
3DF
330
1F
100
AcDbEntity
  8
0
  6
Continuous
 62
     7
370
    15
100
AcDbSpline
210
0.0
220
0.0
230
1.0
 70
    24
 71
     3
 72
     9
 73
     5
 74
     0
 42
0.00000001
 43
0.00000001
 40
0.0
 40
0.0
 40
0.0
 40
0.0
 40
0.5000003005249044
 40
1.0
 40
1.0
 40
1.0
 40
1.0
 10
384.0136328588661
 20
87.97319279747998
 30
0.0
 10
384.0136328588661
 20
88.21710307535179
 30
0.0
 10
384.0136328588661
 20
88.70492333789112
 30
0.0
 10
384.0136328588661
 20
88.77467712467046
 30
0.0
 10
384.0136328588661
 20
88.8095539970974
 30
0.0
  0
SPLINE
  5
3E0
330
1F
100
AcDbEntity
  8
0
  6
Continuous
 62
     7
370
    15
100
AcDbSpline
210
0.0
220
0.0
230
1.0
 70
    24
 71
     3
 72
     9
 73
     5
 74
     0
 42
0.00000001
 43
0.00000001
 40
0.0
 40
0.0
 40
0.0
 40
0.0
 40
0.4631357168746754
 40
1.0
 40
1.0
 40
1.0
 40
1.0
 10
384.0136328588661
 20
29.14261677998103
 30
0.0
 10
384.0136328588661
 20
29.16087926216626
 30
0.0
 10
384.0136328588661
 20
29.20031150960438
 30
0.0
 10
384.0136328588661
 20
29.68857170422453
 30
0.0
 10
384.0136328588661
 20
29.95070116358792
 30
0.0
  0
SPLINE
  5
3E1
330
1F
100
AcDbEntity
  8
0
  6
Continuous
 62
     7
370
    15
100
AcDbSpline
210
0.0
220
0.0
230
1.0
 70
    24
 71
     3
 72
     9
 73
     5
 74
     0
 42
0.00000001
 43
0.00000001
 40
0.0
 40
0.0
 40
0.0
 40
0.0
 40
0.5000003005249044
 40
1.0
 40
1.0
 40
1.0
 40
1.0
 10
215.4136398683723
 20
29.95070116358792
 30
0.0
 10
215.4136398683723
 20
29.70679088571611
 30
0.0
 10
215.4136398683723
 20
29.21897062317679
 30
0.0
 10
215.4136398683724
 20
29.14921683639747
 30
0.0
 10
215.4136398683724
 20
29.11433996397056
 30
0.0
  0
SPLINE
  5
3E2
330
1F
100
AcDbEntity
  8
0
  6
Continuous
 62
     7
370
    15
100
AcDbSpline
210
0.0
220
0.0
230
1.0
 70
    24
 71
     3
 72
     9
 73
     5
 74
     0
 42
0.00000001
 43
0.00000001
 40
0.0
 40
0.0
 40
0.0
 40
0.0
 40
0.4631357168746754
 40
1.0
 40
1.0
 40
1.0
 40
1.0
 10
215.4136398683724
 20
88.78127718108692
 30
0.0
 10
215.4136398683723
 20
88.76301469890167
 30
0.0
 10
215.4136398683723
 20
88.72358245146354
 30
0.0
 10
215.4136398683723
 20
88.23532225684336
 30
0.0
 10
215.4136398683723
 20
87.97319279747998
 30
0.0
  0
LINE
  5
3E3
330
1F
100
AcDbEntity
  8
0
  6
Continuous
 62
     7
370
    15
100
AcDbLine
 10
392.2136375557
 20
54.9619467905
 30
0.0
 11
392.2136375557
 21
62.9619471705
 31
0.0
  0
LINE
  5
3E4
330
1F
100
AcDbEntity
  8
0
  6
Continuous
 62
     7
370
    15
100
AcDbLine
 10
392.713638569
 20
55.4619468725
 30
0.0
 11
392.713638569
 21
62.4619470886
 31
0.0
  0
LINE
  5
3E5
330
1F
100
AcDbEntity
  8
0
  6
Continuous
 62
     7
370
    15
100
AcDbLine
 10
207.2136351715
 20
62.9619471705
 30
0.0
 11
207.2136351715
 21
54.9619467905
 31
0.0
  0
LINE
  5
3E6
330
1F
100
AcDbEntity
  8
0
  6
Continuous
 62
     7
370
    15
100
AcDbLine
 10
206.7136341582
 20
62.4619470886
 30
0.0
 11
206.7136341582
 21
55.4619468725
 31
0.0
  0
LINE
  5
3E7
330
1F
100
AcDbEntity
  8
0
  6
Continuous
 62
     7
370
    15
100
AcDbLine
 10
384.1944062959
 20
38.1619469239
 30
0.0
 11
384.0136328589
 21
38.1619469239
 31
0.0
  0
LINE
  5
3E8
330
1F
100
AcDbEntity
  8
0
  6
Continuous
 62
     7
370
    15
100
AcDbLine
 10
384.0136328589
 20
79.7619470372
 30
0.0
 11
384.1944062959
 21
79.7619470372
 31
0.0
  0
LINE
  5
3E9
330
1F
100
AcDbEntity
  8
0
  6
Continuous
 62
     7
370
    15
100
AcDbLine
 10
215.4136398684
 20
38.1619469239
 30
0.0
 11
215.2328664313
 21
38.1619469239
 31
0.0
  0
LINE
  5
3EA
330
1F
100
AcDbEntity
  8
0
  6
Continuous
 62
     7
370
    15
100
AcDbLine
 10
215.2328664313
 20
79.7619470372
 30
0.0
 11
215.4136398684
 21
79.7619470372
 31
0.0
  0
LINE
  5
3EB
330
1F
100
AcDbEntity
  8
0
  6
Continuous
 62
     7
370
    15
100
AcDbLine
 10
384.7136372577
 20
38.1619469239
 30
0.0
 11
384.7136372577
 21
51.9203376001
 31
0.0
  0
LINE
  5
3EC
330
1F
100
AcDbEntity
  8
0
  6
Continuous
 62
     7
370
    15
100
AcDbLine
 10
384.7136372577
 20
66.0035563609
 30
0.0
 11
384.7136372577
 21
79.7619470372
 31
0.0
  0
LINE
  5
3ED
330
1F
100
AcDbEntity
  8
0
  6
Continuous
 62
     7
370
    15
100
AcDbLine
 10
384.7136372577
 20
38.1619469239
 30
0.0
 11
384.1944062959
 21
38.1619469239
 31
0.0
  0
LINE
  5
3EE
330
1F
100
AcDbEntity
  8
0
  6
Continuous
 62
     7
370
    15
100
AcDbLine
 10
384.7136372577
 20
79.7619470372
 30
0.0
 11
384.1944062959
 21
79.7619470372
 31
0.0
  0
LINE
  5
3EF
330
1F
100
AcDbEntity
  8
0
  6
Continuous
 62
     7
370
    15
100
AcDbLine
 10
214.7136354696
 20
38.1619469239
 30
0.0
 11
214.7136354696
 21
51.9203376001
 31
0.0
  0
LINE
  5
3F0
330
1F
100
AcDbEntity
  8
0
  6
Continuous
 62
     7
370
    15
100
AcDbLine
 10
214.7136354696
 20
66.0035563609
 30
0.0
 11
214.7136354696
 21
79.7619470372
 31
0.0
  0
LINE
  5
3F1
330
1F
100
AcDbEntity
  8
0
  6
Continuous
 62
     7
370
    15
100
AcDbLine
 10
215.2328664313
 20
38.1619469239
 30
0.0
 11
214.7136354696
 21
38.1619469239
 31
0.0
  0
LINE
  5
3F2
330
1F
100
AcDbEntity
  8
0
  6
Continuous
 62
     7
370
    15
100
AcDbLine
 10
215.2328664313
 20
79.7619470372
 30
0.0
 11
214.7136354696
 21
79.7619470372
 31
0.0
  0
SPLINE
  5
3F3
330
1F
100
AcDbEntity
  8
0
  6
Continuous
 62
     7
370
    15
100
AcDbSpline
210
0.0
220
0.0
230
1.0
 70
    24
 71
     1
 72
     4
 73
     2
 74
     0
 42
0.00000001
 43
0.00000001
 40
0.0
 40
0.0
 40
1.0
 40
1.0
 10
383.2127550493415
 20
83.90916557746914
 30
0.0
 10
383.9499974499877
 20
83.93380464750317
 30
0.0
  0
LINE
  5
3F4
330
1F
100
AcDbEntity
  8
0
  6
Continuous
 62
     7
370
    15
100
AcDbLine
 10
215.4772752773
 20
83.9338046475
 30
0.0
 11
216.1972546827
 21
83.9097411348
 31
0.0
  0
LINE
  5
3F5
330
1F
100
AcDbEntity
  8
0
  6
Continuous
 62
     7
370
    15
100
AcDbLine
 10
383.94999745
 20
33.9900893136
 30
0.0
 11
383.2300180446
 21
34.0141528262
 31
0.0
  0
SPLINE
  5
3F6
330
1F
100
AcDbEntity
  8
0
  6
Continuous
 62
     7
370
    15
100
AcDbSpline
210
0.0
220
0.0
230
1.0
 70
    24
 71
     1
 72
     4
 73
     2
 74
     0
 42
0.00000001
 43
0.00000001
 40
0.0
 40
0.0
 40
1.0
 40
1.0
 10
216.2145176778968
 20
34.0147283835986
 30
0.0
 10
215.4772752772506
 20
33.99008931356457
 30
0.0
  0
LINE
  5
3F7
330
1F
100
AcDbEntity
  8
0
  6
Continuous
 62
     7
370
    15
100
AcDbLine
 10
382.5529018294
 20
89.4412049069
 30
0.0
 11
382.5529018294
 21
90.3090392216
 31
0.0
  0
LINE
  5
3F8
330
1F
100
AcDbEntity
  8
0
  6
Continuous
 62
     7
370
    15
100
AcDbLine
 10
382.5529018294
 20
27.6148547395
 30
0.0
 11
382.5529018294
 21
28.4826890542
 31
0.0
  0
LINE
  5
3F9
330
1F
100
AcDbEntity
  8
0
  6
Continuous
 62
     7
370
    15
100
AcDbLine
 10
216.8743708979
 20
28.4826890542
 30
0.0
 11
216.8743708979
 21
27.6148547395
 31
0.0
  0
LINE
  5
3FA
330
1F
100
AcDbEntity
  8
0
  6
Continuous
 62
     7
370
    15
100
AcDbLine
 10
216.8743708979
 20
90.3090392216
 30
0.0
 11
216.8743708979
 21
89.4412049069
 31
0.0
  0
LINE
  5
3FB
330
1F
100
AcDbEntity
  8
0
  6
Continuous
 62
     7
370
    15
100
AcDbLine
 10
384.1944062959
 20
79.7619470372
 30
0.0
 11
384.1944062959
 21
65.1996033243
 31
0.0
  0
LINE
  5
3FC
330
1F
100
AcDbEntity
  8
0
  6
Continuous
 62
     7
370
    15
100
AcDbLine
 10
384.1944062959
 20
52.7242906368
 30
0.0
 11
384.1944062959
 21
38.1619469239
 31
0.0
  0
LINE
  5
3FD
330
1F
100
AcDbEntity
  8
0
  6
Continuous
 62
     7
370
    15
100
AcDbLine
 10
215.2328664313
 20
38.1619469239
 30
0.0
 11
215.2328664313
 21
52.7242906368
 31
0.0
  0
LINE
  5
3FE
330
1F
100
AcDbEntity
  8
0
  6
Continuous
 62
     7
370
    15
100
AcDbLine
 10
215.2328664313
 20
65.1996033243
 30
0.0
 11
215.2328664313
 21
79.7619470372
 31
0.0
  0
ENDSEC
  0
SECTION
  2
OBJECTS
  0
DICTIONARY
  5
C
330
0
100
AcDbDictionary
281
     1
  3
ACAD_GROUP
350
D
  3
ACAD_LAYOUT
350
1A
  3
ACAD_MLINESTYLE
350
17
  3
ACAD_PLOTSETTINGS
350
19
  3
ACAD_PLOTSTYLENAME
350
E
  0
DICTIONARY
  5
D
102
{ACAD_REACTORS
330
C
102
}
330
C
100
AcDbDictionary
281
     1
  0
DICTIONARY
  5
1A
102
{ACAD_REACTORS
330
C
102
}
330
C
100
AcDbDictionary
281
     1
  3
Layout1
350
1E
  3
Layout2
350
26
  3
Model
350
22
  0
DICTIONARY
  5
17
102
{ACAD_REACTORS
330
C
102
}
330
C
100
AcDbDictionary
281
     1
  3
Standard
350
18
  0
DICTIONARY
  5
19
102
{ACAD_REACTORS
330
C
102
}
330
C
100
AcDbDictionary
281
     1
  0
ACDBDICTIONARYWDFLT
  5
E
102
{ACAD_REACTORS
330
C
102
}
330
C
100
AcDbDictionary
281
     1
  3
Normal
350
F
100
AcDbDictionaryWithDefault
340
F
  0
LAYOUT
  5
1E
102
{ACAD_REACTORS
330
1A
102
}
330
1A
100
AcDbPlotSettings
  1

  2
none_device
  4

  6

 40
0.0
 41
0.0
 42
0.0
 43
0.0
 44
0.0
 45
0.0
 46
0.0
 47
0.0
 48
0.0
 49
0.0
140
0.0
141
0.0
142
1.0
143
1.0
 70
   688
 72
     0
 73
     0
 74
     5
  7

 75
    16
147
1.0
148
0.0
149
0.0
100
AcDbLayout
  1
Layout1
 70
     1
 71
     1
 10
0.0
 20
0.0
 11
420.0
 21
297.0
 12
0.0
 22
0.0
 32
0.0
 14
1.0000000000E+20
 24
1.0000000000E+20
 34
1.0000000000E+20
 15
-1.0000000000E+20
 25
-1.0000000000E+20
 35
-1.0000000000E+20
146
0.0
 13
0.0
 23
0.0
 33
0.0
 16
1.0
 26
0.0
 36
0.0
 17
0.0
 27
1.0
 37
0.0
 76
     0
330
1B
  0
LAYOUT
  5
26
102
{ACAD_REACTORS
330
1A
102
}
330
1A
100
AcDbPlotSettings
  1

  2
none_device
  4

  6

 40
0.0
 41
0.0
 42
0.0
 43
0.0
 44
0.0
 45
0.0
 46
0.0
 47
0.0
 48
0.0
 49
0.0
140
0.0
141
0.0
142
1.0
143
1.0
 70
   688
 72
     0
 73
     0
 74
     5
  7

 75
    16
147
1.0
148
0.0
149
0.0
100
AcDbLayout
  1
Layout2
 70
     1
 71
     2
 10
0.0
 20
0.0
 11
0.0
 21
0.0
 12
0.0
 22
0.0
 32
0.0
 14
0.0
 24
0.0
 34
0.0
 15
0.0
 25
0.0
 35
0.0
146
0.0
 13
0.0
 23
0.0
 33
0.0
 16
1.0
 26
0.0
 36
0.0
 17
0.0
 27
1.0
 37
0.0
 76
     0
330
23
  0
LAYOUT
  5
22
102
{ACAD_REACTORS
330
1A
102
}
330
1A
100
AcDbPlotSettings
  1

  2
none_device
  4

  6

 40
0.0
 41
0.0
 42
0.0
 43
0.0
 44
0.0
 45
0.0
 46
0.0
 47
0.0
 48
0.0
 49
0.0
140
0.0
141
0.0
142
1.0
143
1.0
 70
  1712
 72
     0
 73
     0
 74
     0
  7

 75
     0
147
1.0
148
0.0
149
0.0
100
AcDbLayout
  1
Model
 70
     1
 71
     0
 10
0.0
 20
0.0
 11
0.0
 21
0.0
 12
0.0
 22
0.0
 32
0.0
 14
0.0
 24
0.0
 34
0.0
 15
500.0
 25
500.0
 35
0.0
146
0.0
 13
0.0
 23
0.0
 33
0.0
 16
1.0
 26
0.0
 36
0.0
 17
0.0
 27
1.0
 37
0.0
 76
     0
330
1F
  0
MLINESTYLE
  5
18
102
{ACAD_REACTORS
330
17
102
}
330
17
100
AcDbMlineStyle
  2
Standard
 70
     0
  3

 62
   256
 51
90.0
 52
90.0
 71
     2
 49
0.5
 62
   256
  6
BYLAYER
 49
-0.5
 62
   256
  6
BYLAYER
  0
ACDBPLACEHOLDER
  5
F
102
{ACAD_REACTORS
330
E
102
}
330
E
  0
ENDSEC
  0
EOF
