  0
SECTION
  2
HEADER
  9
$ACADVER
  1
AC1015
  9
$ACADMAINTVER
 70
     6
  9
$DWGCODEPAGE
  3
ANSI_1252
  9
$INSBASE
 10
0.0
 20
0.0
 30
0.0
  9
$EXTMIN
 10
0.0
 20
0.0
 30
0.0
  9
$EXTMAX
 10
841.0
 20
800.0
 30
0.0
  9
$LIMMIN
 10
0.0
 20
0.0
  9
$LIMMAX
 10
0.0
 20
0.0
  9
$ORTHOMODE
 70
     0
  9
$REGENMODE
 70
     1
  9
$FILLMODE
 70
     1
  9
$QTEXTMODE
 70
     0
  9
$MIRRTEXT
 70
     1
  9
$LTSCALE
 40
1.0
  9
$ATTMODE
 70
     1
  9
$TEXTSIZE
 40
3.5
  9
$TRACEWID
 40
1.0
  9
$TEXTSTYLE
  7
Standard
  9
$CLAYER
  8
0
  9
$CELTYPE
  6
ByLayer
  9
$CECOLOR
 62
   256
  9
$CELTSCALE
 40
1.0
  9
$DISPSILH
 70
     0
  9
$DIMSCALE
 40
1.0
  9
$DIMASZ
 40
6.0
  9
$DIMEXO
 40
1.0
  9
$DIMDLI
 40
3.75
  9
$DIMRND
 40
0.0
  9
$DIMDLE
 40
0.0
  9
$DIMEXE
 40
1.0
  9
$DIMTP
 40
0.0
  9
$DIMTM
 40
0.0
  9
$DIMTXT
 40
3.5
  9
$DIMCEN
 40
2.5
  9
$DIMTSZ
 40
0.0
  9
$DIMTOL
 70
     0
  9
$DIMLIM
 70
     0
  9
$DIMTIH
 70
     1
  9
$DIMTOH
 70
     1
  9
$DIMSE1
 70
     0
  9
$DIMSE2
 70
     0
  9
$DIMTAD
 70
     1
  9
$DIMZIN
 70
     0
  9
$DIMBLK
  1

  9
$DIMASO
 70
     1
  9
$DIMSHO
 70
     1
  9
$DIMPOST
  1

  9
$DIMAPOST
  1

  9
$DIMALT
 70
     0
  9
$DIMALTD
 70
     3
  9
$DIMALTF
 40
0.0393700787
  9
$DIMLFAC
 40
1.0
  9
$DIMTOFL
 70
     1
  9
$DIMTVP
 40
0.0
  9
$DIMTIX
 70
     0
  9
$DIMSOXD
 70
     0
  9
$DIMSAH
 70
     0
  9
$DIMBLK1
  1

  9
$DIMBLK2
  1

  9
$DIMSTYLE
  2
ISO-25
  9
$DIMCLRD
 70
     0
  9
$DIMCLRE
 70
     0
  9
$DIMCLRT
 70
     0
  9
$DIMTFAC
 40
1.0
  9
$DIMGAP
 40
1.524
  9
$DIMJUST
 70
     0
  9
$DIMSD1
 70
     0
  9
$DIMSD2
 70
     0
  9
$DIMTOLJ
 70
     0
  9
$DIMTZIN
 70
     0
  9
$DIMALTZ
 70
     0
  9
$DIMALTTZ
 70
     0
  9
$DIMUPT
 70
     0
  9
$DIMDEC
 70
     2
  9
$DIMTDEC
 70
     2
  9
$DIMALTU
 70
     2
  9
$DIMALTTD
 70
     3
  9
$DIMTXSTY
  7
Standard
  9
$DIMAUNIT
 70
     0
  9
$DIMADEC
 70
     0
  9
$DIMALTRND
 40
0.0
  9
$DIMAZIN
 70
     0
  9
$DIMDSEP
 70
    44
  9
$DIMATFIT
 70
     3
  9
$DIMFRAC
 70
     0
  9
$DIMLDRBLK
  1

  9
$DIMLUNIT
 70
     2
  9
$DIMLWD
 70
    -2
  9
$DIMLWE
 70
    -2
  9
$DIMTMOVE
 70
     0
  9
$LUNITS
 70
     2
  9
$LUPREC
 70
     2
  9
$SKETCHINC
 40
1.0
  9
$FILLETRAD
 40
10.0
  9
$AUNITS
 70
     0
  9
$AUPREC
 70
     0
  9
$MENU
  1
.
  9
$ELEVATION
 40
0.0
  9
$PELEVATION
 40
0.0
  9
$THICKNESS
 40
0.0
  9
$LIMCHECK
 70
     0
  9
$CHAMFERA
 40
10.0
  9
$CHAMFERB
 40
10.0
  9
$CHAMFERC
 40
20.0
  9
$CHAMFERD
 40
0.0
  9
$SKPOLY
 70
     0
  9
$TDCREATE
 40
2455281.688624537
  9
$TDUCREATE
 40
2455281.646957871
  9
$TDUPDATE
 40
2455281.688624549
  9
$TDUUPDATE
 40
2455281.646957882
  9
$TDINDWG
 40
0.0000000116
  9
$TDUSRTIMER
 40
0.0000000116
  9
$USRTIMER
 70
     1
  9
$ANGBASE
 50
0.0
  9
$ANGDIR
 70
     0
  9
$PDMODE
 70
     0
  9
$PDSIZE
 40
-1.0
  9
$PLINEWID
 40
0.0
  9
$SPLFRAME
 70
     0
  9
$SPLINETYPE
 70
     6
  9
$SPLINESEGS
 70
     8
  9
$HANDSEED
  5
34F
  9
$SURFTAB1
 70
     6
  9
$SURFTAB2
 70
     6
  9
$SURFTYPE
 70
     6
  9
$SURFU
 70
     6
  9
$SURFV
 70
     6
  9
$UCSBASE
  2

  9
$UCSNAME
  2

  9
$UCSORG
 10
0.0
 20
0.0
 30
0.0
  9
$UCSXDIR
 10
1.0
 20
0.0
 30
0.0
  9
$UCSYDIR
 10
0.0
 20
1.0
 30
0.0
  9
$UCSORTHOREF
  2

  9
$UCSORTHOVIEW
 70
     0
  9
$UCSORGTOP
 10
0.0
 20
0.0
 30
0.0
  9
$UCSORGBOTTOM
 10
0.0
 20
0.0
 30
0.0
  9
$UCSORGLEFT
 10
0.0
 20
0.0
 30
0.0
  9
$UCSORGRIGHT
 10
0.0
 20
0.0
 30
0.0
  9
$UCSORGFRONT
 10
0.0
 20
0.0
 30
0.0
  9
$UCSORGBACK
 10
0.0
 20
0.0
 30
0.0
  9
$PUCSBASE
  2

  9
$PUCSNAME
  2

  9
$PUCSORG
 10
0.0
 20
0.0
 30
0.0
  9
$PUCSXDIR
 10
1.0
 20
0.0
 30
0.0
  9
$PUCSYDIR
 10
0.0
 20
1.0
 30
0.0
  9
$PUCSORTHOREF
  2

  9
$PUCSORTHOVIEW
 70
     0
  9
$PUCSORGTOP
 10
0.0
 20
0.0
 30
0.0
  9
$PUCSORGBOTTOM
 10
0.0
 20
0.0
 30
0.0
  9
$PUCSORGLEFT
 10
0.0
 20
0.0
 30
0.0
  9
$PUCSORGRIGHT
 10
0.0
 20
0.0
 30
0.0
  9
$PUCSORGFRONT
 10
0.0
 20
0.0
 30
0.0
  9
$PUCSORGBACK
 10
0.0
 20
0.0
 30
0.0
  9
$USERI1
 70
     0
  9
$USERI2
 70
     0
  9
$USERI3
 70
     0
  9
$USERI4
 70
     0
  9
$USERI5
 70
     0
  9
$USERR1
 40
0.0
  9
$USERR2
 40
0.0
  9
$USERR3
 40
0.0
  9
$USERR4
 40
0.0
  9
$USERR5
 40
0.0
  9
$WORLDVIEW
 70
     1
  9
$SHADEDGE
 70
     3
  9
$SHADEDIF
 70
    70
  9
$TILEMODE
 70
     1
  9
$MAXACTVP
 70
    64
  9
$PINSBASE
 10
0.0
 20
0.0
 30
0.0
  9
$PLIMCHECK
 70
     0
  9
$PEXTMIN
 10
1.0000000000E+20
 20
1.0000000000E+20
 30
1.0000000000E+20
  9
$PEXTMAX
 10
-1.0000000000E+20
 20
-1.0000000000E+20
 30
-1.0000000000E+20
  9
$PLIMMIN
 10
0.0
 20
0.0
  9
$PLIMMAX
 10
420.0
 20
297.0
  9
$UNITMODE
 70
     0
  9
$VISRETAIN
 70
     1
  9
$PLINEGEN
 70
     0
  9
$PSLTSCALE
 70
     1
  9
$TREEDEPTH
 70
  3020
  9
$CMLSTYLE
  2
Standard
  9
$CMLJUST
 70
     0
  9
$CMLSCALE
 40
20.0
  9
$PROXYGRAPHICS
 70
     1
  9
$MEASUREMENT
 70
     1
  9
$CELWEIGHT
370
    -1
  9
$ENDCAPS
280
     0
  9
$JOINSTYLE
280
     0
  9
$LWDISPLAY
290
     1
  9
$INSUNITS
 70
     4
  9
$HYPERLINKBASE
  1

  9
$STYLESHEET
  1

  9
$XEDIT
290
     1
  9
$CEPSNTYPE
380
     0
  9
$PSTYLEMODE
290
     1
  9
$FINGERPRINTGUID
  2
{12A4773F-BCD2-44D7-A163-C81168376D73}
  9
$VERSIONGUID
  2
{FAEB1C32-E019-11D5-929B-00C0DF256EC4}
  9
$EXTNAMES
290
     1
  9
$PSVPSCALE
 40
0.0
  9
$OLESTARTUP
290
     0
  0
ENDSEC
  0
SECTION
  2
CLASSES
  0
CLASS
  1
ACDBDICTIONARYWDFLT
  2
AcDbDictionaryWithDefault
  3
ObjectDBX Classes
 90
        0
280
     0
281
     0
  0
CLASS
  1
ACDBPLACEHOLDER
  2
AcDbPlaceHolder
  3
ObjectDBX Classes
 90
        0
280
     0
281
     0
  0
CLASS
  1
LAYOUT
  2
AcDbLayout
  3
ObjectDBX Classes
 90
        0
280
     0
281
     0
  0
ENDSEC
  0
SECTION
  2
TABLES
  0
TABLE
  2
VPORT
  5
8
330
0
100
AcDbSymbolTable
 70
     1
  0
VPORT
  5
29
330
8
100
AcDbSymbolTableRecord
100
AcDbViewportTableRecord
  2
*Active
 70
     0
 10
0.0
 20
0.0
 11
1.0
 21
1.0
 12
420.5
 22
400.0
 13
0.0
 23
0.0
 14
10.0
 24
10.0
 15
10.0
 25
10.0
 16
0.0
 26
0.0
 36
1.0
 17
0.0
 27
0.0
 37
0.0
 40
800.0
 41
1.05125
 42
50.0
 43
0.0
 44
0.0
 50
0.0
 51
0.0
 71
     0
 72
  2000
 73
     1
 74
     3
 75
     0
 76
     0
 77
     0
 78
     0
281
     0
 65
     1
110
0.0
120
0.0
130
0.0
111
1.0
121
0.0
131
0.0
112
0.0
122
1.0
132
0.0
 79
     0
146
0.0
  0
ENDTAB
  0
TABLE
  2
LTYPE
  5
5
330
0
100
AcDbSymbolTable
 70
     6
  0
LTYPE
  5
14
330
5
100
AcDbSymbolTableRecord
100
AcDbLinetypeTableRecord
  2
ByBlock
 70
     0
  3

 72
    65
 73
     0
 40
0.0
  0
LTYPE
  5
15
330
5
100
AcDbSymbolTableRecord
100
AcDbLinetypeTableRecord
  2
ByLayer
 70
     0
  3

 72
    65
 73
     0
 40
0.0
  0
LTYPE
  5
16
330
5
100
AcDbSymbolTableRecord
100
AcDbLinetypeTableRecord
  2
Continuous
 70
     0
  3
Solid line
 72
    65
 73
     0
 40
0.0
  0
LTYPE
  5
2A
330
5
100
AcDbSymbolTableRecord
100
AcDbLinetypeTableRecord
  2
HIDDEN
 70
     0
  3
Hidden __ __ __ __ __ __ __ __ __ __ __ __ __ __
 72
    65
 73
     2
 40
1.905
 49
1.27
 74
     0
 49
-0.635
 74
     0
  0
LTYPE
  5
2B
330
5
100
AcDbSymbolTableRecord
100
AcDbLinetypeTableRecord
  2
PHANTOM
 70
     0
  3
Phantom ______  __  __  ______  __  __  ______
 72
    65
 73
     6
 40
12.7
 49
6.35
 74
     0
 49
-1.27
 74
     0
 49
1.27
 74
     0
 49
-1.27
 74
     0
 49
1.27
 74
     0
 49
-1.27
 74
     0
  0
LTYPE
  5
2C
330
5
100
AcDbSymbolTableRecord
100
AcDbLinetypeTableRecord
  2
CENTER
 70
     0
  3
Center ____ _ ____ _ ____ _ ____ _ ____ _ ____
 72
    65
 73
     4
 40
10.16
 49
6.35
 74
     0
 49
-1.27
 74
     0
 49
1.27
 74
     0
 49
-1.27
 74
     0
  0
LTYPE
  5
2D
330
5
100
AcDbSymbolTableRecord
100
AcDbLinetypeTableRecord
  2
CENTERX2
 70
     0
  3
Center (2x) ________  __  ________  __  _____
 72
    65
 73
     4
 40
20.32
 49
12.7
 74
     0
 49
-2.54
 74
     0
 49
2.54
 74
     0
 49
-2.54
 74
     0
  0
LTYPE
  5
2E
330
5
100
AcDbSymbolTableRecord
100
AcDbLinetypeTableRecord
  2
DOT2
 70
     0
  3
Dot (.5x) ........................................
 72
    65
 73
     2
 40
0.635
 49
0.0
 74
     0
 49
-0.635
 74
     0
  0
ENDTAB
  0
TABLE
  2
LAYER
  5
2
330
0
100
AcDbSymbolTable
 70
     2
  0
LAYER
  5
10
330
2
100
AcDbSymbolTableRecord
100
AcDbLayerTableRecord
  2
0
 70
     0
 62
     7
  6
Continuous
370
    -3
390
F
  0
LAYER
  5
2F
330
2
100
AcDbSymbolTableRecord
100
AcDbLayerTableRecord
  2
FORMAT
 70
     0
 62
     7
  6
Continuous
370
    -3
390
F
  0
ENDTAB
  0
TABLE
  2
STYLE
  5
3
330
0
100
AcDbSymbolTable
 70
     1
  0
STYLE
  5
11
330
3
100
AcDbSymbolTableRecord
100
AcDbTextStyleTableRecord
  2
Standard
 70
     0
 40
0.0
 41
1.0
 50
0.0
 71
     0
 42
2.5
  3
txt
  4

  0
ENDTAB
  0
TABLE
  2
VIEW
  5
6
330
0
100
AcDbSymbolTable
 70
     0
  0
ENDTAB
  0
TABLE
  2
UCS
  5
7
330
0
100
AcDbSymbolTable
 70
     0
  0
ENDTAB
  0
TABLE
  2
APPID
  5
9
330
0
100
AcDbSymbolTable
 70
     1
  0
APPID
  5
12
330
9
100
AcDbSymbolTableRecord
100
AcDbRegAppTableRecord
  2
ACAD
 70
     0
  0
ENDTAB
  0
TABLE
  2
DIMSTYLE
  5
A
330
0
100
AcDbSymbolTable
 70
     1
100
AcDbDimStyleTable
  0
DIMSTYLE
105
27
330
A
100
AcDbSymbolTableRecord
100
AcDbDimStyleTableRecord
  2
ISO-25
 70
     0
 41
2.5
 42
0.625
 43
3.75
 44
1.25
 73
     0
 74
     0
 77
     1
 78
     8
140
2.5
141
2.5
143
0.0393700787
147
0.625
171
     3
172
     1
271
     2
272
     2
274
     3
278
    44
283
     0
284
     8
340
11
  0
ENDTAB
  0
TABLE
  2
BLOCK_RECORD
  5
1
330
0
100
AcDbSymbolTable
 70
     1
  0
BLOCK_RECORD
  5
1F
330
1
100
AcDbSymbolTableRecord
100
AcDbBlockTableRecord
  2
*Model_Space
340
22
  0
BLOCK_RECORD
  5
1B
330
1
100
AcDbSymbolTableRecord
100
AcDbBlockTableRecord
  2
*Paper_Space
340
1E
  0
BLOCK_RECORD
  5
23
330
1
100
AcDbSymbolTableRecord
100
AcDbBlockTableRecord
  2
*Paper_Space0
340
26
  0
ENDTAB
  0
ENDSEC
  0
SECTION
  2
BLOCKS
  0
BLOCK
  5
20
330
1F
100
AcDbEntity
  8
0
100
AcDbBlockBegin
  2
*Model_Space
 70
     0
 71
     0
 10
0.0
 20
0.0
 30
0.0
  3
*Model_Space
  1

  0
ENDBLK
  5
21
330
1F
100
AcDbEntity
  8
0
100
AcDbBlockEnd
  0
BLOCK
  5
1C
330
1B
100
AcDbEntity
 67
     1
  8
0
100
AcDbBlockBegin
  2
*Paper_Space
 70
     0
 71
     0
 10
0.0
 20
0.0
 30
0.0
  3
*Paper_Space
  1

  0
ENDBLK
  5
1D
330
1B
100
AcDbEntity
 67
     1
  8
0
100
AcDbBlockEnd
  0
BLOCK
  5
24
330
23
100
AcDbEntity
  8
0
100
AcDbBlockBegin
  2
*Paper_Space0
 70
     0
 71
     0
 10
0.0
 20
0.0
 30
0.0
  3
*Paper_Space0
  1

  0
ENDBLK
  5
25
330
23
100
AcDbEntity
  8
0
100
AcDbBlockEnd
  0
ENDSEC
  0
SECTION
  2
ENTITIES
  0
LINE
  5
30
330
1F
100
AcDbEntity
  8
0
  6
Continuous
 62
     7
370
    15
100
AcDbLine
 10
449.3307079355
 20
513.1510678094
 30
0.0
 11
449.3307079355
 21
568.7010619205
 31
0.0
  0
LINE
  5
31
330
1F
100
AcDbEntity
  8
0
  6
Continuous
 62
     7
370
    15
100
AcDbLine
 10
409.3307088296
 20
568.7010619205
 30
0.0
 11
409.3307088296
 21
513.1510678094
 31
0.0
  0
LINE
  5
32
330
1F
100
AcDbEntity
  8
0
  6
Continuous
 62
     7
370
    15
100
AcDbLine
 10
448.7307089547
 20
217.2510656875
 30
0.0
 11
448.7307089547
 21
220.7510653299
 31
0.0
  0
LINE
  5
33
330
1F
100
AcDbEntity
  8
0
  6
Continuous
 62
     7
370
    15
100
AcDbLine
 10
409.9307078103
 20
220.7510653299
 30
0.0
 11
409.9307078103
 21
217.2510656875
 31
0.0
  0
LINE
  5
34
330
1F
100
AcDbEntity
  8
0
  6
Continuous
 62
     7
370
    15
100
AcDbLine
 10
409.9307078103
 20
217.2510656875
 30
0.0
 11
413.930708466
 21
213.2510724824
 31
0.0
  0
LINE
  5
35
330
1F
100
AcDbEntity
  8
0
  6
Continuous
 62
     7
370
    15
100
AcDbLine
 10
444.7307082991
 20
213.2510724824
 30
0.0
 11
448.7307089547
 21
217.2510656875
 31
0.0
  0
LINE
  5
36
330
1F
100
AcDbEntity
  8
0
  6
Continuous
 62
     7
370
    15
100
AcDbLine
 10
445.2307093124
 20
220.7510653299
 30
0.0
 11
443.2307080532
 21
222.751069383
 31
0.0
  0
LINE
  5
37
330
1F
100
AcDbEntity
  8
0
  6
Continuous
 62
     7
370
    15
100
AcDbLine
 10
415.4307087118
 20
222.751069383
 30
0.0
 11
413.4307074527
 21
220.7510653299
 31
0.0
  0
LINE
  5
38
330
1F
100
AcDbEntity
  8
0
  6
Continuous
 62
     7
370
    15
100
AcDbLine
 10
416.8307081963
 20
457.9167398971
 30
0.0
 11
416.8307081963
 21
457.3628860872
 31
0.0
  0
LINE
  5
39
330
1F
100
AcDbEntity
  8
0
  6
Continuous
 62
     7
370
    15
100
AcDbLine
 10
441.8307085688
 20
457.3628860872
 30
0.0
 11
441.8307085688
 21
457.9167398971
 31
0.0
  0
LINE
  5
3A
330
1F
100
AcDbEntity
  8
0
  6
Continuous
 62
     7
370
    15
100
AcDbLine
 10
441.8307085688
 20
259.4853970569
 30
0.0
 11
441.8307085688
 21
260.0392508667
 31
0.0
  0
LINE
  5
3B
330
1F
100
AcDbEntity
  8
0
  6
Continuous
 62
     7
370
    15
100
AcDbLine
 10
416.8307081963
 20
260.0392508667
 30
0.0
 11
416.8307081963
 21
259.4853970569
 31
0.0
  0
LINE
  5
3C
330
1F
100
AcDbEntity
  8
0
  6
Continuous
 62
     7
370
    15
100
AcDbLine
 10
437.3307087625
 20
458.1510681074
 30
0.0
 11
437.3307087625
 21
458.3805534404
 31
0.0
  0
LINE
  5
3D
330
1F
100
AcDbEntity
  8
0
  6
Continuous
 62
     7
370
    15
100
AcDbLine
 10
437.3307087625
 20
498.701069073
 30
0.0
 11
437.3307087625
 21
513.1510678094
 31
0.0
  0
LINE
  5
3E
330
1F
100
AcDbEntity
  8
0
  6
Continuous
 62
     7
370
    15
100
AcDbLine
 10
421.3307080025
 20
513.1510678094
 30
0.0
 11
421.3307080025
 21
498.701069073
 31
0.0
  0
LINE
  5
3F
330
1F
100
AcDbEntity
  8
0
  6
Continuous
 62
     7
370
    15
100
AcDbLine
 10
421.3307080025
 20
458.3805534404
 30
0.0
 11
421.3307080025
 21
458.1510681074
 31
0.0
  0
LINE
  5
40
330
1F
100
AcDbEntity
  8
0
  6
Continuous
 62
     7
370
    15
100
AcDbLine
 10
421.3307080025
 20
259.2510688465
 30
0.0
 11
421.3307080025
 21
259.0215835136
 31
0.0
  0
LINE
  5
41
330
1F
100
AcDbEntity
  8
0
  6
Continuous
 62
     7
370
    15
100
AcDbLine
 10
421.3307080025
 20
223.7010631126
 30
0.0
 11
421.3307080025
 21
222.751069383
 31
0.0
  0
LINE
  5
42
330
1F
100
AcDbEntity
  8
0
  6
Continuous
 62
     7
370
    15
100
AcDbLine
 10
437.3307087625
 20
222.751069383
 30
0.0
 11
437.3307087625
 21
223.7010631126
 31
0.0
  0
LINE
  5
43
330
1F
100
AcDbEntity
  8
0
  6
Continuous
 62
     7
370
    15
100
AcDbLine
 10
437.3307087625
 20
259.0215835136
 30
0.0
 11
437.3307087625
 21
259.2510688465
 31
0.0
  0
ARC
  5
44
330
1F
100
AcDbEntity
  8
0
  6
Continuous
 62
     7
370
    15
100
AcDbCircle
 10
457.5757538063
 20
564.301068477
 30
0.0
 40
2.0
100
AcDbArc
 50
215.1660414519
 51
270.0
  0
ARC
  5
45
330
1F
100
AcDbEntity
  8
0
  6
Continuous
 62
     7
370
    15
100
AcDbCircle
 10
473.2056629587
 20
564.301068477
 30
0.0
 40
2.00000000000003
100
AcDbArc
 50
270.0
 51
323.0610817199
  0
LWPOLYLINE
  5
46
330
1F
100
AcDbEntity
  8
0
  6
Continuous
 62
     7
370
    15
100
AcDbPolyline
 90
        3
 70
   128
 43
0.0
 10
475.0931690613
 20
563.6397633117
 10
475.1878584901
 20
564.0347930949
 10
475.200509576
 20
564.4445303243
  0
LINE
  5
47
330
1F
100
AcDbEntity
  8
0
  6
Continuous
 62
     7
370
    15
100
AcDbLine
 10
456.8907077591
 20
568.7010619205
 30
0.0
 11
456.8907077591
 21
568.3010700505
 31
0.0
  0
LINE
  5
48
330
1F
100
AcDbEntity
  8
0
  6
Continuous
 62
     7
370
    15
100
AcDbLine
 10
473.8907086829
 20
568.3010700505
 30
0.0
 11
473.8907086829
 21
568.7010619205
 31
0.0
  0
ARC
  5
49
330
1F
100
AcDbEntity
  8
0
  6
Continuous
 62
     7
370
    15
100
AcDbCircle
 10
385.4557538063
 20
564.301068477
 30
0.0
 40
2.0
100
AcDbArc
 50
197.354016184
 51
270.0
  0
ARC
  5
4A
330
1F
100
AcDbEntity
  8
0
  6
Continuous
 62
     7
370
    15
100
AcDbCircle
 10
401.0856629587
 20
564.301068477
 30
0.0
 40
2.0
100
AcDbArc
 50
270.0
 51
319.8344135512
  0
LINE
  5
4B
330
1F
100
AcDbEntity
  8
0
  6
Continuous
 62
     7
370
    15
100
AcDbLine
 10
402.9724317769
 20
563.637662248
 30
0.0
 11
402.995191438
 21
563.7063416999
 31
0.0
  0
LINE
  5
4C
330
1F
100
AcDbEntity
  8
0
  6
Continuous
 62
     7
370
    15
100
AcDbLine
 10
384.7707080821
 20
568.7010619205
 30
0.0
 11
384.7707080821
 21
568.3010700505
 31
0.0
  0
LINE
  5
4D
330
1F
100
AcDbEntity
  8
0
  6
Continuous
 62
     7
370
    15
100
AcDbLine
 10
401.770709006
 20
568.3010700505
 30
0.0
 11
401.770709006
 21
568.7010619205
 31
0.0
  0
LWPOLYLINE
  5
4E
330
1F
100
AcDbEntity
  8
0
  6
Continuous
 62
     7
370
    15
100
AcDbPolyline
 90
        3
 70
   128
 43
0.0
 10
383.4697025994
 20
564.0652659696
 10
383.544934837
 20
563.7104991239
 10
383.5467937569
 20
563.7045237582
  0
LINE
  5
4F
330
1F
100
AcDbEntity
  8
0
  6
Continuous
 62
     7
370
    15
100
AcDbLine
 10
402.995191438
 20
563.7063416999
 30
0.0
 11
403.0697121451
 21
564.0489790004
 31
0.0
  0
LINE
  5
50
330
1F
100
AcDbEntity
  8
0
  6
Continuous
 62
     7
370
    15
100
AcDbLine
 10
448.5807082782
 20
684.5010700982
 30
0.0
 11
448.5807082782
 21
688.0010548394
 31
0.0
  0
LINE
  5
51
330
1F
100
AcDbEntity
  8
0
  6
Continuous
 62
     7
370
    15
100
AcDbLine
 10
410.0807084868
 20
688.0010548394
 30
0.0
 11
410.0807084868
 21
684.5010700982
 31
0.0
  0
LINE
  5
52
330
1F
100
AcDbEntity
  8
0
  6
Continuous
 62
     7
370
    15
100
AcDbLine
 10
448.5807082782
 20
688.0010548394
 30
0.0
 11
445.6807076166
 21
690.9010592263
 31
0.0
  0
LINE
  5
53
330
1F
100
AcDbEntity
  8
0
  6
Continuous
 62
     7
370
    15
100
AcDbLine
 10
412.9807091484
 20
690.9010592263
 30
0.0
 11
410.0807084868
 21
688.0010548394
 31
0.0
  0
LINE
  5
54
330
1F
100
AcDbEntity
  8
0
  6
Continuous
 62
     7
370
    15
100
AcDbLine
 10
441.8307085688
 20
682.7010694307
 30
0.0
 11
441.8307085688
 21
683.5010829728
 31
0.0
  0
LINE
  5
55
330
1F
100
AcDbEntity
  8
0
  6
Continuous
 62
     7
370
    15
100
AcDbLine
 10
416.8307081963
 20
683.5010829728
 30
0.0
 11
416.8307081963
 21
682.7010694307
 31
0.0
  0
LINE
  5
56
330
1F
100
AcDbEntity
  8
0
  6
Continuous
 62
     7
370
    15
100
AcDbLine
 10
416.8457080776
 20
683.9010599416
 30
0.0
 11
416.8457080776
 21
683.5010829728
 31
0.0
  0
LINE
  5
57
330
1F
100
AcDbEntity
  8
0
  6
Continuous
 62
     7
370
    15
100
AcDbLine
 10
441.8157086874
 20
683.5010829728
 30
0.0
 11
441.8157086874
 21
683.9010599416
 31
0.0
  0
LINE
  5
58
330
1F
100
AcDbEntity
  8
0
  6
Continuous
 62
     7
370
    15
100
AcDbLine
 10
441.1807087416
 20
683.9010599416
 30
0.0
 11
441.1807087416
 21
684.5010700982
 31
0.0
  0
LINE
  5
59
330
1F
100
AcDbEntity
  8
0
  6
Continuous
 62
     7
370
    15
100
AcDbLine
 10
417.4807080234
 20
684.5010700982
 30
0.0
 11
417.4807080234
 21
683.9010599416
 31
0.0
  0
LINE
  5
5A
330
1F
100
AcDbEntity
  8
0
  6
Continuous
 62
     7
370
    15
100
AcDbLine
 10
558.5429537276
 20
623.8010707658
 30
0.0
 11
558.8307100515
 21
624.3010643285
 31
0.0
  0
LINE
  5
5B
330
1F
100
AcDbEntity
  8
0
  6
Continuous
 62
     7
370
    15
100
AcDbLine
 10
558.8307100515
 20
639.3010798257
 30
0.0
 11
558.5429537276
 21
639.8010733884
 31
0.0
  0
LINE
  5
5C
330
1F
100
AcDbEntity
  8
0
  6
Continuous
 62
     7
370
    15
100
AcDbLine
 10
551.1184576134
 20
639.8010733884
 30
0.0
 11
550.8307087402
 21
639.3010798257
 31
0.0
  0
LINE
  5
5D
330
1F
100
AcDbEntity
  8
0
  6
Continuous
 62
     7
370
    15
100
AcDbLine
 10
550.8307087402
 20
624.3010643285
 30
0.0
 11
551.1184576134
 21
623.8010707658
 31
0.0
  0
LINE
  5
5E
330
1F
100
AcDbEntity
  8
0
  6
Continuous
 62
     7
370
    15
100
AcDbLine
 10
558.8307100515
 20
626.8010619443
 30
0.0
 11
560.630710719
 21
626.8010619443
 31
0.0
  0
LINE
  5
5F
330
1F
100
AcDbEntity
  8
0
  6
Continuous
 62
     7
370
    15
100
AcDbLine
 10
560.630710719
 20
636.8010822099
 30
0.0
 11
558.8307100515
 21
636.8010822099
 31
0.0
  0
LINE
  5
60
330
1F
100
AcDbEntity
  8
0
  6
Continuous
 62
     7
370
    15
100
AcDbLine
 10
560.630710719
 20
626.8010619443
 30
0.0
 11
561.1307042817
 21
627.301055507
 31
0.0
  0
LINE
  5
61
330
1F
100
AcDbEntity
  8
0
  6
Continuous
 62
     7
370
    15
100
AcDbLine
 10
561.1307042817
 20
636.3010588449
 30
0.0
 11
560.630710719
 21
636.8010822099
 31
0.0
  0
ARC
  5
62
330
1F
100
AcDbEntity
  8
0
  6
Continuous
 62
     7
370
    15
100
AcDbCircle
 10
456.836261882
 20
502.001068477
 30
0.0
 40
2.0
100
AcDbArc
 50
34.3297726759
 51
90.0
  0
ARC
  5
63
330
1F
100
AcDbEntity
  8
0
  6
Continuous
 62
     7
370
    15
100
AcDbCircle
 10
445.8251548831
 20
502.001068477
 30
0.0
 40
2.000000000000035
100
AcDbArc
 50
90.0
 51
146.2572377376
  0
LWPOLYLINE
  5
64
330
1F
100
AcDbEntity
  8
0
  6
Continuous
 62
     7
370
    15
100
AcDbPolyline
 90
        3
 70
   128
 43
0.0
 10
443.9291599373
 20
502.6376280349
 10
443.8427434469
 20
502.2657248538
 10
443.8304406757
 20
501.8557492059
  0
LINE
  5
65
330
1F
100
AcDbEntity
  8
0
  6
Continuous
 62
     7
370
    15
100
AcDbLine
 10
457.8307083974
 20
498.701069073
 30
0.0
 11
457.8307083974
 21
499.1010758441
 31
0.0
  0
LINE
  5
66
330
1F
100
AcDbEntity
  8
0
  6
Continuous
 62
     7
370
    15
100
AcDbLine
 10
444.8307081292
 20
499.1010758441
 30
0.0
 11
444.8307081292
 21
498.701069073
 31
0.0
  0
LINE
  5
67
330
1F
100
AcDbEntity
  8
0
  6
Continuous
 62
     7
370
    15
100
AcDbLine
 10
414.7783088664
 20
502.4790349763
 30
0.0
 11
414.6812147627
 21
502.7731689971
 31
0.0
  0
ARC
  5
68
330
1F
100
AcDbEntity
  8
0
  6
Continuous
 62
     7
370
    15
100
AcDbCircle
 10
412.836261882
 20
502.001068477
 30
0.0
 40
2.000000000000057
100
AcDbArc
 50
35.5577069742
 51
90.0
  0
ARC
  5
69
330
1F
100
AcDbEntity
  8
0
  6
Continuous
 62
     7
370
    15
100
AcDbCircle
 10
401.8251548831
 20
502.001068477
 30
0.0
 40
2.000000000000057
100
AcDbArc
 50
90.0
 51
165.9370840711
  0
LINE
  5
6A
330
1F
100
AcDbEntity
  8
0
  6
Continuous
 62
     7
370
    15
100
AcDbLine
 10
413.8307086358
 20
498.701069073
 30
0.0
 11
413.8307086358
 21
499.1010758441
 31
0.0
  0
LINE
  5
6B
330
1F
100
AcDbEntity
  8
0
  6
Continuous
 62
     7
370
    15
100
AcDbLine
 10
400.8307083676
 20
499.1010758441
 30
0.0
 11
400.8307083676
 21
498.701069073
 31
0.0
  0
LWPOLYLINE
  5
6C
330
1F
100
AcDbEntity
  8
0
  6
Continuous
 62
     7
370
    15
100
AcDbPolyline
 90
        3
 70
   128
 43
0.0
 10
399.8850955794
 20
502.4870368999
 10
399.842742754
 20
502.2657248538
 10
399.8251556585
 20
502.0010653299
  0
LINE
  5
6D
330
1F
100
AcDbEntity
  8
0
  6
Continuous
 62
     7
370
    15
100
AcDbLine
 10
409.3307088296
 20
513.1510678094
 30
0.0
 11
449.3307079355
 21
513.1510678094
 31
0.0
  0
LINE
  5
6E
330
1F
100
AcDbEntity
  8
0
  6
Continuous
 62
     7
370
    15
100
AcDbLine
 10
448.7307089547
 20
220.7510653299
 30
0.0
 11
409.9307078103
 21
220.7510653299
 31
0.0
  0
LINE
  5
6F
330
1F
100
AcDbEntity
  8
0
  6
Continuous
 62
     7
370
    15
100
AcDbLine
 10
409.9307078103
 20
217.2510656875
 30
0.0
 11
448.7307089547
 21
217.2510656875
 31
0.0
  0
LINE
  5
70
330
1F
100
AcDbEntity
  8
0
  6
Continuous
 62
     7
370
    15
100
AcDbLine
 10
444.7307082991
 20
213.2510724824
 30
0.0
 11
413.930708466
 21
213.2510724824
 31
0.0
  0
LINE
  5
71
330
1F
100
AcDbEntity
  8
0
  6
Continuous
 62
     7
370
    15
100
AcDbLine
 10
415.4307087118
 20
222.751069383
 30
0.0
 11
443.2307080532
 21
222.751069383
 31
0.0
  0
SPLINE
  5
72
330
1F
100
AcDbEntity
  8
0
  6
Continuous
 62
     7
370
    15
100
AcDbSpline
210
0.0
220
0.0
230
1.0
 70
     8
 71
     3
 72
     8
 73
     4
 74
     0
 42
0.00000001
 43
0.00000001
 40
0.0
 40
0.0
 40
0.0
 40
0.0
 40
0.0000226150302117
 40
0.0000226150302117
 40
0.0000226150302117
 40
0.0000226150302117
 10
439.0351633448167
 20
436.1496910667379
 30
0.0
 10
439.0399147091631
 20
436.1496759310893
 30
0.0
 10
439.0446615208153
 20
436.1495122562213
 30
0.0
 10
439.0493982170036
 20
436.1491994128548
 30
0.0
  0
SPLINE
  5
73
330
1F
100
AcDbEntity
  8
0
  6
Continuous
 62
     7
370
    15
100
AcDbSpline
210
0.0
220
0.0
230
1.0
 70
    24
 71
     3
 72
    14
 73
    10
 74
     0
 42
0.00000001
 43
0.00000001
 40
0.1393700509402423
 40
0.1393700509402423
 40
0.1393700509402423
 40
0.1393700509402423
 40
0.2500000000000002
 40
0.3750000000000002
 40
0.5000000000000003
 40
0.5000000000000003
 40
0.6250000000000002
 40
0.7500000000000002
 40
0.8606299490597575
 40
0.8606299490597575
 40
0.8606299490597575
 40
0.8606299490597575
 10
419.6261415086434
 20
436.1510684769776
 30
0.0
 10
420.3423814110318
 20
436.1510684769776
 30
0.0
 10
422.1250498181921
 20
436.1510684769777
 30
0.0
 10
425.4796942361397
 20
436.1510684769775
 30
0.0
 10
428.0469862290288
 20
436.1510684769776
 30
0.0
 10
430.6144305360244
 20
436.1510684769776
 30
0.0
 10
433.1817225289136
 20
436.1510684769776
 30
0.0
 10
436.5363669468613
 20
436.1510684769776
 30
0.0
 10
438.3190353540214
 20
436.1510684769776
 30
0.0
 10
439.0352752564099
 20
436.1510684769776
 30
0.0
  0
SPLINE
  5
74
330
1F
100
AcDbEntity
  8
0
  6
Continuous
 62
     7
370
    15
100
AcDbSpline
210
0.0
220
0.0
230
1.0
 70
     8
 71
     3
 72
     8
 73
     4
 74
     0
 42
0.00000001
 43
0.00000001
 40
0.0
 40
0.0
 40
0.0
 40
0.0
 40
0.0000226150302117
 40
0.0000226150302117
 40
0.0000226150302117
 40
0.0000226150302117
 10
419.6120185480497
 20
436.1491994128548
 30
0.0
 10
419.616755244238
 20
436.1495122562212
 30
0.0
 10
419.6215020558902
 20
436.1496759310893
 30
0.0
 10
419.6262534202365
 20
436.1496910667379
 30
0.0
  0
LINE
  5
75
330
1F
100
AcDbEntity
  8
0
  6
Continuous
 62
     7
370
    15
100
AcDbLine
 10
419.612018315
 20
454.8678356569
 30
0.0
 11
419.612018315
 21
436.1510682266
 31
0.0
  0
SPLINE
  5
76
330
1F
100
AcDbEntity
  8
0
  6
Continuous
 62
     7
370
    15
100
AcDbSpline
210
0.0
220
0.0
230
1.0
 70
     8
 71
     3
 72
    16
 73
    12
 74
     0
 42
0.00000001
 43
0.00000001
 40
0.0
 40
0.0
 40
0.0
 40
0.0
 40
0.1249999999999994
 40
0.1249999999999994
 40
0.2499999999999988
 40
0.2499999999999988
 40
0.4999999999999992
 40
0.4999999999999992
 40
0.7499999999999996
 40
0.7499999999999996
 40
1.0
 40
1.0
 40
1.0
 40
1.0
 10
417.0667735376251
 20
457.3919920825454
 30
0.0
 10
417.1211668396417
 20
457.3987513253161
 30
0.0
 10
417.1841653089851
 20
457.3807903927994
 30
0.0
 10
417.3265307783266
 20
457.305719457903
 30
0.0
 10
417.406384964255
 20
457.248079873597
 30
0.0
 10
417.6663754400432
 20
457.028556979965
 30
0.0
 10
417.8636832251787
 20
456.824162039429
 30
0.0
 10
418.2998727508473
 20
456.3450714273492
 30
0.0
 10
418.5395184204604
 20
456.068786205606
 30
0.0
 10
419.0494659061345
 20
455.4867360351165
 30
0.0
 10
419.322008546146
 20
455.1782215520746
 30
0.0
 10
419.6120185480497
 20
454.8678324155637
 30
0.0
  0
SPLINE
  5
77
330
1F
100
AcDbEntity
  8
0
  6
Continuous
 62
     7
370
    15
100
AcDbSpline
210
0.0
220
0.0
230
1.0
 70
     8
 71
     3
 72
    16
 73
    12
 74
     0
 42
0.00000001
 43
0.00000001
 40
0.0
 40
0.0
 40
0.0
 40
0.0
 40
0.1249999999999993
 40
0.1249999999999993
 40
0.2499999999999986
 40
0.2499999999999986
 40
0.499999999999999
 40
0.499999999999999
 40
0.7499999999999994
 40
0.7499999999999994
 40
1.0
 40
1.0
 40
1.0
 40
1.0
 10
441.594643227428
 20
457.3919920825454
 30
0.0
 10
441.5402499254114
 20
457.3987513253163
 30
0.0
 10
441.477251456068
 20
457.3807903927996
 30
0.0
 10
441.3348859867266
 20
457.3057194579031
 30
0.0
 10
441.2550318007982
 20
457.2480798735971
 30
0.0
 10
440.9950413250099
 20
457.0285569799651
 30
0.0
 10
440.7977335398745
 20
456.8241620394291
 30
0.0
 10
440.3615440142058
 20
456.3450714273493
 30
0.0
 10
440.1218983445928
 20
456.0687862056061
 30
0.0
 10
439.6119508589186
 20
455.4867360351166
 30
0.0
 10
439.3394082188923
 20
455.1782215521098
 30
0.0
 10
439.0493982170035
 20
454.8678324155638
 30
0.0
  0
LINE
  5
78
330
1F
100
AcDbEntity
  8
0
  6
Continuous
 62
     7
370
    15
100
AcDbLine
 10
439.0493984501
 20
436.1510682266
 30
0.0
 11
439.0493984501
 21
454.8678356569
 31
0.0
  0
LINE
  5
79
330
1F
100
AcDbEntity
  8
0
  6
Continuous
 62
     7
370
    15
100
AcDbLine
 10
418.8570509831
 20
458.1510681074
 30
0.0
 11
439.8043657819
 21
458.1510681074
 31
0.0
  0
SPLINE
  5
7A
330
1F
100
AcDbEntity
  8
0
  6
Continuous
 62
     7
370
    15
100
AcDbSpline
210
0.0
220
0.0
230
1.0
 70
     8
 71
     3
 72
    16
 73
    12
 74
     0
 42
0.00000001
 43
0.00000001
 40
0.0
 40
0.0
 40
0.0
 40
0.0
 40
0.1249999999999995
 40
0.1249999999999995
 40
0.249999999999999
 40
0.249999999999999
 40
0.4999999999999993
 40
0.4999999999999993
 40
0.7499999999999997
 40
0.7499999999999997
 40
1.0
 40
1.0
 40
1.0
 40
1.0
 10
417.0667735376258
 20
260.0101448714098
 30
0.0
 10
417.1211668396423
 20
260.003385628639
 30
0.0
 10
417.1841653089858
 20
260.0213465611558
 30
0.0
 10
417.3265307783272
 20
260.0964174960521
 30
0.0
 10
417.4063849642557
 20
260.1540570803582
 30
0.0
 10
417.6663754400439
 20
260.3735799739901
 30
0.0
 10
417.8636832251794
 20
260.5779749145262
 30
0.0
 10
418.299872750848
 20
261.057065526606
 30
0.0
 10
418.539518420461
 20
261.3333507483492
 30
0.0
 10
419.0494659061352
 20
261.9154009188387
 30
0.0
 10
419.322008546153
 20
262.2239154018655
 30
0.0
 10
419.6120185480503
 20
262.5343045383914
 30
0.0
  0
LINE
  5
7B
330
1F
100
AcDbEntity
  8
0
  6
Continuous
 62
     7
370
    15
100
AcDbLine
 10
419.612018315
 20
281.2510687273
 30
0.0
 11
419.612018315
 21
262.534301297
 31
0.0
  0
SPLINE
  5
7C
330
1F
100
AcDbEntity
  8
0
  6
Continuous
 62
     7
370
    15
100
AcDbSpline
210
0.0
220
0.0
230
1.0
 70
     8
 71
     3
 72
     8
 73
     4
 74
     0
 42
0.00000001
 43
0.00000001
 40
0.0
 40
0.0
 40
0.0
 40
0.0
 40
0.0000226150302116
 40
0.0000226150302116
 40
0.0000226150302116
 40
0.0000226150302116
 10
419.626253420237
 20
281.2524458872173
 30
0.0
 10
419.6215020558907
 20
281.2524610228659
 30
0.0
 10
419.6167552442385
 20
281.252624697734
 30
0.0
 10
419.6120185480502
 20
281.2529375411004
 30
0.0
  0
SPLINE
  5
7D
330
1F
100
AcDbEntity
  8
0
  6
Continuous
 62
     7
370
    15
100
AcDbSpline
210
0.0
220
0.0
230
1.0
 70
    24
 71
     3
 72
    22
 73
    18
 74
     0
 42
0.00000001
 43
0.00000001
 40
0.0
 40
0.0
 40
0.0
 40
0.0
 40
0.1249999999999999
 40
0.1249999999999999
 40
0.2499999999999999
 40
0.2499999999999999
 40
0.3749999999999999
 40
0.3749999999999999
 40
0.4999999999999999
 40
0.4999999999999999
 40
0.6249999999999999
 40
0.6249999999999999
 40
0.7499999999999999
 40
0.7499999999999999
 40
0.8749999999999999
 40
0.8749999999999999
 40
1.0
 40
1.0
 40
1.0
 40
1.0
 10
439.035165089051
 20
281.2510684769777
 30
0.0
 10
438.451575558252
 20
281.2510684769777
 30
0.0
 10
437.787814968562
 20
281.2510684769777
 30
0.0
 10
436.3324871907765
 20
281.2510684769777
 30
0.0
 10
435.5409790079028
 20
281.2510684769777
 30
0.0
 10
433.869071370908
 20
281.2510684769777
 30
0.0
 10
432.9887397030838
 20
281.2510684769777
 30
0.0
 10
431.1824718417823
 20
281.2510684769777
 30
0.0
 10
430.2566088821408
 20
281.2510684769777
 30
0.0
 10
428.4048078829136
 20
281.2510684769776
 30
0.0
 10
427.4789449232721
 20
281.2510684769777
 30
0.0
 10
425.6726770619705
 20
281.2510684769776
 30
0.0
 10
424.7923453941464
 20
281.2510684769777
 30
0.0
 10
423.1204377571516
 20
281.2510684769776
 30
0.0
 10
422.3289295742779
 20
281.2510684769776
 30
0.0
 10
420.8736017964924
 20
281.2510684769775
 30
0.0
 10
420.2098412068023
 20
281.2510684769776
 30
0.0
 10
419.6262516760034
 20
281.2510684769776
 30
0.0
  0
SPLINE
  5
7E
330
1F
100
AcDbEntity
  8
0
  6
Continuous
 62
     7
370
    15
100
AcDbSpline
210
0.0
220
0.0
230
1.0
 70
     8
 71
     3
 72
     8
 73
     4
 74
     0
 42
0.00000001
 43
0.00000001
 40
0.0
 40
0.0
 40
0.0
 40
0.0
 40
0.0000226150302117
 40
0.0000226150302117
 40
0.0000226150302117
 40
0.0000226150302117
 10
439.0493982170041
 20
281.2529375411005
 30
0.0
 10
439.0446615208159
 20
281.2526246977341
 30
0.0
 10
439.0399147091637
 20
281.2524610228659
 30
0.0
 10
439.0351633448173
 20
281.2524458872173
 30
0.0
  0
LINE
  5
7F
330
1F
100
AcDbEntity
  8
0
  6
Continuous
 62
     7
370
    15
100
AcDbLine
 10
439.0493984501
 20
262.534301297
 30
0.0
 11
439.0493984501
 21
281.2510687273
 31
0.0
  0
SPLINE
  5
80
330
1F
100
AcDbEntity
  8
0
  6
Continuous
 62
     7
370
    15
100
AcDbSpline
210
0.0
220
0.0
230
1.0
 70
     8
 71
     3
 72
    16
 73
    12
 74
     0
 42
0.00000001
 43
0.00000001
 40
0.0
 40
0.0
 40
0.0
 40
0.0
 40
0.1249999999999994
 40
0.1249999999999994
 40
0.2499999999999988
 40
0.2499999999999988
 40
0.4999999999999992
 40
0.4999999999999992
 40
0.7499999999999996
 40
0.7499999999999996
 40
1.0
 40
1.0
 40
1.0
 40
1.0
 10
441.5946432274288
 20
260.0101448714099
 30
0.0
 10
441.5402499254121
 20
260.0033856286391
 30
0.0
 10
441.4772514560686
 20
260.0213465611558
 30
0.0
 10
441.3348859867273
 20
260.0964174960522
 30
0.0
 10
441.2550318007989
 20
260.1540570803583
 30
0.0
 10
440.9950413250106
 20
260.3735799739902
 30
0.0
 10
440.7977335398751
 20
260.5779749145262
 30
0.0
 10
440.3615440142065
 20
261.0570655266061
 30
0.0
 10
440.1218983445934
 20
261.3333507483493
 30
0.0
 10
439.6119508589193
 20
261.9154009188388
 30
0.0
 10
439.3394082189121
 20
262.2239154018909
 30
0.0
 10
439.0493982170042
 20
262.5343045383916
 30
0.0
  0
LINE
  5
81
330
1F
100
AcDbEntity
  8
0
  6
Continuous
 62
     7
370
    15
100
AcDbLine
 10
418.8570509831
 20
259.2510688465
 30
0.0
 11
439.8043657819
 21
259.2510688465
 31
0.0
  0
SPLINE
  5
82
330
1F
100
AcDbEntity
  8
0
  6
Continuous
 62
     7
370
    15
100
AcDbSpline
210
0.0
220
0.0
230
1.0
 70
     8
 71
     3
 72
    44
 73
    40
 74
     0
 42
0.00000001
 43
0.00000001
 40
0.0
 40
0.0
 40
0.0
 40
0.0
 40
0.0624999999999997
 40
0.0624999999999997
 40
0.1249999999999993
 40
0.1249999999999993
 40
0.1874999999999989
 40
0.1874999999999989
 40
0.2499999999999987
 40
0.2499999999999987
 40
0.2812499999999985
 40
0.2812499999999985
 40
0.3124999999999983
 40
0.3124999999999983
 40
0.374999999999998
 40
0.374999999999998
 40
0.4374999999999977
 40
0.4374999999999977
 40
0.4999999999999974
 40
0.4999999999999974
 40
0.5624999999999972
 40
0.5624999999999972
 40
0.593749999999997
 40
0.593749999999997
 40
0.6249999999999969
 40
0.6249999999999969
 40
0.6874999999999967
 40
0.6874999999999967
 40
0.7187499999999966
 40
0.7187499999999966
 40
0.7499999999999964
 40
0.7499999999999964
 40
0.8124999999999973
 40
0.8124999999999973
 40
0.8749999999999982
 40
0.8749999999999982
 40
0.9374999999999991
 40
0.9374999999999991
 40
1.0
 40
1.0
 40
1.0
 40
1.0
 10
439.0352752637361
 20
281.2510684769777
 30
0.0
 10
438.9633344038078
 20
281.8767224798813
 30
0.0
 10
438.8459906522341
 20
282.4976273068672
 30
0.0
 10
438.5236480582383
 20
283.717243053975
 30
0.0
 10
438.3200842781385
 20
284.3086122066071
 30
0.0
 10
437.8224568025848
 20
285.4521054707857
 30
0.0
 10
437.528472253403
 20
286.0042624833965
 30
0.0
 10
436.837499472693
 20
287.0639109744149
 30
0.0
 10
436.4493034298355
 20
287.5544752477978
 30
0.0
 10
435.8036008452127
 20
288.2319482736902
 30
0.0
 10
435.5777540726365
 20
288.4480091264941
 30
0.0
 10
435.1041598395006
 20
288.8599875583413
 30
0.0
 10
434.8550491462038
 20
289.0567942406848
 30
0.0
 10
434.0870115178601
 20
289.6053702612618
 30
0.0
 10
433.5461504874637
 20
289.9180262446566
 30
0.0
 10
432.4036365702814
 20
290.4315202026103
 30
0.0
 10
431.7979342744391
 20
290.632752610707
 30
0.0
 10
430.5761269255311
 20
290.9011344597038
 30
0.0
 10
429.9541075747888
 20
290.9719590131061
 30
0.0
 10
428.6865607876179
 20
290.9703707307581
 30
0.0
 10
428.0640884313833
 20
290.8981074676274
 30
0.0
 10
427.1455318108084
 20
290.6938463284299
 30
0.0
 10
426.8406785774291
 20
290.6091341391234
 30
0.0
 10
426.2417873597931
 20
290.4087622445093
 30
0.0
 10
425.950165124927
 20
290.2940660206946
 30
0.0
 10
425.0976763289094
 20
289.9084285922324
 30
0.0
 10
424.5592554972524
 20
289.5958007207751
 30
0.0
 10
423.7943192107363
 20
289.0475385751164
 30
0.0
 10
423.5452858907444
 20
288.8502066810086
 30
0.0
 10
423.0721981177226
 20
288.4373713088678
 30
0.0
 10
422.8471500281346
 20
288.2213572298414
 30
0.0
 10
422.2049989835617
 20
287.5457708495915
 30
0.0
 10
421.820723246894
 20
287.0587927323297
 30
0.0
 10
421.1383965578771
 20
286.012842779151
 30
0.0
 10
420.8385683755823
 20
285.4515791114111
 30
0.0
 10
420.3394852048745
 20
284.3039922124774
 30
0.0
 10
420.1366265407339
 20
283.713097219521
 30
0.0
 10
419.8160939657938
 20
282.4999782696856
 30
0.0
 10
419.6980823611626
 20
281.8767224798913
 30
0.0
 10
419.6261415013182
 20
281.2510684769777
 30
0.0
  0
SPLINE
  5
83
330
1F
100
AcDbEntity
  8
0
  6
Continuous
 62
     7
370
    15
100
AcDbSpline
210
0.0
220
0.0
230
1.0
 70
     8
 71
     3
 72
    44
 73
    40
 74
     0
 42
0.00000001
 43
0.00000001
 40
0.0
 40
0.0
 40
0.0
 40
0.0
 40
0.0624999999999989
 40
0.0624999999999989
 40
0.1249999999999978
 40
0.1249999999999978
 40
0.1874999999999966
 40
0.1874999999999966
 40
0.2499999999999956
 40
0.2499999999999956
 40
0.2812499999999955
 40
0.2812499999999955
 40
0.3124999999999954
 40
0.3124999999999954
 40
0.3749999999999953
 40
0.3749999999999953
 40
0.4062499999999952
 40
0.4062499999999952
 40
0.4374999999999952
 40
0.4374999999999952
 40
0.4999999999999953
 40
0.4999999999999953
 40
0.5624999999999956
 40
0.5624999999999956
 40
0.6249999999999957
 40
0.6249999999999957
 40
0.6874999999999958
 40
0.6874999999999958
 40
0.7187499999999959
 40
0.7187499999999959
 40
0.7499999999999959
 40
0.7499999999999959
 40
0.812499999999997
 40
0.812499999999997
 40
0.874999999999998
 40
0.874999999999998
 40
0.937499999999999
 40
0.937499999999999
 40
1.0
 40
1.0
 40
1.0
 40
1.0
 10
419.6261415013176
 20
436.1510684769776
 30
0.0
 10
419.6981299857449
 20
435.5250002967358
 30
0.0
 10
419.8160939734726
 20
434.9021586486531
 30
0.0
 10
420.136626550727
 20
433.6890397031638
 30
0.0
 10
420.3394852158422
 20
433.0981447123116
 30
0.0
 10
420.8385683882001
 20
431.9505578174758
 30
0.0
 10
421.138396571105
 20
431.3892941519136
 30
0.0
 10
421.8207232605372
 20
430.3433442033235
 30
0.0
 10
422.2049989972467
 20
429.8563660882176
 30
0.0
 10
422.8471500415234
 20
429.1807797109014
 30
0.0
 10
423.0721981309616
 20
428.9647656328106
 30
0.0
 10
423.5452859035888
 20
428.5519302624611
 30
0.0
 10
423.7943192232285
 20
428.3545983693
 30
0.0
 10
424.5592555084174
 20
427.8063362263468
 30
0.0
 10
425.0976763390396
 20
427.4937083564138
 30
0.0
 10
425.9501651332907
 20
427.10807092984
 30
0.0
 10
426.241787367531
 20
426.993374706586
 30
0.0
 10
426.8406785838421
 20
426.7930028129568
 30
0.0
 10
427.1455318164084
 20
426.7082906241031
 30
0.0
 10
428.0640884346524
 20
426.5040294859543
 30
0.0
 10
428.6865607892815
 20
426.431766223195
 30
0.0
 10
429.9541075731244
 20
426.4301779408512
 30
0.0
 10
430.5761269222648
 20
426.5010024938856
 30
0.0
 10
431.7979342680808
 20
426.7693843415003
 30
0.0
 10
432.4036365624619
 20
426.9706167485623
 30
0.0
 10
433.5461504772838
 20
427.4841107039922
 30
0.0
 10
434.0870115066449
 20
427.7967666858585
 30
0.0
 10
434.8550491336621
 20
428.3453427037252
 30
0.0
 10
435.1041598266622
 20
428.5421493851684
 30
0.0
 10
435.5777540593618
 20
428.9541278151918
 30
0.0
 10
435.8036008317678
 20
429.1701886670394
 30
0.0
 10
436.4493034160362
 20
429.8476616899194
 30
0.0
 10
436.8374994586303
 20
430.3382259606566
 30
0.0
 10
437.5284722402521
 20
431.3978744477105
 30
0.0
 10
437.8224567900446
 20
431.9500314582723
 30
0.0
 10
438.32008426716
 20
433.0935247182045
 30
0.0
 10
438.5236480482048
 20
433.6848938686416
 30
0.0
 10
438.8459906444938
 20
434.9045096111817
 30
0.0
 10
438.9632867801091
 20
435.5250002966392
 30
0.0
 10
439.0352752637356
 20
436.1510684769776
 30
0.0
  0
SPLINE
  5
84
330
1F
100
AcDbEntity
  8
0
  6
Continuous
 62
     7
370
    15
100
AcDbSpline
210
0.0
220
0.0
230
1.0
 70
     8
 71
     3
 72
    18
 73
    14
 74
     0
 42
0.00000001
 43
0.00000001
 40
0.0
 40
0.0
 40
0.0
 40
0.0
 40
0.2500000000000001
 40
0.2500000000000001
 40
0.5000000000000001
 40
0.5000000000000001
 40
0.7500000000000002
 40
0.7500000000000002
 40
0.8750000000000002
 40
0.8750000000000002
 40
0.9375000000000001
 40
0.9375000000000001
 40
1.0
 40
1.0
 40
1.0
 40
1.0
 10
439.0493982170036
 20
436.1491994128548
 30
0.0
 10
439.5204532738724
 20
436.1180877595224
 30
0.0
 10
440.0470943714362
 20
436.0831812122786
 30
0.0
 10
441.2071633721826
 20
436.0058565283181
 30
0.0
 10
441.8483044678065
 20
435.9629157667824
 30
0.0
 10
443.1821438072035
 20
435.8729885635981
 30
0.0
 10
443.8793379872371
 20
435.8257081700713
 30
0.0
 10
444.9720198857986
 20
435.7510574168268
 30
0.0
 10
445.3400145560303
 20
435.725827847198
 30
0.0
 10
445.8943716243348
 20
435.6876789706619
 30
0.0
 10
446.0797250850644
 20
435.6749000615836
 30
0.0
 10
446.4515723941996
 20
435.6492149113797
 30
0.0
 10
446.640037391249
 20
435.6361695632277
 30
0.0
 10
446.8243500845853
 20
435.6233919410035
 30
0.0
  0
SPLINE
  5
85
330
1F
100
AcDbEntity
  8
0
  6
Continuous
 62
     7
370
    15
100
AcDbSpline
210
0.0
220
0.0
230
1.0
 70
     8
 71
     3
 72
    58
 73
    54
 74
     0
 42
0.00000001
 43
0.00000001
 40
0.0
 40
0.0
 40
0.0
 40
0.0
 40
0.015625
 40
0.015625
 40
0.0312500000000001
 40
0.0312500000000001
 40
0.0625000000000002
 40
0.0625000000000002
 40
0.1250000000000004
 40
0.1250000000000004
 40
0.1562500000000002
 40
0.1562500000000002
 40
0.1875
 40
0.1875
 40
0.2500000000000002
 40
0.2500000000000002
 40
0.2812500000000005
 40
0.2812500000000005
 40
0.3125000000000009
 40
0.3125000000000009
 40
0.3750000000000011
 40
0.3750000000000011
 40
0.4062500000000012
 40
0.4062500000000012
 40
0.4375000000000014
 40
0.4375000000000014
 40
0.5000000000000016
 40
0.5000000000000016
 40
0.5625000000000018
 40
0.5625000000000018
 40
0.593750000000002
 40
0.593750000000002
 40
0.6250000000000021
 40
0.6250000000000021
 40
0.6875000000000024
 40
0.6875000000000024
 40
0.7187500000000023
 40
0.7187500000000023
 40
0.7500000000000023
 40
0.7500000000000023
 40
0.8125000000000016
 40
0.8125000000000016
 40
0.8437500000000012
 40
0.8437500000000012
 40
0.8750000000000008
 40
0.8750000000000008
 40
0.9375000000000009
 40
0.9375000000000009
 40
0.9687500000000008
 40
0.9687500000000008
 40
0.9843750000000004
 40
0.9843750000000004
 40
1.0
 40
1.0
 40
1.0
 40
1.0
 10
446.8243500845851
 20
435.6233919410035
 30
0.0
 10
446.7857769510298
 20
435.3465787131321
 30
0.0
 10
446.7510443323588
 20
435.0690488345069
 30
0.0
 10
446.6682824572836
 20
434.5165870910467
 30
0.0
 10
446.6212110527439
 20
434.2414853394019
 30
0.0
 10
446.4632816186999
 20
433.4194967702697
 30
0.0
 10
446.3357721847169
 20
432.8759139760266
 30
0.0
 10
445.8867063743682
 20
431.2583681717737
 30
0.0
 10
445.5040376527896
 20
430.2155268212248
 30
0.0
 10
444.8068493601738
 20
428.7092522334848
 30
0.0
 10
444.5536945202522
 20
428.2166277986839
 30
0.0
 10
444.0042278133878
 20
427.2510608367466
 30
0.0
 10
443.7065914013186
 20
426.7762553629452
 30
0.0
 10
442.7545818833005
 20
425.3972083669146
 30
0.0
 10
442.0471369599936
 20
424.5443017600367
 30
0.0
 10
440.8753074484829
 20
423.3660026821061
 30
0.0
 10
440.4661521365798
 20
422.9901727505691
 30
0.0
 10
439.6090451483336
 20
422.2739431923879
 30
0.0
 10
439.1619927854849
 20
421.9346936886153
 30
0.0
 10
437.7881235075995
 20
420.9914313906983
 30
0.0
 10
436.8207223602331
 20
420.4544370575334
 30
0.0
 10
435.2892588777062
 20
419.792298578453
 30
0.0
 10
434.7622788906265
 20
419.5947637528126
 30
0.0
 10
433.6997865940804
 20
419.256595549914
 30
0.0
 10
433.1636255288868
 20
419.1152898382341
 30
0.0
 10
431.5404994125597
 20
418.7741323441829
 30
0.0
 10
430.4387324723431
 20
418.6560049048998
 30
0.0
 10
428.1944122144141
 20
418.6580282211091
 30
0.0
 10
427.0916999804157
 20
418.7780493675259
 30
0.0
 10
425.4646499968752
 20
419.1234173403404
 30
0.0
 10
424.9268447187126
 20
419.2663509444973
 30
0.0
 10
423.8604303744913
 20
419.6084934720055
 30
0.0
 10
423.3377392282357
 20
419.8059816919129
 30
0.0
 10
421.8141670511521
 20
420.4684184528203
 30
0.0
 10
420.8510960316909
 20
421.0049613545801
 30
0.0
 10
419.4826484540084
 20
421.9470927354998
 30
0.0
 10
419.0379750535594
 20
422.2852050616087
 30
0.0
 10
418.1801654089259
 20
423.0035854959048
 30
0.0
 10
417.7716206777296
 20
423.3797832750634
 30
0.0
 10
416.6036836233209
 20
424.5565732373302
 30
0.0
 10
415.9015747382243
 20
425.4050164649238
 30
0.0
 10
414.9590236295566
 20
426.7700799189853
 30
0.0
 10
414.6634063075151
 20
427.2406102776266
 30
0.0
 10
414.1095705070279
 20
428.2129116778619
 30
0.0
 10
413.8546187703699
 20
428.7090247019731
 30
0.0
 10
413.1550419065269
 20
430.2208100239259
 30
0.0
 10
412.7738112113371
 20
431.2618865371256
 30
0.0
 10
412.3266526219827
 20
432.8721434976378
 30
0.0
 10
412.1984272744041
 20
433.4180825640157
 30
0.0
 10
412.0402680323871
 20
434.2411079532534
 30
0.0
 10
411.9931584072352
 20
434.5164320285223
 30
0.0
 10
411.9103667381744
 20
435.0690810394791
 30
0.0
 10
411.8756405629422
 20
435.3465733386504
 30
0.0
 10
411.8370666804682
 20
435.6233919410034
 30
0.0
  0
SPLINE
  5
86
330
1F
100
AcDbEntity
  8
0
  6
Continuous
 62
     7
370
    15
100
AcDbSpline
210
0.0
220
0.0
230
1.0
 70
     8
 71
     3
 72
    18
 73
    14
 74
     0
 42
0.00000001
 43
0.00000001
 40
0.0
 40
0.0
 40
0.0
 40
0.0
 40
0.2499999999999996
 40
0.2499999999999996
 40
0.4999999999999992
 40
0.4999999999999992
 40
0.7499999999999989
 40
0.7499999999999989
 40
0.8749999999999992
 40
0.8749999999999992
 40
0.9374999999999996
 40
0.9374999999999996
 40
1.0
 40
1.0
 40
1.0
 40
1.0
 10
419.6120185480497
 20
436.1491994128548
 30
0.0
 10
419.140962002184
 20
436.1180876611789
 30
0.0
 10
418.6143211849104
 20
436.0831811312139
 30
0.0
 10
417.4542589584513
 20
436.0058568997912
 30
0.0
 10
416.8131156987171
 20
435.9629159958367
 30
0.0
 10
415.4792715178607
 20
435.8729884667865
 30
0.0
 10
414.7820832441345
 20
435.8257084682693
 30
0.0
 10
413.6894268337669
 20
435.7510594667517
 30
0.0
 10
413.3214139334184
 20
435.7258286527605
 30
0.0
 10
412.7670505613882
 20
435.6876793443456
 30
0.0
 10
412.5816953875395
 20
435.6749003174749
 30
0.0
 10
412.2098454467227
 20
435.6492149859079
 30
0.0
 10
412.0213787266869
 20
435.6361695182923
 30
0.0
 10
411.8370666804681
 20
435.6233919410033
 30
0.0
  0
SPLINE
  5
87
330
1F
100
AcDbEntity
  8
0
  6
Continuous
 62
     7
370
    15
100
AcDbSpline
210
0.0
220
0.0
230
1.0
 70
     8
 71
     3
 72
    18
 73
    14
 74
     0
 42
0.00000001
 43
0.00000001
 40
0.0
 40
0.0
 40
0.0
 40
0.0
 40
0.2499999999999996
 40
0.2499999999999996
 40
0.4999999999999991
 40
0.4999999999999991
 40
0.7499999999999987
 40
0.7499999999999987
 40
0.8749999999999989
 40
0.8749999999999989
 40
0.9374999999999994
 40
0.9374999999999994
 40
1.0
 40
1.0
 40
1.0
 40
1.0
 10
419.6120185480502
 20
281.2529375411005
 30
0.0
 10
419.1409634911815
 20
281.2840491944329
 30
0.0
 10
418.6143223936176
 20
281.3189557416766
 30
0.0
 10
417.4542533928712
 20
281.396280425637
 30
0.0
 10
416.8131122972474
 20
281.4392211871729
 30
0.0
 10
415.4792729578503
 20
281.5291483903572
 30
0.0
 10
414.7820787778169
 20
281.5764287838841
 30
0.0
 10
413.6893968792553
 20
281.6510795371286
 30
0.0
 10
413.3214022090229
 20
281.6763091067479
 30
0.0
 10
412.7670451407183
 20
281.7144579832806
 30
0.0
 10
412.5816916799893
 20
281.7272368923685
 30
0.0
 10
412.2098443708538
 20
281.7529220425691
 30
0.0
 10
412.0213793738102
 20
281.7659673908034
 30
0.0
 10
411.8370666804686
 20
281.7787450129518
 30
0.0
  0
SPLINE
  5
88
330
1F
100
AcDbEntity
  8
0
  6
Continuous
 62
     7
370
    15
100
AcDbSpline
210
0.0
220
0.0
230
1.0
 70
     8
 71
     3
 72
    58
 73
    54
 74
     0
 42
0.00000001
 43
0.00000001
 40
0.0
 40
0.0
 40
0.0
 40
0.0
 40
0.0156249999999997
 40
0.0156249999999997
 40
0.0312499999999993
 40
0.0312499999999993
 40
0.0624999999999987
 40
0.0624999999999987
 40
0.1249999999999974
 40
0.1249999999999974
 40
0.1562499999999972
 40
0.1562499999999972
 40
0.1874999999999969
 40
0.1874999999999969
 40
0.2499999999999964
 40
0.2499999999999964
 40
0.2812499999999961
 40
0.2812499999999961
 40
0.3124999999999959
 40
0.3124999999999959
 40
0.3749999999999959
 40
0.3749999999999959
 40
0.4062499999999959
 40
0.4062499999999959
 40
0.4374999999999959
 40
0.4374999999999959
 40
0.499999999999996
 40
0.499999999999996
 40
0.5624999999999961
 40
0.5624999999999961
 40
0.5937499999999961
 40
0.5937499999999961
 40
0.6249999999999961
 40
0.6249999999999961
 40
0.6874999999999964
 40
0.6874999999999964
 40
0.7187499999999966
 40
0.7187499999999966
 40
0.7499999999999967
 40
0.7499999999999967
 40
0.8124999999999969
 40
0.8124999999999969
 40
0.843749999999997
 40
0.843749999999997
 40
0.8749999999999971
 40
0.8749999999999971
 40
0.9374999999999982
 40
0.9374999999999982
 40
0.9687499999999991
 40
0.9687499999999991
 40
0.9843749999999996
 40
0.9843749999999996
 40
1.0
 40
1.0
 40
1.0
 40
1.0
 10
411.8370666804687
 20
281.7787450129518
 30
0.0
 10
411.8756409495242
 20
282.0555663895375
 30
0.0
 10
411.9103674532291
 20
282.333061473116
 30
0.0
 10
411.9931601813606
 20
282.8857159824787
 30
0.0
 10
412.0402704489596
 20
283.1610427871807
 30
0.0
 10
412.1984319515645
 20
283.9840763063697
 30
0.0
 10
412.326659248821
 20
284.5300206810655
 30
0.0
 10
412.7738248458595
 20
286.1402927937675
 30
0.0
 10
413.1550618297863
 20
287.1813787776346
 30
0.0
 10
413.8546508751972
 20
288.693177233378
 30
0.0
 10
414.1096074832138
 20
289.1892950537984
 30
0.0
 10
414.6634525884517
 20
290.1616030621808
 30
0.0
 10
414.959074923167
 20
290.6321364239245
 30
0.0
 10
415.9016421814116
 20
291.9972079587687
 30
0.0
 10
416.6037632752184
 20
292.8456553687211
 30
0.0
 10
417.7717213109338
 20
294.0224493756418
 30
0.0
 10
418.1802734856002
 20
294.398648127366
 30
0.0
 10
419.0380990924107
 20
295.1170296086064
 30
0.0
 10
419.4827784648243
 20
295.4551401083964
 30
0.0
 10
420.8512474422571
 20
296.3972670742196
 30
0.0
 10
421.8143337219612
 20
296.9338052408313
 30
0.0
 10
423.3379307357407
 20
297.596231389719
 30
0.0
 10
423.8606322346414
 20
297.793715981502
 30
0.0
 10
424.9270596691198
 20
298.1358472340937
 30
0.0
 10
425.4648715675585
 20
298.278774740933
 30
0.0
 10
427.0919416935794
 20
298.6241226982568
 30
0.0
 10
428.1946677195673
 20
298.7441282755755
 30
0.0
 10
430.4390167814065
 20
298.7461129883378
 30
0.0
 10
431.5407849000696
 20
298.6279653038292
 30
0.0
 10
433.163921985764
 20
298.2867744509089
 30
0.0
 10
433.700086618079
 20
298.1454571147003
 30
0.0
 10
434.7625858090788
 20
297.8072643074943
 30
0.0
 10
435.2895661320061
 20
297.6097175185368
 30
0.0
 10
436.8210287320345
 20
296.9475434507382
 30
0.0
 10
437.7884286695891
 20
296.4105242831378
 30
0.0
 10
439.1622945688699
 20
295.4672219438334
 30
0.0
 10
439.6093461632565
 20
295.1279578959961
 30
0.0
 10
440.4664438111383
 20
294.4117047853779
 30
0.0
 10
440.8755943275759
 20
294.0358629632084
 30
0.0
 10
442.0474087523876
 20
292.8575275738392
 30
0.0
 10
442.7548426918686
 20
292.0045959136534
 30
0.0
 10
443.7068330861747
 20
290.6255089194316
 30
0.0
 10
444.0044597787806
 20
290.1506943819434
 30
0.0
 10
444.5539085855959
 20
289.1851070685317
 30
0.0
 10
444.8070543415582
 20
288.6924723969123
 30
0.0
 10
445.5042145927075
 20
287.1861667386221
 30
0.0
 10
445.8868675817346
 20
286.1432897723349
 30
0.0
 10
446.3358939351202
 20
284.5257335642216
 30
0.0
 10
446.4633787580626
 20
283.982188809499
 30
0.0
 10
446.6212690473953
 20
283.1603226298804
 30
0.0
 10
446.6683270242962
 20
282.8852725930088
 30
0.0
 10
446.7510639228104
 20
282.3329371022589
 30
0.0
 10
446.7857900183451
 20
282.0554644655641
 30
0.0
 10
446.8243500845857
 20
281.7787450129518
 30
0.0
  0
SPLINE
  5
89
330
1F
100
AcDbEntity
  8
0
  6
Continuous
 62
     7
370
    15
100
AcDbSpline
210
0.0
220
0.0
230
1.0
 70
     8
 71
     3
 72
    18
 73
    14
 74
     0
 42
0.00000001
 43
0.00000001
 40
0.0
 40
0.0
 40
0.0
 40
0.0
 40
0.2500000000000002
 40
0.2500000000000002
 40
0.5000000000000004
 40
0.5000000000000004
 40
0.7500000000000007
 40
0.7500000000000007
 40
0.8750000000000002
 40
0.8750000000000002
 40
0.9375000000000001
 40
0.9375000000000001
 40
1.0
 40
1.0
 40
1.0
 40
1.0
 10
439.0493982170041
 20
281.2529375411005
 30
0.0
 10
439.5204547628698
 20
281.2840492927763
 30
0.0
 10
440.0470955801434
 20
281.3189558227413
 30
0.0
 10
441.2071578066027
 20
281.3962800541639
 30
0.0
 10
441.8483010663368
 20
281.4392209581188
 30
0.0
 10
443.1821452471934
 20
281.529148487169
 30
0.0
 10
443.8793335209196
 20
281.5764284856863
 30
0.0
 10
444.9719899312872
 20
281.6510774872042
 30
0.0
 10
445.340002831635
 20
281.6763083012048
 30
0.0
 10
445.894366203665
 20
281.7144576096239
 30
0.0
 10
446.0797213775147
 20
281.7272366364804
 30
0.0
 10
446.4515713183315
 20
281.7529219680473
 30
0.0
 10
446.6400380383726
 20
281.7659674355886
 30
0.0
 10
446.8243500845862
 20
281.7787450129519
 30
0.0
  0
SPLINE
  5
8A
330
1F
100
AcDbEntity
  8
0
  6
Continuous
 62
     7
370
    15
100
AcDbSpline
210
0.0
220
0.0
230
1.0
 70
     8
 71
     3
 72
    10
 73
     6
 74
     0
 42
0.00000001
 43
0.00000001
 40
0.0
 40
0.0
 40
0.0
 40
0.0
 40
0.5
 40
0.5
 40
1.0
 40
1.0
 40
1.0
 40
1.0
 10
441.594643227428
 20
457.3919920825454
 30
0.0
 10
442.5068608704689
 20
457.2786343660513
 30
0.0
 10
443.4636416575147
 20
457.1465678545739
 30
0.0
 10
445.3941034080312
 20
456.8500546709988
 30
0.0
 10
446.373963596241
 20
456.6850092525951
 30
0.0
 10
447.3684757984905
 20
456.5015871189951
 30
0.0
  0
LWPOLYLINE
  5
8B
330
1F
100
AcDbEntity
  8
0
  6
Continuous
 62
     7
370
    15
100
AcDbPolyline
 90
        9
 70
   128
 43
0.0
 10
447.3684764634
 20
456.5015840691
 10
447.3580214361
 20
456.4449000519
 10
447.3270568232
 20
456.2770161193
 10
447.2767747174
 20
456.0043844741
 10
447.2091048191
 20
455.6374806326
 10
447.1266492436
 20
455.1904085439
 10
447.032578213
 20
454.6803566974
 10
446.9305033962
 20
454.1269052189
 10
446.8243493865
 20
453.5513478678
  0
SPLINE
  5
8C
330
1F
100
AcDbEntity
  8
0
  6
Continuous
 62
     7
370
    15
100
AcDbSpline
210
0.0
220
0.0
230
1.0
 70
     8
 71
     3
 72
    16
 73
    12
 74
     0
 42
0.00000001
 43
0.00000001
 40
0.0
 40
0.0
 40
0.0
 40
0.0
 40
0.2500000000000007
 40
0.2500000000000007
 40
0.3750000000000006
 40
0.3750000000000006
 40
0.5000000000000006
 40
0.5000000000000006
 40
0.7500000000000002
 40
0.7500000000000002
 40
1.0
 40
1.0
 40
1.0
 40
1.0
 10
446.8243500845851
 20
453.5513452293415
 30
0.0
 10
446.0879374731688
 20
453.7279108699818
 30
0.0
 10
445.3616461649445
 20
453.8870708836179
 30
0.0
 10
444.2875949101451
 20
454.1018116665869
 30
0.0
 10
443.9321695676348
 20
454.1693839488127
 30
0.0
 10
443.2268955699075
 20
454.296792680065
 30
0.0
 10
442.8818884045959
 20
454.3557409501058
 30
0.0
 10
441.8779252264309
 20
454.5184728149216
 30
0.0
 10
441.2459020351893
 20
454.608886908988
 30
0.0
 10
440.0612402616256
 20
454.7608592135524
 30
0.0
 10
439.52492694633
 20
454.8203517908036
 30
0.0
 10
439.0493982170035
 20
454.8678324155638
 30
0.0
  0
LINE
  5
8D
330
1F
100
AcDbEntity
  8
0
  6
Continuous
 62
     7
370
    15
100
AcDbLine
 10
446.8243493865
 20
453.5513478678
 30
0.0
 11
446.8243493865
 21
435.6233883064
 31
0.0
  0
SPLINE
  5
8E
330
1F
100
AcDbEntity
  8
0
  6
Continuous
 62
     7
370
    15
100
AcDbSpline
210
0.0
220
0.0
230
1.0
 70
     8
 71
     3
 72
    10
 73
     6
 74
     0
 42
0.00000001
 43
0.00000001
 40
0.0
 40
0.0
 40
0.0
 40
0.0
 40
0.5
 40
0.5
 40
1.0
 40
1.0
 40
1.0
 40
1.0
 10
417.0667735376258
 20
260.0101448714098
 30
0.0
 10
416.1545558945849
 20
260.1235025879039
 30
0.0
 10
415.1977751075391
 20
260.2555690993814
 30
0.0
 10
413.2673133570226
 20
260.5520822829565
 30
0.0
 10
412.2874531688128
 20
260.7171277013601
 30
0.0
 10
411.2929409665634
 20
260.9005498349602
 30
0.0
  0
LWPOLYLINE
  5
8F
330
1F
100
AcDbEntity
  8
0
  6
Continuous
 62
     7
370
    15
100
AcDbPolyline
 90
        9
 70
   128
 43
0.0
 10
411.2929403017
 20
260.9005528849
 10
411.3033953289
 20
260.9572369021
 10
411.3343599419
 20
261.1251208347
 10
411.3846420477
 20
261.3977524799
 10
411.452311946
 20
261.7646563213
 10
411.5347675214
 20
262.2117284101
 10
411.628838552
 20
262.7217802566
 10
411.7309133689
 20
263.2752317351
 10
411.8370673786
 20
263.8507890862
  0
SPLINE
  5
90
330
1F
100
AcDbEntity
  8
0
  6
Continuous
 62
     7
370
    15
100
AcDbSpline
210
0.0
220
0.0
230
1.0
 70
     8
 71
     3
 72
    16
 73
    12
 74
     0
 42
0.00000001
 43
0.00000001
 40
0.0
 40
0.0
 40
0.0
 40
0.0
 40
0.2499999999999994
 40
0.2499999999999994
 40
0.3749999999999995
 40
0.3749999999999995
 40
0.4999999999999997
 40
0.4999999999999997
 40
0.7499999999999998
 40
0.7499999999999998
 40
1.0
 40
1.0
 40
1.0
 40
1.0
 10
411.8370666804688
 20
263.8507917246138
 30
0.0
 10
412.573479291885
 20
263.6742260839735
 30
0.0
 10
413.2997706001093
 20
263.5150660703375
 30
0.0
 10
414.3738218549087
 20
263.3003252873684
 30
0.0
 10
414.7292471974189
 20
263.2327530051426
 30
0.0
 10
415.4345211951463
 20
263.1053442738902
 30
0.0
 10
415.779528360458
 20
263.0463960038495
 30
0.0
 10
416.7834915386229
 20
262.8836641390336
 30
0.0
 10
417.4155147298645
 20
262.7932500449672
 30
0.0
 10
418.6001765034283
 20
262.6412777404029
 30
0.0
 10
419.1364898187239
 20
262.5817851631517
 30
0.0
 10
419.6120185480503
 20
262.5343045383914
 30
0.0
  0
LINE
  5
91
330
1F
100
AcDbEntity
  8
0
  6
Continuous
 62
     7
370
    15
100
AcDbLine
 10
411.8370673786
 20
263.8507890862
 30
0.0
 11
411.8370673786
 21
281.7787486475
 31
0.0
  0
SPLINE
  5
92
330
1F
100
AcDbEntity
  8
0
  6
Continuous
 62
     7
370
    15
100
AcDbSpline
210
0.0
220
0.0
230
1.0
 70
     8
 71
     3
 72
    10
 73
     6
 74
     0
 42
0.00000001
 43
0.00000001
 40
0.0
 40
0.0
 40
0.0
 40
0.0
 40
0.5
 40
0.5
 40
1.0
 40
1.0
 40
1.0
 40
1.0
 10
411.2929409665626
 20
456.501587118995
 30
0.0
 10
412.2872772662714
 20
456.6849768101381
 30
0.0
 10
413.2671385702164
 20
456.8500276787314
 30
0.0
 10
415.1979209407901
 20
457.1465903996592
 30
0.0
 10
416.1547241113115
 20
457.2786552696856
 30
0.0
 10
417.0667735376251
 20
457.3919920825454
 30
0.0
  0
SPLINE
  5
93
330
1F
100
AcDbEntity
  8
0
  6
Continuous
 62
     7
370
    15
100
AcDbSpline
210
0.0
220
0.0
230
1.0
 70
     8
 71
     3
 72
    16
 73
    12
 74
     0
 42
0.00000001
 43
0.00000001
 40
0.0
 40
0.0
 40
0.0
 40
0.0
 40
0.2500000000000001
 40
0.2500000000000001
 40
0.5000000000000002
 40
0.5000000000000002
 40
0.625
 40
0.625
 40
0.7499999999999999
 40
0.7499999999999999
 40
1.0
 40
1.0
 40
1.0
 40
1.0
 10
419.6120185480497
 20
454.8678324155637
 30
0.0
 10
419.1364797085425
 20
454.8203507813215
 30
0.0
 10
418.5999536317926
 20
454.7608319424187
 30
0.0
 10
417.4154869220365
 20
454.6088820218573
 30
0.0
 10
416.7836526271173
 20
454.5184933328948
 30
0.0
 10
415.7801468616356
 20
454.3558439961044
 30
0.0
 10
415.4356554136863
 20
454.2969916002125
 30
0.0
 10
414.7299896908256
 20
454.1695240434183
 30
0.0
 10
414.3743984013671
 20
454.1019240713275
 30
0.0
 10
413.2999401413242
 20
453.887110510126
 30
0.0
 10
412.5734975490407
 20
453.7279152474006
 30
0.0
 10
411.8370666804681
 20
453.5513452293414
 30
0.0
  0
LWPOLYLINE
  5
94
330
1F
100
AcDbEntity
  8
0
  6
Continuous
 62
     7
370
    15
100
AcDbPolyline
 90
        9
 70
   128
 43
0.0
 10
411.2929403017
 20
456.5015840691
 10
411.3033953289
 20
456.4449000519
 10
411.3343599419
 20
456.2770161193
 10
411.3846420477
 20
456.0043844741
 10
411.452311946
 20
455.6374806326
 10
411.5347675214
 20
455.1904085439
 10
411.628838552
 20
454.6803566974
 10
411.7309133689
 20
454.1269052189
 10
411.8370673786
 20
453.5513478678
  0
SPLINE
  5
95
330
1F
100
AcDbEntity
  8
0
  6
Continuous
 62
     7
370
    15
100
AcDbSpline
210
0.0
220
0.0
230
1.0
 70
     8
 71
     3
 72
    10
 73
     6
 74
     0
 42
0.00000001
 43
0.00000001
 40
0.0
 40
0.0
 40
0.0
 40
0.0
 40
0.5
 40
0.5
 40
1.0
 40
1.0
 40
1.0
 40
1.0
 10
447.3684757984911
 20
260.9005498349603
 30
0.0
 10
446.3741394987825
 20
260.7171601438172
 30
0.0
 10
445.3942781948373
 20
260.5521092752239
 30
0.0
 10
443.4634958242637
 20
260.2555465542961
 30
0.0
 10
442.5066926537423
 20
260.1234816842697
 30
0.0
 10
441.5946432274288
 20
260.0101448714099
 30
0.0
  0
SPLINE
  5
96
330
1F
100
AcDbEntity
  8
0
  6
Continuous
 62
     7
370
    15
100
AcDbSpline
210
0.0
220
0.0
230
1.0
 70
     8
 71
     3
 72
    16
 73
    12
 74
     0
 42
0.00000001
 43
0.00000001
 40
0.0
 40
0.0
 40
0.0
 40
0.0
 40
0.2499999999999997
 40
0.2499999999999997
 40
0.4999999999999994
 40
0.4999999999999994
 40
0.6249999999999994
 40
0.6249999999999994
 40
0.7499999999999993
 40
0.7499999999999993
 40
1.0
 40
1.0
 40
1.0
 40
1.0
 10
439.0493982170042
 20
262.5343045383916
 30
0.0
 10
439.5249370565112
 20
262.5817861726337
 30
0.0
 10
440.0614631332612
 20
262.6413050115366
 30
0.0
 10
441.2459298430173
 20
262.793254932098
 30
0.0
 10
441.8777641379365
 20
262.8836436210603
 30
0.0
 10
442.8812699034182
 20
263.0462929578509
 30
0.0
 10
443.2257613513676
 20
263.1051453537428
 30
0.0
 10
443.9314270742282
 20
263.2326129105369
 30
0.0
 10
444.2870183636867
 20
263.3002128826277
 30
0.0
 10
445.3614766237296
 20
263.5150264438293
 30
0.0
 10
446.0879192160132
 20
263.6742217065547
 30
0.0
 10
446.8243500845857
 20
263.8507917246139
 30
0.0
  0
LWPOLYLINE
  5
97
330
1F
100
AcDbEntity
  8
0
  6
Continuous
 62
     7
370
    15
100
AcDbPolyline
 90
        9
 70
   128
 43
0.0
 10
447.3684764634
 20
260.9005528849
 10
447.3580214361
 20
260.9572369021
 10
447.3270568232
 20
261.1251208347
 10
447.2767747174
 20
261.3977524799
 10
447.2091048191
 20
261.7646563213
 10
447.1266492436
 20
262.2117284101
 10
447.032578213
 20
262.7217802566
 10
446.9305033962
 20
263.2752317351
 10
446.8243493865
 20
263.8507890862
  0
LINE
  5
98
330
1F
100
AcDbEntity
  8
0
  6
Continuous
 62
     7
370
    15
100
AcDbLine
 10
411.8370673786
 20
435.6233883064
 30
0.0
 11
411.8370673786
 21
453.5513478678
 31
0.0
  0
LINE
  5
99
330
1F
100
AcDbEntity
  8
0
  6
Continuous
 62
     7
370
    15
100
AcDbLine
 10
446.8243493865
 20
281.7787486475
 30
0.0
 11
446.8243493865
 21
263.8507890862
 31
0.0
  0
ARC
  5
9A
330
1F
100
AcDbEntity
  8
0
  6
Continuous
 62
     7
370
    15
100
AcDbCircle
 10
429.3307083825
 20
358.701068477
 30
0.0
 40
96.45000000000002
100
AcDbArc
 50
100.4498737771
 51
259.5501262229
  0
ARC
  5
9B
330
1F
100
AcDbEntity
  8
0
  6
Continuous
 62
     7
370
    15
100
AcDbCircle
 10
429.3307083825
 20
358.701068477
 30
0.0
 40
96.45000000000003
100
AcDbArc
 50
280.4498737771
 51
79.5501262229
  0
ARC
  5
9C
330
1F
100
AcDbEntity
  8
0
  6
Continuous
 62
     7
370
    15
100
AcDbCircle
 10
429.3307083825
 20
358.701068477
 30
0.0
 40
99.45
100
AcDbArc
 50
280.4498737771
 51
79.5501262229
  0
ARC
  5
9D
330
1F
100
AcDbEntity
  8
0
  6
Continuous
 62
     7
370
    15
100
AcDbCircle
 10
429.3307083825
 20
358.701068477
 30
0.0
 40
99.45
100
AcDbArc
 50
100.4498737771
 51
259.5501262229
  0
CIRCLE
  5
9E
330
1F
100
AcDbEntity
  8
0
  6
Continuous
 62
     7
370
    15
100
AcDbCircle
 10
429.3307083825
 20
358.701068477
 30
0.0
 40
100.5
  0
CIRCLE
  5
9F
330
1F
100
AcDbEntity
  8
0
  6
Continuous
 62
     7
370
    15
100
AcDbCircle
 10
429.3307083825
 20
358.701068477
 30
0.0
 40
100.0000000000001
  0
CIRCLE
  5
A0
330
1F
100
AcDbEntity
  8
0
  6
Continuous
 62
     7
370
    15
100
AcDbCircle
 10
369.3307083825
 20
254.7780200228
 30
0.0
 40
5.499999999999943
  0
CIRCLE
  5
A1
330
1F
100
AcDbEntity
  8
0
  6
Continuous
 62
     7
370
    15
100
AcDbCircle
 10
369.3307083825
 20
462.6241169311
 30
0.0
 40
5.5
  0
CIRCLE
  5
A2
330
1F
100
AcDbEntity
  8
0
  6
Continuous
 62
     7
370
    15
100
AcDbCircle
 10
489.3307083825
 20
462.6241169311
 30
0.0
 40
5.5
  0
CIRCLE
  5
A3
330
1F
100
AcDbEntity
  8
0
  6
Continuous
 62
     7
370
    15
100
AcDbCircle
 10
309.3307083825
 20
358.701068477
 30
0.0
 40
5.499999999999943
  0
CIRCLE
  5
A4
330
1F
100
AcDbEntity
  8
0
  6
Continuous
 62
     7
370
    15
100
AcDbCircle
 10
549.3307083825
 20
358.701068477
 30
0.0
 40
5.5
  0
CIRCLE
  5
A5
330
1F
100
AcDbEntity
  8
0
  6
Continuous
 62
     7
370
    15
100
AcDbCircle
 10
429.3307083825
 20
358.701068477
 30
0.0
 40
127.0
  0
CIRCLE
  5
A6
330
1F
100
AcDbEntity
  8
0
  6
Continuous
 62
     7
370
    15
100
AcDbCircle
 10
489.3307083825
 20
254.7780200228
 30
0.0
 40
5.5
  0
ARC
  5
A7
330
1F
100
AcDbEntity
  8
0
  6
Continuous
 62
     7
370
    15
100
AcDbCircle
 10
400.3307083825
 20
223.7825745631
 30
0.0
 40
8.000000000000027
100
AcDbArc
 50
0.0
 51
77.869154499
  0
ARC
  5
A8
330
1F
100
AcDbEntity
  8
0
  6
Continuous
 62
     7
370
    15
100
AcDbCircle
 10
429.3307083825
 20
358.701068477
 30
0.0
 40
130.0
100
AcDbArc
 50
106.8492796228
 51
168.2939366164
  0
CIRCLE
  5
A9
330
1F
100
AcDbEntity
  8
0
  6
Continuous
 62
     7
370
    15
100
AcDbCircle
 10
369.3307083825
 20
254.7780200228
 30
0.0
 40
4.0
  0
LINE
  5
AA
330
1F
100
AcDbEntity
  8
0
  6
Continuous
 62
     7
370
    15
100
AcDbLine
 10
294.3307030181
 20
378.7010680299
 30
0.0
 11
294.3307030181
 21
338.701068924
 31
0.0
  0
ARC
  5
AB
330
1F
100
AcDbEntity
  8
0
  6
Continuous
 62
     7
370
    15
100
AcDbCircle
 10
458.3307083825
 20
223.7825745631
 30
0.0
 40
8.0
100
AcDbArc
 50
102.130845501
 51
180.0
  0
LINE
  5
AC
330
1F
100
AcDbEntity
  8
0
  6
Continuous
 62
     7
370
    15
100
AcDbLine
 10
397.3307068626
 20
493.7010738414
 30
0.0
 11
397.3307068626
 21
490.7768103641
 31
0.0
  0
ARC
  5
AD
330
1F
100
AcDbEntity
  8
0
  6
Continuous
 62
     7
370
    15
100
AcDbCircle
 10
429.3307083825
 20
358.701068477
 30
0.0
 40
130.0000000000001
100
AcDbArc
 50
11.7060633836
 51
73.1507203772
  0
CIRCLE
  5
AE
330
1F
100
AcDbEntity
  8
0
  6
Continuous
 62
     7
370
    15
100
AcDbCircle
 10
489.3307083825
 20
254.7780200228
 30
0.0
 40
4.0
  0
ARC
  5
AF
330
1F
100
AcDbEntity
  8
0
  6
Continuous
 62
     7
370
    15
100
AcDbCircle
 10
429.3307083825
 20
358.701068477
 30
0.0
 40
130.0
100
AcDbArc
 50
282.130845501
 51
348.2939366164
  0
ARC
  5
B0
330
1F
100
AcDbEntity
  8
0
  6
Continuous
 62
     7
370
    15
100
AcDbCircle
 10
294.2009227769
 20
386.7000156387
 30
0.0
 40
8.000000000000066
100
AcDbArc
 50
270.9295617094
 51
348.2939366164
  0
ARC
  5
B1
330
1F
100
AcDbEntity
  8
0
  6
Continuous
 62
     7
370
    15
100
AcDbCircle
 10
564.4604939882
 20
330.7021213152
 30
0.0
 40
8.000000000000055
100
AcDbArc
 50
90.9295617094
 51
168.2939366164
  0
ARC
  5
B2
330
1F
100
AcDbEntity
  8
0
  6
Continuous
 62
     7
370
    15
100
AcDbCircle
 10
389.3307083825
 20
490.7768043258
 30
0.0
 40
7.999999999999994
100
AcDbArc
 50
286.8492796228
 51
0.0
  0
LINE
  5
B3
330
1F
100
AcDbEntity
  8
0
  6
Continuous
 62
     7
370
    15
100
AcDbLine
 10
450.3307080994
 20
223.7010631126
 30
0.0
 11
450.3307080994
 21
223.7825724643
 31
0.0
  0
ARC
  5
B4
330
1F
100
AcDbEntity
  8
0
  6
Continuous
 62
     7
370
    15
100
AcDbCircle
 10
564.4604939882
 20
386.7000156387
 30
0.0
 40
7.999999999999844
100
AcDbArc
 50
191.7060633836
 51
269.0704382906
  0
CIRCLE
  5
B5
330
1F
100
AcDbEntity
  8
0
  6
Continuous
 62
     7
370
    15
100
AcDbCircle
 10
549.3307083825
 20
358.701068477
 30
0.0
 40
4.0
  0
CIRCLE
  5
B6
330
1F
100
AcDbEntity
  8
0
  6
Continuous
 62
     7
370
    15
100
AcDbCircle
 10
309.3307083825
 20
358.701068477
 30
0.0
 40
4.0
  0
CIRCLE
  5
B7
330
1F
100
AcDbEntity
  8
0
  6
Continuous
 62
     7
370
    15
100
AcDbCircle
 10
489.3307083825
 20
462.6241169311
 30
0.0
 40
4.0
  0
LINE
  5
B8
330
1F
100
AcDbEntity
  8
0
  6
Continuous
 62
     7
370
    15
100
AcDbLine
 10
461.3307099024
 20
490.7768103641
 30
0.0
 11
461.3307099024
 21
493.7010738414
 31
0.0
  0
LINE
  5
B9
330
1F
100
AcDbEntity
  8
0
  6
Continuous
 62
     7
370
    15
100
AcDbLine
 10
408.3307086656
 20
223.7010631126
 30
0.0
 11
450.3307080994
 21
223.7010631126
 31
0.0
  0
LINE
  5
BA
330
1F
100
AcDbEntity
  8
0
  6
Continuous
 62
     7
370
    15
100
AcDbLine
 10
408.3307086656
 20
223.7825724643
 30
0.0
 11
408.3307086656
 21
223.7010631126
 31
0.0
  0
LINE
  5
BB
330
1F
100
AcDbEntity
  8
0
  6
Continuous
 62
     7
370
    15
100
AcDbLine
 10
564.3307137469
 20
338.701068924
 30
0.0
 11
564.3307137469
 21
378.7010680299
 31
0.0
  0
ARC
  5
BC
330
1F
100
AcDbEntity
  8
0
  6
Continuous
 62
     7
370
    15
100
AcDbCircle
 10
294.2009227769
 20
330.7021213152
 30
0.0
 40
7.999999999999888
100
AcDbArc
 50
11.7060633836
 51
89.0704382906
  0
ARC
  5
BD
330
1F
100
AcDbEntity
  8
0
  6
Continuous
 62
     7
370
    15
100
AcDbCircle
 10
469.3307083825
 20
490.7768043258
 30
0.0
 40
8.0
100
AcDbArc
 50
180.0
 51
253.1507203772
  0
CIRCLE
  5
BE
330
1F
100
AcDbEntity
  8
0
  6
Continuous
 62
     7
370
    15
100
AcDbCircle
 10
369.3307083825
 20
462.6241169311
 30
0.0
 40
4.0
  0
ARC
  5
BF
330
1F
100
AcDbEntity
  8
0
  6
Continuous
 62
     7
370
    15
100
AcDbCircle
 10
429.3307083825
 20
358.701068477
 30
0.0
 40
130.0000000000001
100
AcDbArc
 50
191.7060633836
 51
257.869154499
  0
LINE
  5
C0
330
1F
100
AcDbEntity
  8
0
  6
Continuous
 62
     7
370
    15
100
AcDbLine
 10
465.3886313717
 20
568.3010700505
 30
0.0
 11
470.2961090187
 21
568.3010700505
 31
0.0
  0
LINE
  5
C1
330
1F
100
AcDbEntity
  8
0
  6
Continuous
 62
     7
370
    15
100
AcDbLine
 10
470.2961090187
 20
564.3010619443
 30
0.0
 11
470.2961090187
 21
568.3010700505
 31
0.0
  0
SPLINE
  5
C2
330
1F
100
AcDbEntity
  8
0
  6
Continuous
 62
     7
370
    15
100
AcDbSpline
210
0.0
220
0.0
230
1.0
 70
     8
 71
     3
 72
    19
 73
    15
 74
     0
 42
0.00000001
 43
0.00000001
 40
0.0
 40
0.0
 40
0.0
 40
0.0
 40
0.0311190887840876
 40
0.0621205443526633
 40
0.1119865981785062
 40
0.1960883029746949
 40
0.4345866614240734
 40
0.5975162566630541
 40
0.7559457765381914
 40
0.8510486068161585
 40
0.9092787063150266
 40
0.9508547811640333
 40
0.9834139674888358
 40
1.0
 40
1.0
 40
1.0
 40
1.0
 10
460.4811537245901
 20
564.3010619443087
 30
0.0
 10
460.4936925429195
 20
564.1827626307447
 30
0.0
 10
460.518722781612
 20
563.9466111866545
 30
0.0
 10
460.7340853371637
 20
563.5703270571375
 30
0.0
 10
461.1961100222016
 20
563.1376355572538
 30
0.0
 10
462.5041006144387
 20
562.5515714639114
 30
0.0
 10
464.3685815416404
 20
562.4135807011083
 30
0.0
 10
466.4813069696735
 20
562.4202605148695
 30
0.0
 10
468.0588114000616
 20
562.574867286265
 30
0.0
 10
469.1946500061386
 20
562.9326582556299
 30
0.0
 10
469.8240898228291
 20
563.3364167232412
 30
0.0
 10
470.1509165039314
 20
563.7251060991524
 30
0.0
 10
470.281869275454
 20
564.051970163721
 30
0.0
 10
470.292515890036
 20
564.238208365738
 30
0.0
 10
470.2961090187223
 20
564.3010619443087
 30
0.0
  0
LINE
  5
C3
330
1F
100
AcDbEntity
  8
0
  6
Continuous
 62
     7
370
    15
100
AcDbLine
 10
460.4811537246
 20
564.3010619443
 30
0.0
 11
460.4811537246
 21
568.3010700505
 31
0.0
  0
LINE
  5
C4
330
1F
100
AcDbEntity
  8
0
  6
Continuous
 62
     7
370
    15
100
AcDbLine
 10
460.4811537246
 20
568.3010700505
 30
0.0
 11
465.3886313717
 21
568.3010700505
 31
0.0
  0
SPLINE
  5
C5
330
1F
100
AcDbEntity
  8
0
  6
Continuous
 62
     7
370
    15
100
AcDbSpline
210
0.0
220
0.0
230
1.0
 70
     8
 71
     3
 72
    19
 73
    15
 74
     0
 42
0.00000001
 43
0.00000001
 40
0.0
 40
0.0
 40
0.0
 40
0.0
 40
0.0172341808752432
 40
0.0470430442995133
 40
0.0896567652924686
 40
0.1563145173313904
 40
0.2853317525904722
 40
0.500076104695782
 40
0.7435220387311137
 40
0.8659883421967914
 40
0.9101192687619025
 40
0.9545675297807099
 40
0.9863564995657724
 40
1.0
 40
1.0
 40
1.0
 40
1.0
 10
455.5757547895105
 20
564.3010619443086
 30
0.0
 10
455.5776843775275
 20
564.2357440776811
 30
0.0
 10
455.5829514508641
 20
564.0574500632719
 30
0.0
 10
455.6459211143451
 20
563.7344130050275
 30
0.0
 10
455.8155403724929
 20
563.3213061252831
 30
0.0
 10
456.2063887451392
 20
562.8416222888949
 30
0.0
 10
456.9704771367346
 20
562.4692603978262
 30
0.0
 10
458.0824214792441
 20
562.3912587834458
 30
0.0
 10
459.1841675968581
 20
562.4698054631616
 30
0.0
 10
459.9416636583563
 20
562.9259163902084
 30
0.0
 10
460.2705962150487
 20
563.3899645072926
 30
0.0
 10
460.4170615295757
 20
563.749306184511
 30
0.0
 10
460.4758663467492
 20
564.0772992085558
 30
0.0
 10
460.4799326131793
 20
564.2493843002745
 30
0.0
 10
460.4811537245901
 20
564.3010619443087
 30
0.0
  0
SPLINE
  5
C6
330
1F
100
AcDbEntity
  8
0
  6
Continuous
 62
     7
370
    15
100
AcDbSpline
210
0.0
220
0.0
230
1.0
 70
     8
 71
     3
 72
    19
 73
    15
 74
     0
 42
0.00000001
 43
0.00000001
 40
0.0
 40
0.0
 40
0.0
 40
0.0
 40
0.0311190931809445
 40
0.0621205207187835
 40
0.1119866915057041
 40
0.1960882146307327
 40
0.4345866398778469
 40
0.5975161429688908
 40
0.7559457288023985
 40
0.8510485357866754
 40
0.9092788226970123
 40
0.9508548407319758
 40
0.9834139965748784
 40
1.0
 40
1.0
 40
1.0
 40
1.0
 10
470.2961090187223
 20
564.3010619443087
 30
0.0
 10
470.3023812777942
 20
564.1827626750944
 30
0.0
 10
470.3149020796493
 20
563.9466114427461
 30
0.0
 10
470.4226258894664
 20
563.5703262308334
 30
0.0
 10
470.65373957227
 20
563.1376371048772
 30
0.0
 10
471.308010345823
 20
562.5515693314651
 30
0.0
 10
472.24064375249
 20
562.4135811296152
 30
0.0
 10
473.2974548962273
 20
562.4202606724193
 30
0.0
 10
474.0865386537735
 20
562.574866606804
 30
0.0
 10
474.6547032174551
 20
562.9326594939132
 30
0.0
 10
474.969555163796
 20
563.3364155597008
 30
0.0
 10
475.1330349021918
 20
563.7251062961574
 30
0.0
 10
475.1985418023324
 20
564.051970018103
 30
0.0
 10
475.2038650942896
 20
564.2382083544445
 30
0.0
 10
475.2056616524847
 20
564.3010619443087
 30
0.0
  0
LINE
  5
C7
330
1F
100
AcDbEntity
  8
0
  6
Continuous
 62
     7
370
    15
100
AcDbLine
 10
457.5757532547
 20
562.3010727924
 30
0.0
 11
473.2056613247
 21
562.3010727924
 31
0.0
  0
LINE
  5
C8
330
1F
100
AcDbEntity
  8
0
  6
Continuous
 62
     7
370
    15
100
AcDbLine
 10
472.7508853356
 20
568.3010700505
 30
0.0
 11
475.2056616525
 21
568.3010700505
 31
0.0
  0
LINE
  5
C9
330
1F
100
AcDbEntity
  8
0
  6
Continuous
 62
     7
370
    15
100
AcDbLine
 10
475.2056616525
 20
564.3010619443
 30
0.0
 11
475.2056616525
 21
568.3010700505
 31
0.0
  0
LINE
  5
CA
330
1F
100
AcDbEntity
  8
0
  6
Continuous
 62
     7
370
    15
100
AcDbLine
 10
470.2961090187
 20
568.3010700505
 30
0.0
 11
472.7508853356
 21
568.3010700505
 31
0.0
  0
LINE
  5
CB
330
1F
100
AcDbEntity
  8
0
  6
Continuous
 62
     7
370
    15
100
AcDbLine
 10
455.5757547895
 20
564.3010619443
 30
0.0
 11
455.5757547895
 21
568.3010700505
 31
0.0
  0
LINE
  5
CC
330
1F
100
AcDbEntity
  8
0
  6
Continuous
 62
     7
370
    15
100
AcDbLine
 10
455.5757547895
 20
568.3010700505
 30
0.0
 11
458.0284542571
 21
568.3010700505
 31
0.0
  0
LINE
  5
CD
330
1F
100
AcDbEntity
  8
0
  6
Continuous
 62
     7
370
    15
100
AcDbLine
 10
458.0284542571
 20
568.3010700505
 30
0.0
 11
460.4811537246
 21
568.3010700505
 31
0.0
  0
LINE
  5
CE
330
1F
100
AcDbEntity
  8
0
  6
Continuous
 62
     7
370
    15
100
AcDbLine
 10
393.413541762
 20
568.3010700505
 30
0.0
 11
398.3203246425
 21
568.3010700505
 31
0.0
  0
LINE
  5
CF
330
1F
100
AcDbEntity
  8
0
  6
Continuous
 62
     7
370
    15
100
AcDbLine
 10
398.3203246425
 20
564.3010619443
 30
0.0
 11
398.3203246425
 21
568.3010700505
 31
0.0
  0
SPLINE
  5
D0
330
1F
100
AcDbEntity
  8
0
  6
Continuous
 62
     7
370
    15
100
AcDbSpline
210
0.0
220
0.0
230
1.0
 70
     8
 71
     3
 72
    19
 73
    15
 74
     0
 42
0.00000001
 43
0.00000001
 40
0.0
 40
0.0
 40
0.0
 40
0.0
 40
0.0311190480271642
 40
0.0621205425139165
 40
0.1119866763808795
 40
0.1960882061515403
 40
0.4345864030741545
 40
0.5975160176010691
 40
0.7559457296215575
 40
0.8510484467756675
 40
0.9092787415186905
 40
0.9508547649229546
 40
0.9834139942437811
 40
1.0
 40
1.0
 40
1.0
 40
1.0
 10
388.5067570189626
 20
564.3010619443085
 30
0.0
 10
388.5192929519613
 20
564.1827625640694
 30
0.0
 10
388.5443174629333
 20
563.9466106845807
 30
0.0
 10
388.7596521834733
 20
563.5703270597396
 30
0.0
 10
389.2216115336075
 20
563.137636551368
 30
0.0
 10
390.5294156154754
 20
562.5515702291156
 30
0.0
 10
392.3936330369423
 20
562.4135807857336
 30
0.0
 10
394.5060601076579
 20
562.420260890021
 30
0.0
 10
396.083343422207
 20
562.5748660839006
 30
0.0
 10
397.2190208105888
 20
562.9326598504272
 30
0.0
 10
397.8483750246625
 20
563.3364153879066
 30
0.0
 10
398.1751528361573
 20
563.7251068847462
 30
0.0
 10
398.3060919026782
 20
564.0519696485358
 30
0.0
 10
398.3167332861883
 20
564.2382083270764
 30
0.0
 10
398.3203246424587
 20
564.3010619443085
 30
0.0
  0
LINE
  5
D1
330
1F
100
AcDbEntity
  8
0
  6
Continuous
 62
     7
370
    15
100
AcDbLine
 10
388.506757019
 20
564.3010619443
 30
0.0
 11
388.506757019
 21
568.3010700505
 31
0.0
  0
LINE
  5
D2
330
1F
100
AcDbEntity
  8
0
  6
Continuous
 62
     7
370
    15
100
AcDbLine
 10
388.506757019
 20
568.3010700505
 30
0.0
 11
393.413541762
 21
568.3010700505
 31
0.0
  0
SPLINE
  5
D3
330
1F
100
AcDbEntity
  8
0
  6
Continuous
 62
     7
370
    15
100
AcDbSpline
210
0.0
220
0.0
230
1.0
 70
     8
 71
     3
 72
    10
 73
     6
 74
     0
 42
0.00000001
 43
0.00000001
 40
0.0
 40
0.0
 40
0.0
 40
0.0
 40
0.122412227082006
 40
0.7038229206426485
 40
0.9999999999999999
 40
0.9999999999999999
 40
0.9999999999999999
 40
0.9999999999999999
 10
383.5521991531045
 20
563.7066397231247
 30
0.0
 10
383.5440225780084
 20
563.7264335726586
 30
0.0
 10
383.4970104363113
 20
563.8402405453922
 30
0.0
 10
383.4651482655514
 20
564.0537114167959
 30
0.0
 10
383.459161420703
 20
564.2386477761945
 30
0.0
 10
383.4571409205587
 20
564.3010619443085
 30
0.0
  0
SPLINE
  5
D4
330
1F
100
AcDbEntity
  8
0
  6
Continuous
 62
     7
370
    15
100
AcDbSpline
210
0.0
220
0.0
230
1.0
 70
     8
 71
     3
 72
    19
 73
    15
 74
     0
 42
0.00000001
 43
0.00000001
 40
0.0
 40
0.0
 40
0.0
 40
0.0
 40
0.0172341746334594
 40
0.0470430846442302
 40
0.0896566997904483
 40
0.1563144429611591
 40
0.2853320609966612
 40
0.5000763929094827
 40
0.7435220794389664
 40
0.8659883909230359
 40
0.9101192809652825
 40
0.9545675102766845
 40
0.9863565019333189
 40
1.0
 40
1.0
 40
1.0
 40
1.0
 10
383.4571409205587
 20
564.3010619443085
 30
0.0
 10
383.4591263182881
 20
564.2357440449683
 30
0.0
 10
383.4645457384473
 20
564.0574497237844
 30
0.0
 10
383.5293693041077
 20
563.7344140284068
 30
0.0
 10
383.7039763230858
 20
563.3213052014377
 30
0.0
 10
384.1063135243023
 20
562.8416218241139
 30
0.0
 10
384.8928691931227
 20
562.4692611948586
 30
0.0
 10
386.0375021270627
 20
562.3912583881134
 30
0.0
 10
387.1716370076675
 20
562.4698059301385
 30
0.0
 10
387.9514073311615
 20
562.9259161682637
 30
0.0
 10
388.290009409977
 20
563.3899644623251
 30
0.0
 10
388.4407770982093
 20
563.7493065680694
 30
0.0
 10
388.5013123437977
 20
564.0772990659959
 30
0.0
 10
388.5054995805708
 20
564.2493842913084
 30
0.0
 10
388.5067570189626
 20
564.3010619443085
 30
0.0
  0
SPLINE
  5
D5
330
1F
100
AcDbEntity
  8
0
  6
Continuous
 62
     7
370
    15
100
AcDbSpline
210
0.0
220
0.0
230
1.0
 70
     8
 71
     3
 72
    19
 73
    15
 74
     0
 42
0.00000001
 43
0.00000001
 40
0.0
 40
0.0
 40
0.0
 40
0.0
 40
0.0311190824045926
 40
0.0621204017009144
 40
0.1119865483128896
 40
0.1960884265497976
 40
0.4345865428459043
 40
0.5975162129280026
 40
0.7559455932876771
 40
0.8510486300270085
 40
0.9092787577671556
 40
0.9508547728988646
 40
0.9834139877097177
 40
1.0
 40
1.0
 40
1.0
 40
1.0
 10
398.3203246424587
 20
564.3010619443085
 30
0.0
 10
398.3264110489505
 20
564.1827627712955
 30
0.0
 10
398.3385608293095
 20
563.9466121016546
 30
0.0
 10
398.4430911507557
 20
563.5703254359455
 30
0.0
 10
398.66734761268
 20
563.1376361139305
 30
0.0
 10
399.3022170762629
 20
562.5515720648937
 30
0.0
 10
400.2071912207138
 20
562.4135806190886
 30
0.0
 10
401.2326601607939
 20
562.420260298252
 30
0.0
 10
401.9983451910346
 20
562.5748679417985
 30
0.0
 10
402.5496546297246
 20
562.9326580718267
 30
0.0
 10
402.8551699258291
 20
563.3364161048855
 30
0.0
 10
403.0138051523735
 20
563.7251067482127
 30
0.0
 10
403.0773677529592
 20
564.051969794403
 30
0.0
 10
403.0825343548258
 20
564.2382083377433
 30
0.0
 10
403.0842780301959
 20
564.3010619443085
 30
0.0
  0
LINE
  5
D6
330
1F
100
AcDbEntity
  8
0
  6
Continuous
 62
     7
370
    15
100
AcDbLine
 10
385.4557554404
 20
562.3010727924
 30
0.0
 11
401.0856635104
 21
562.3010727924
 31
0.0
  0
LINE
  5
D7
330
1F
100
AcDbEntity
  8
0
  6
Continuous
 62
     7
370
    15
100
AcDbLine
 10
400.7023013363
 20
568.3010700505
 30
0.0
 11
403.0842780302
 21
568.3010700505
 31
0.0
  0
LINE
  5
D8
330
1F
100
AcDbEntity
  8
0
  6
Continuous
 62
     7
370
    15
100
AcDbLine
 10
403.0842780302
 20
564.3010619443
 30
0.0
 11
403.0842780302
 21
568.3010700505
 31
0.0
  0
LINE
  5
D9
330
1F
100
AcDbEntity
  8
0
  6
Continuous
 62
     7
370
    15
100
AcDbLine
 10
398.3203246425
 20
568.3010700505
 30
0.0
 11
400.7023013363
 21
568.3010700505
 31
0.0
  0
LINE
  5
DA
330
1F
100
AcDbEntity
  8
0
  6
Continuous
 62
     7
370
    15
100
AcDbLine
 10
383.4571409206
 20
564.3010619443
 30
0.0
 11
383.4571409206
 21
568.3010700505
 31
0.0
  0
LINE
  5
DB
330
1F
100
AcDbEntity
  8
0
  6
Continuous
 62
     7
370
    15
100
AcDbLine
 10
383.4571409206
 20
568.3010700505
 30
0.0
 11
385.9819489698
 21
568.3010700505
 31
0.0
  0
LINE
  5
DC
330
1F
100
AcDbEntity
  8
0
  6
Continuous
 62
     7
370
    15
100
AcDbLine
 10
385.9819489698
 20
568.3010700505
 30
0.0
 11
388.506757019
 21
568.3010700505
 31
0.0
  0
LINE
  5
DD
330
1F
100
AcDbEntity
  8
0
  6
Continuous
 62
     7
370
    15
100
AcDbLine
 10
403.0842780302
 20
568.3010700505
 30
0.0
 11
403.0856023709
 21
568.3010700505
 31
0.0
  0
LINE
  5
DE
330
1F
100
AcDbEntity
  8
0
  6
Continuous
 62
     7
370
    15
100
AcDbLine
 10
403.0856023709
 20
564.3010619443
 30
0.0
 11
403.0856023709
 21
568.3010700505
 31
0.0
  0
LINE
  5
DF
330
1F
100
AcDbEntity
  8
0
  6
Continuous
 62
     7
370
    15
100
AcDbLine
 10
383.4558147172
 20
564.3010619443
 30
0.0
 11
383.4558147172
 21
568.3010700505
 31
0.0
  0
LINE
  5
E0
330
1F
100
AcDbEntity
  8
0
  6
Continuous
 62
     7
370
    15
100
AcDbLine
 10
383.4558147172
 20
568.3010700505
 30
0.0
 11
383.4571409206
 21
568.3010700505
 31
0.0
  0
ARC
  5
E1
330
1F
100
AcDbEntity
  8
0
  6
Continuous
 62
     7
370
    15
100
AcDbCircle
 10
381.3307083825
 20
505.701068477
 30
0.0
 40
12.00000000000006
100
AcDbArc
 50
180.0
 51
270.0
  0
LINE
  5
E2
330
1F
100
AcDbEntity
  8
0
  6
Continuous
 62
     7
370
    15
100
AcDbLine
 10
369.3307097236
 20
561.7010626357
 30
0.0
 11
369.3307097236
 21
505.7010683578
 31
0.0
  0
LINE
  5
E3
330
1F
100
AcDbEntity
  8
0
  6
Continuous
 62
     7
370
    15
100
AcDbLine
 10
489.3307070414
 20
561.7010626357
 30
0.0
 11
489.3307070414
 21
505.7010683578
 31
0.0
  0
ARC
  5
E4
330
1F
100
AcDbEntity
  8
0
  6
Continuous
 62
     7
370
    15
100
AcDbCircle
 10
477.3307083825
 20
505.701068477
 30
0.0
 40
12.0
100
AcDbArc
 50
270.0
 51
0.0
  0
LINE
  5
E5
330
1F
100
AcDbEntity
  8
0
  6
Continuous
 62
     7
370
    15
100
AcDbLine
 10
477.3307087998
 20
493.7010738414
 30
0.0
 11
381.3307079653
 21
493.7010738414
 31
0.0
  0
LINE
  5
E6
330
1F
100
AcDbEntity
  8
0
  6
Continuous
 62
     7
370
    15
100
AcDbLine
 10
477.3307087998
 20
498.701069073
 30
0.0
 11
381.3307079653
 21
498.701069073
 31
0.0
  0
ARC
  5
E7
330
1F
100
AcDbEntity
  8
0
  6
Continuous
 62
     7
370
    15
100
AcDbCircle
 10
477.3307083825
 20
505.701068477
 30
0.0
 40
7.0
100
AcDbArc
 50
270.0
 51
0.0
  0
LINE
  5
E8
330
1F
100
AcDbEntity
  8
0
  6
Continuous
 62
     7
370
    15
100
AcDbLine
 10
484.3307080845
 20
561.7010626357
 30
0.0
 11
484.3307080845
 21
505.7010683578
 31
0.0
  0
ARC
  5
E9
330
1F
100
AcDbEntity
  8
0
  6
Continuous
 62
     7
370
    15
100
AcDbCircle
 10
477.3307083825
 20
561.701068477
 30
0.0
 40
7.0
100
AcDbArc
 50
0.0
 51
90.0
  0
LINE
  5
EA
330
1F
100
AcDbEntity
  8
0
  6
Continuous
 62
     7
370
    15
100
AcDbLine
 10
381.3307079653
 20
568.7010619205
 30
0.0
 11
477.3307087998
 21
568.7010619205
 31
0.0
  0
ARC
  5
EB
330
1F
100
AcDbEntity
  8
0
  6
Continuous
 62
     7
370
    15
100
AcDbCircle
 10
381.3307083825
 20
561.701068477
 30
0.0
 40
7.000000000000114
100
AcDbArc
 50
90.0
 51
180.0
  0
LINE
  5
EC
330
1F
100
AcDbEntity
  8
0
  6
Continuous
 62
     7
370
    15
100
AcDbLine
 10
374.3307086805
 20
505.7010683578
 30
0.0
 11
374.3307086805
 21
561.7010626357
 31
0.0
  0
ARC
  5
ED
330
1F
100
AcDbEntity
  8
0
  6
Continuous
 62
     7
370
    15
100
AcDbCircle
 10
381.3307083825
 20
505.701068477
 30
0.0
 40
7.0
100
AcDbArc
 50
180.0
 51
270.0
  0
ARC
  5
EE
330
1F
100
AcDbEntity
  8
0
  6
Continuous
 62
     7
370
    15
100
AcDbCircle
 10
381.3307083825
 20
561.701068477
 30
0.0
 40
12.0
100
AcDbArc
 50
90.0
 51
180.0
  0
LINE
  5
EF
330
1F
100
AcDbEntity
  8
0
  6
Continuous
 62
     7
370
    15
100
AcDbLine
 10
477.3307087998
 20
573.7010720533
 30
0.0
 11
381.3307079653
 21
573.7010720533
 31
0.0
  0
ARC
  5
F0
330
1F
100
AcDbEntity
  8
0
  6
Continuous
 62
     7
370
    15
100
AcDbCircle
 10
477.3307083825
 20
561.701068477
 30
0.0
 40
12.0
100
AcDbArc
 50
0.0
 51
90.0
  0
CIRCLE
  5
F1
330
1F
100
AcDbEntity
  8
0
  6
Continuous
 62
     7
370
    15
100
AcDbCircle
 10
441.3307083825
 20
630.401068477
 30
0.0
 40
2.0
  0
CIRCLE
  5
F2
330
1F
100
AcDbEntity
  8
0
  6
Continuous
 62
     7
370
    15
100
AcDbCircle
 10
441.3307083825
 20
598.401068477
 30
0.0
 40
2.0
  0
CIRCLE
  5
F3
330
1F
100
AcDbEntity
  8
0
  6
Continuous
 62
     7
370
    15
100
AcDbCircle
 10
453.3307083825
 20
616.101068477
 30
0.0
 40
4.299999999999955
  0
LINE
  5
F4
330
1F
100
AcDbEntity
  8
0
  6
Continuous
 62
     7
370
    15
100
AcDbLine
 10
541.8307054023
 20
594.4500598472
 30
0.0
 11
373.8307076673
 21
594.4500598472
 31
0.0
  0
LINE
  5
F5
330
1F
100
AcDbEntity
  8
0
  6
Continuous
 62
     7
370
    15
100
AcDbLine
 10
373.8307076673
 20
634.7520831388
 30
0.0
 11
373.8307076673
 21
594.4500598472
 31
0.0
  0
LINE
  5
F6
330
1F
100
AcDbEntity
  8
0
  6
Continuous
 62
     7
370
    15
100
AcDbLine
 10
373.8307076673
 20
634.7520831388
 30
0.0
 11
541.8307054023
 21
634.7520831388
 31
0.0
  0
LINE
  5
F7
330
1F
100
AcDbEntity
  8
0
  6
Continuous
 62
     7
370
    15
100
AcDbLine
 10
541.8307054023
 20
634.7520831388
 30
0.0
 11
541.8307054023
 21
594.4500598472
 31
0.0
  0
CIRCLE
  5
F8
330
1F
100
AcDbEntity
  8
0
  6
Continuous
 62
     7
370
    15
100
AcDbCircle
 10
429.3307083825
 20
612.701068477
 30
0.0
 40
4.300000000000011
  0
CIRCLE
  5
F9
330
1F
100
AcDbEntity
  8
0
  6
Continuous
 62
     7
370
    15
100
AcDbCircle
 10
453.3307083825
 20
598.401068477
 30
0.0
 40
2.0
  0
CIRCLE
  5
FA
330
1F
100
AcDbEntity
  8
0
  6
Continuous
 62
     7
370
    15
100
AcDbCircle
 10
429.3307083825
 20
630.401068477
 30
0.0
 40
2.0
  0
LINE
  5
FB
330
1F
100
AcDbEntity
  8
0
  6
Continuous
 62
     7
370
    15
100
AcDbLine
 10
373.8307076673
 20
591.4614829581
 30
0.0
 11
541.8307054023
 21
591.4614829581
 31
0.0
  0
LINE
  5
FC
330
1F
100
AcDbEntity
  8
0
  6
Continuous
 62
     7
370
    15
100
AcDbLine
 10
541.8307054023
 20
594.4500598472
 30
0.0
 11
541.8307054023
 21
591.4614829581
 31
0.0
  0
LINE
  5
FD
330
1F
100
AcDbEntity
  8
0
  6
Continuous
 62
     7
370
    15
100
AcDbLine
 10
373.8307076673
 20
594.4500598472
 30
0.0
 11
373.8307076673
 21
591.4614829581
 31
0.0
  0
LINE
  5
FE
330
1F
100
AcDbEntity
  8
0
  6
Continuous
 62
     7
370
    15
100
AcDbLine
 10
541.8307054023
 20
637.7406600278
 30
0.0
 11
373.8307076673
 21
637.7406600278
 31
0.0
  0
LINE
  5
FF
330
1F
100
AcDbEntity
  8
0
  6
Continuous
 62
     7
370
    15
100
AcDbLine
 10
541.8307054023
 20
637.7406600278
 30
0.0
 11
541.8307054023
 21
634.7520831388
 31
0.0
  0
LINE
  5
100
330
1F
100
AcDbEntity
  8
0
  6
Continuous
 62
     7
370
    15
100
AcDbLine
 10
373.8307076673
 20
637.7406600278
 30
0.0
 11
373.8307076673
 21
634.7520831388
 31
0.0
  0
LINE
  5
101
330
1F
100
AcDbEntity
  8
0
  6
Continuous
 62
     7
370
    15
100
AcDbLine
 10
373.8307076673
 20
591.2406924527
 30
0.0
 11
541.8307054023
 21
591.2406924527
 31
0.0
  0
LINE
  5
102
330
1F
100
AcDbEntity
  8
0
  6
Continuous
 62
     7
370
    15
100
AcDbLine
 10
541.8307054023
 20
591.4614829581
 30
0.0
 11
541.8307054023
 21
591.2406924527
 31
0.0
  0
LINE
  5
103
330
1F
100
AcDbEntity
  8
0
  6
Continuous
 62
     7
370
    15
100
AcDbLine
 10
373.8307076673
 20
591.4614829581
 30
0.0
 11
373.8307076673
 21
591.2406924527
 31
0.0
  0
LINE
  5
104
330
1F
100
AcDbEntity
  8
0
  6
Continuous
 62
     7
370
    15
100
AcDbLine
 10
541.8307054023
 20
637.8491404813
 30
0.0
 11
373.8307076673
 21
637.8491404813
 31
0.0
  0
LINE
  5
105
330
1F
100
AcDbEntity
  8
0
  6
Continuous
 62
     7
370
    15
100
AcDbLine
 10
541.8307054023
 20
637.7406600278
 30
0.0
 11
541.8307054023
 21
637.8491404813
 31
0.0
  0
LINE
  5
106
330
1F
100
AcDbEntity
  8
0
  6
Continuous
 62
     7
370
    15
100
AcDbLine
 10
373.8307076673
 20
637.8491404813
 30
0.0
 11
373.8307076673
 21
637.7406600278
 31
0.0
  0
LINE
  5
107
330
1F
100
AcDbEntity
  8
0
  6
Continuous
 62
     7
370
    15
100
AcDbLine
 10
373.8307076673
 20
641.6475358766
 30
0.0
 11
541.8307054023
 21
641.6475358766
 31
0.0
  0
LINE
  5
108
330
1F
100
AcDbEntity
  8
0
  6
Continuous
 62
     7
370
    15
100
AcDbLine
 10
541.8307054023
 20
641.6475358766
 30
0.0
 11
541.8307054023
 21
637.8491404813
 31
0.0
  0
LINE
  5
109
330
1F
100
AcDbEntity
  8
0
  6
Continuous
 62
     7
370
    15
100
AcDbLine
 10
373.8307076673
 20
641.6475358766
 30
0.0
 11
373.8307076673
 21
637.8491404813
 31
0.0
  0
LINE
  5
10A
330
1F
100
AcDbEntity
  8
0
  6
Continuous
 62
     7
370
    15
100
AcDbLine
 10
373.8307076673
 20
586.7166850131
 30
0.0
 11
541.8307054023
 21
586.7166850131
 31
0.0
  0
LINE
  5
10B
330
1F
100
AcDbEntity
  8
0
  6
Continuous
 62
     7
370
    15
100
AcDbLine
 10
541.8307054023
 20
591.2406924527
 30
0.0
 11
541.8307054023
 21
586.7166850131
 31
0.0
  0
LINE
  5
10C
330
1F
100
AcDbEntity
  8
0
  6
Continuous
 62
     7
370
    15
100
AcDbLine
 10
373.8307076673
 20
591.2406924527
 30
0.0
 11
373.8307076673
 21
586.7166850131
 31
0.0
  0
SPLINE
  5
10D
330
1F
100
AcDbEntity
  8
0
  6
Continuous
 62
     7
370
    15
100
AcDbSpline
210
0.0
220
0.0
230
1.0
 70
    24
 71
     3
 72
    12
 73
     8
 74
     0
 42
0.00000001
 43
0.00000001
 40
0.0
 40
0.0
 40
0.0
 40
0.0
 40
0.2486140956571988
 40
0.4998774315661062
 40
0.6674290499117391
 40
0.8341989980717615
 40
1.0
 40
1.0
 40
1.0
 40
1.0
 10
364.8307117799906
 20
656.3136461537505
 30
0.0
 10
364.8307117799907
 20
653.513826125111
 30
0.0
 10
364.8307117799907
 20
647.8843510904635
 30
0.0
 10
364.8307117799907
 20
639.795289366337
 30
0.0
 10
364.8307117799907
 20
632.5626092927525
 30
0.0
 10
364.8307117799907
 20
626.3105000794716
 30
0.0
 10
364.8307117799907
 20
622.160679266833
 30
0.0
 10
364.8307117799908
 20
620.0918141167784
 30
0.0
  0
LWPOLYLINE
  5
10E
330
1F
100
AcDbEntity
  8
0
  6
Continuous
 62
     7
370
    15
100
AcDbPolyline
 90
        9
 70
   128
 43
0.0
 10
364.83071178
 20
656.3136461538
 10
364.8691344241
 20
656.4982417386
 10
364.9829494933
 20
656.6757145684
 10
365.1677685956
 20
656.839299516
 10
365.4164913277
 20
656.9826486867
 10
365.7195660452
 20
657.1003380578
 10
366.0653400401
 20
657.1877482694
 10
366.4405289272
 20
657.2416010659
 10
366.8307083825
 20
657.2597804826
  0
LINE
  5
10F
330
1F
100
AcDbEntity
  8
0
  6
Continuous
 62
     7
370
    15
100
AcDbLine
 10
366.8307083825
 20
657.2597804826
 30
0.0
 11
366.8307083825
 21
619.9147883218
 31
0.0
  0
ARC
  5
110
330
1F
100
AcDbEntity
  8
0
  6
Continuous
 62
     7
370
    15
100
AcDbCircle
 10
366.3346202798
 20
625.6963624204
 30
0.0
 40
5.802818493076013
100
AcDbArc
 50
254.9792628784
 51
274.904253402
  0
SPLINE
  5
111
330
1F
100
AcDbEntity
  8
0
  6
Continuous
 62
     7
370
    15
100
AcDbSpline
210
0.0
220
0.0
230
1.0
 70
    24
 71
     1
 72
     4
 73
     2
 74
     0
 42
0.00000001
 43
0.00000001
 40
0.0
 40
0.0
 40
1.0
 40
1.0
 10
550.8307087401538
 20
620.091814116779
 30
0.0
 10
550.8307087401538
 20
625.8010748189122
 30
0.0
  0
ARC
  5
112
330
1F
100
AcDbEntity
  8
0
  6
Continuous
 62
     7
370
    15
100
AcDbCircle
 10
549.3267922211
 20
625.6964321412
 30
0.0
 40
5.802887909997527
100
AcDbArc
 50
265.0958110443
 51
285.020635184
  0
LINE
  5
113
330
1F
100
AcDbEntity
  8
0
  6
Continuous
 62
     7
370
    15
100
AcDbLine
 10
548.830704687
 20
619.9147883218
 30
0.0
 11
548.830704687
 21
657.2597804826
 31
0.0
  0
LWPOLYLINE
  5
114
330
1F
100
AcDbEntity
  8
0
  6
Continuous
 62
     7
370
    15
100
AcDbPolyline
 90
        9
 70
   128
 43
0.0
 10
548.830704687
 20
657.2597804826
 10
549.2208915929
 20
657.2416010659
 10
549.5960730294
 20
657.1877482694
 10
549.9418470244
 20
657.1003380578
 10
550.2449217419
 20
656.9826486867
 10
550.4936444739
 20
656.839299516
 10
550.6784710268
 20
656.6757145684
 10
550.7922786454
 20
656.4982417386
 10
550.8307087402
 20
656.3136461538
  0
SPLINE
  5
115
330
1F
100
AcDbEntity
  8
0
  6
Continuous
 62
     7
370
    15
100
AcDbSpline
210
0.0
220
0.0
230
1.0
 70
    24
 71
     3
 72
    11
 73
     7
 74
     0
 42
0.00000001
 43
0.00000001
 40
0.0
 40
0.0
 40
0.0
 40
0.0
 40
0.2490490463418547
 40
0.5000002716651235
 40
0.7509511890315117
 40
1.0
 40
1.0
 40
1.0
 40
1.0
 10
550.8307087401538
 20
625.8010748189123
 30
0.0
 10
550.8307087401538
 20
628.4400425967367
 30
0.0
 10
550.8307087401538
 20
633.7381339775663
 30
0.0
 10
550.8307087401538
 20
641.5670385909152
 30
0.0
 10
550.8307087401538
 20
649.1888506288008
 30
0.0
 10
550.8307087401537
 20
653.9447451269463
 30
0.0
 10
550.8307087401537
 20
656.313646153751
 30
0.0
  0
LINE
  5
116
330
1F
100
AcDbEntity
  8
0
  6
Continuous
 62
     7
370
    15
100
AcDbLine
 10
366.8307083825
 20
619.9147883218
 30
0.0
 11
373.8307076673
 21
619.9147883218
 31
0.0
  0
LINE
  5
117
330
1F
100
AcDbEntity
  8
0
  6
Continuous
 62
     7
370
    15
100
AcDbLine
 10
366.8307083825
 20
657.2597804826
 30
0.0
 11
373.8307076673
 21
657.2597804826
 31
0.0
  0
LINE
  5
118
330
1F
100
AcDbEntity
  8
0
  6
Continuous
 62
     7
370
    15
100
AcDbLine
 10
541.8307054023
 20
619.9147883218
 30
0.0
 11
548.830704687
 21
619.9147883218
 31
0.0
  0
LINE
  5
119
330
1F
100
AcDbEntity
  8
0
  6
Continuous
 62
     7
370
    15
100
AcDbLine
 10
548.830704687
 20
657.2597804826
 30
0.0
 11
541.8307054023
 21
657.2597804826
 31
0.0
  0
LINE
  5
11A
330
1F
100
AcDbEntity
  8
0
  6
Continuous
 62
     7
370
    15
100
AcDbLine
 10
548.830704687
 20
619.9147883218
 30
0.0
 11
548.830704687
 21
576.6355279248
 31
0.0
  0
LINE
  5
11B
330
1F
100
AcDbEntity
  8
0
  6
Continuous
 62
     7
370
    15
100
AcDbLine
 10
550.8307087402
 20
576.8125537198
 30
0.0
 11
550.8307087402
 21
620.0918141168
 31
0.0
  0
ARC
  5
11C
330
1F
100
AcDbEntity
  8
0
  6
Continuous
 62
     7
370
    15
100
AcDbCircle
 10
549.3268265747
 20
582.4167836236
 30
0.0
 40
5.80250414746874
100
AcDbArc
 50
265.0951454342
 51
285.0213007941
  0
LINE
  5
11D
330
1F
100
AcDbEntity
  8
0
  6
Continuous
 62
     7
370
    15
100
AcDbLine
 10
364.83071178
 20
620.0918141168
 30
0.0
 11
364.83071178
 21
576.8125537198
 31
0.0
  0
LINE
  5
11E
330
1F
100
AcDbEntity
  8
0
  6
Continuous
 62
     7
370
    15
100
AcDbLine
 10
366.8307083825
 20
619.9147883218
 30
0.0
 11
366.8307083825
 21
576.6355279248
 31
0.0
  0
ARC
  5
11F
330
1F
100
AcDbEntity
  8
0
  6
Continuous
 62
     7
370
    15
100
AcDbCircle
 10
366.3345859269
 20
582.4167139126
 30
0.0
 40
5.802434740311279
100
AcDbArc
 50
254.9785972716
 51
274.9049190088
  0
LINE
  5
120
330
1F
100
AcDbEntity
  8
0
  6
Continuous
 62
     7
370
    15
100
AcDbLine
 10
366.8307083825
 20
576.6355279248
 30
0.0
 11
373.8307076673
 21
576.6355279248
 31
0.0
  0
LINE
  5
121
330
1F
100
AcDbEntity
  8
0
  6
Continuous
 62
     7
370
    15
100
AcDbLine
 10
548.830704687
 20
576.6355279248
 30
0.0
 11
541.8307054023
 21
576.6355279248
 31
0.0
  0
LINE
  5
122
330
1F
100
AcDbEntity
  8
0
  6
Continuous
 62
     7
370
    15
100
AcDbLine
 10
541.8307054023
 20
657.4878576558
 30
0.0
 11
373.8307076673
 21
657.4878576558
 31
0.0
  0
LINE
  5
123
330
1F
100
AcDbEntity
  8
0
  6
Continuous
 62
     7
370
    15
100
AcDbLine
 10
541.8307054023
 20
657.4878576558
 30
0.0
 11
541.8307054023
 21
641.6475358766
 31
0.0
  0
LINE
  5
124
330
1F
100
AcDbEntity
  8
0
  6
Continuous
 62
     7
370
    15
100
AcDbLine
 10
373.8307076673
 20
657.4878576558
 30
0.0
 11
373.8307076673
 21
641.6475358766
 31
0.0
  0
LINE
  5
125
330
1F
100
AcDbEntity
  8
0
  6
Continuous
 62
     7
370
    15
100
AcDbLine
 10
541.8307054023
 20
576.426896767
 30
0.0
 11
373.8307076673
 21
576.426896767
 31
0.0
  0
LINE
  5
126
330
1F
100
AcDbEntity
  8
0
  6
Continuous
 62
     7
370
    15
100
AcDbLine
 10
541.8307054023
 20
586.7166850131
 30
0.0
 11
541.8307054023
 21
576.426896767
 31
0.0
  0
LINE
  5
127
330
1F
100
AcDbEntity
  8
0
  6
Continuous
 62
     7
370
    15
100
AcDbLine
 10
373.8307076673
 20
586.7166850131
 30
0.0
 11
373.8307076673
 21
576.426896767
 31
0.0
  0
LINE
  5
128
330
1F
100
AcDbEntity
  8
0
  6
Continuous
 62
     7
370
    15
100
AcDbLine
 10
373.8307076673
 20
573.7010720533
 30
0.0
 11
381.3307079653
 21
573.7010720533
 31
0.0
  0
LINE
  5
129
330
1F
100
AcDbEntity
  8
0
  6
Continuous
 62
     7
370
    15
100
AcDbLine
 10
477.3307087998
 20
573.7010720533
 30
0.0
 11
541.8307054023
 21
573.7010720533
 31
0.0
  0
LINE
  5
12A
330
1F
100
AcDbEntity
  8
0
  6
Continuous
 62
     7
370
    15
100
AcDbLine
 10
541.8307054023
 20
573.7010720533
 30
0.0
 11
541.8307054023
 21
576.426896767
 31
0.0
  0
LINE
  5
12B
330
1F
100
AcDbEntity
  8
0
  6
Continuous
 62
     7
370
    15
100
AcDbLine
 10
373.8307076673
 20
576.426896767
 30
0.0
 11
373.8307076673
 21
573.7010720533
 31
0.0
  0
LINE
  5
12C
330
1F
100
AcDbEntity
  8
0
  6
Continuous
 62
     7
370
    15
100
AcDbLine
 10
548.830704687
 20
573.9010754388
 30
0.0
 11
548.830704687
 21
576.6355279248
 31
0.0
  0
ARC
  5
12D
330
1F
100
AcDbEntity
  8
0
  6
Continuous
 62
     7
370
    15
100
AcDbCircle
 10
548.8307083825
 20
575.901068477
 30
0.0
 40
2.000000000000114
100
AcDbArc
 50
270.0
 51
0.0
  0
LINE
  5
12E
330
1F
100
AcDbEntity
  8
0
  6
Continuous
 62
     7
370
    15
100
AcDbLine
 10
550.8307087402
 20
575.9010645908
 30
0.0
 11
550.8307087402
 21
576.8125537198
 31
0.0
  0
LINE
  5
12F
330
1F
100
AcDbEntity
  8
0
  6
Continuous
 62
     7
370
    15
100
AcDbLine
 10
541.8307054023
 20
573.9010754388
 30
0.0
 11
548.830704687
 21
573.9010754388
 31
0.0
  0
LINE
  5
130
330
1F
100
AcDbEntity
  8
0
  6
Continuous
 62
     7
370
    15
100
AcDbLine
 10
366.8307083825
 20
576.6355279248
 30
0.0
 11
366.8307083825
 21
573.9010754388
 31
0.0
  0
ARC
  5
131
330
1F
100
AcDbEntity
  8
0
  6
Continuous
 62
     7
370
    15
100
AcDbCircle
 10
366.8307083825
 20
575.901068477
 30
0.0
 40
2.0
100
AcDbArc
 50
180.0
 51
270.0
  0
LINE
  5
132
330
1F
100
AcDbEntity
  8
0
  6
Continuous
 62
     7
370
    15
100
AcDbLine
 10
364.83071178
 20
576.8125537198
 30
0.0
 11
364.83071178
 21
575.9010645908
 31
0.0
  0
LINE
  5
133
330
1F
100
AcDbEntity
  8
0
  6
Continuous
 62
     7
370
    15
100
AcDbLine
 10
366.8307083825
 20
573.9010754388
 30
0.0
 11
373.8307076673
 21
573.9010754388
 31
0.0
  0
LINE
  5
134
330
1F
100
AcDbEntity
  8
0
  6
Continuous
 62
     7
370
    15
100
AcDbLine
 10
373.8307076673
 20
681.1198774141
 30
0.0
 11
541.8307054023
 21
681.1198774141
 31
0.0
  0
LINE
  5
135
330
1F
100
AcDbEntity
  8
0
  6
Continuous
 62
     7
370
    15
100
AcDbLine
 10
541.8307054023
 20
681.1198774141
 30
0.0
 11
541.8307054023
 21
657.4878576558
 31
0.0
  0
LINE
  5
136
330
1F
100
AcDbEntity
  8
0
  6
Continuous
 62
     7
370
    15
100
AcDbLine
 10
373.8307076673
 20
681.1198774141
 30
0.0
 11
373.8307076673
 21
657.4878576558
 31
0.0
  0
LWPOLYLINE
  5
137
330
1F
100
AcDbEntity
  8
0
  6
Continuous
 62
     7
370
    15
100
AcDbPolyline
 90
        9
 70
   128
 43
0.0
 10
364.83071178
 20
679.5741203588
 10
364.8691344241
 20
679.7587159436
 10
364.9829494933
 20
679.9361887735
 10
365.1677685956
 20
680.099773721
 10
365.4164913277
 20
680.243152694
 10
365.7195660452
 20
680.3608122628
 10
366.0653400401
 20
680.4482522767
 10
366.4405289272
 20
680.502075271
 10
366.8307083825
 20
680.5202546876
  0
LINE
  5
138
330
1F
100
AcDbEntity
  8
0
  6
Continuous
 62
     7
370
    15
100
AcDbLine
 10
366.8307083825
 20
680.5202546876
 30
0.0
 11
366.8307083825
 21
657.2597804826
 31
0.0
  0
LINE
  5
139
330
1F
100
AcDbEntity
  8
0
  6
Continuous
 62
     7
370
    15
100
AcDbLine
 10
364.83071178
 20
679.5741203588
 30
0.0
 11
364.83071178
 21
656.3136461538
 31
0.0
  0
LINE
  5
13A
330
1F
100
AcDbEntity
  8
0
  6
Continuous
 62
     7
370
    15
100
AcDbLine
 10
548.830704687
 20
680.5202546876
 30
0.0
 11
548.830704687
 21
657.2597804826
 31
0.0
  0
LWPOLYLINE
  5
13B
330
1F
100
AcDbEntity
  8
0
  6
Continuous
 62
     7
370
    15
100
AcDbPolyline
 90
        9
 70
   128
 43
0.0
 10
548.830704687
 20
680.5202546876
 10
549.2208915929
 20
680.502075271
 10
549.5960730294
 20
680.4482522767
 10
549.9418470244
 20
680.3608122628
 10
550.2449217419
 20
680.243152694
 10
550.4936444739
 20
680.099773721
 10
550.6784710268
 20
679.9361887735
 10
550.7922786454
 20
679.7587159436
 10
550.8307087402
 20
679.5741203588
  0
LINE
  5
13C
330
1F
100
AcDbEntity
  8
0
  6
Continuous
 62
     7
370
    15
100
AcDbLine
 10
550.8307087402
 20
656.3136461538
 30
0.0
 11
550.8307087402
 21
679.5741203588
 31
0.0
  0
LINE
  5
13D
330
1F
100
AcDbEntity
  8
0
  6
Continuous
 62
     7
370
    15
100
AcDbLine
 10
366.8307083825
 20
680.5202546876
 30
0.0
 11
373.8307076673
 21
680.5202546876
 31
0.0
  0
LINE
  5
13E
330
1F
100
AcDbEntity
  8
0
  6
Continuous
 62
     7
370
    15
100
AcDbLine
 10
541.8307054023
 20
680.5202546876
 30
0.0
 11
548.830704687
 21
680.5202546876
 31
0.0
  0
LINE
  5
13F
330
1F
100
AcDbEntity
  8
0
  6
Continuous
 62
     7
370
    15
100
AcDbLine
 10
436.4861197936
 20
688.0010548394
 30
0.0
 11
436.4861197936
 21
686.5010741513
 31
0.0
  0
ARC
  5
140
330
1F
100
AcDbEntity
  8
0
  6
Continuous
 62
     7
370
    15
100
AcDbCircle
 10
436.4861197572
 20
689.501068477
 30
0.0
 40
1.5
100
AcDbArc
 50
270.0
 51
310.7961333222
  0
ELLIPSE
  5
141
330
1F
100
AcDbEntity
  8
0
  6
Continuous
 62
     7
370
    15
100
AcDbEllipse
 10
436.4861197572
 20
689.501068477
 30
0.0
 11
1.495964298572233
 21
-1.495964298572176
 31
0.0
210
0.0
220
0.0
230
0.9999999999999998
 40
0.0735032601
 41
5.497787143782814
 42
6.209813992338063
  0
LINE
  5
142
330
1F
100
AcDbEntity
  8
0
  6
Continuous
 62
     7
370
    15
100
AcDbLine
 10
437.96999838
 20
686.5010741513
 30
0.0
 11
437.96999838
 21
688.0010548394
 31
0.0
  0
LINE
  5
143
330
1F
100
AcDbEntity
  8
0
  6
Continuous
 62
     7
370
    15
100
AcDbLine
 10
437.96999838
 20
686.5010741513
 30
0.0
 11
436.4861197936
 21
686.5010741513
 31
0.0
  0
LINE
  5
144
330
1F
100
AcDbEntity
  8
0
  6
Continuous
 62
     7
370
    15
100
AcDbLine
 10
422.1752969714
 20
688.0010548394
 30
0.0
 11
436.4861197936
 21
688.0010548394
 31
0.0
  0
ARC
  5
145
330
1F
100
AcDbEntity
  8
0
  6
Continuous
 62
     7
370
    15
100
AcDbCircle
 10
422.1752970079
 20
689.501068477
 30
0.0
 40
1.5
100
AcDbArc
 50
229.2038666778
 51
270.0
  0
LINE
  5
146
330
1F
100
AcDbEntity
  8
0
  6
Continuous
 62
     7
370
    15
100
AcDbLine
 10
421.1952424775
 20
688.3655074399
 30
0.0
 11
423.3835795129
 21
690.9010592263
 31
0.0
  0
LINE
  5
147
330
1F
100
AcDbEntity
  8
0
  6
Continuous
 62
     7
370
    15
100
AcDbLine
 10
423.3835795129
 20
690.9010592263
 30
0.0
 11
435.2778372521
 21
690.9010592263
 31
0.0
  0
LINE
  5
148
330
1F
100
AcDbEntity
  8
0
  6
Continuous
 62
     7
370
    15
100
AcDbLine
 10
435.2778372521
 20
690.9010592263
 30
0.0
 11
437.4661742876
 21
688.3655074399
 31
0.0
  0
LINE
  5
149
330
1F
100
AcDbEntity
  8
0
  6
Continuous
 62
     7
370
    15
100
AcDbLine
 10
420.691418385
 20
688.0010548394
 30
0.0
 11
420.691418385
 21
686.5010741513
 31
0.0
  0
ELLIPSE
  5
14A
330
1F
100
AcDbEntity
  8
0
  6
Continuous
 62
     7
370
    15
100
AcDbEllipse
 10
422.1752970079
 20
689.501068477
 30
0.0
 11
1.495964298572289
 21
1.495964298572289
 31
0.0
210
0.0
220
0.0
230
0.9999999999999998
 40
0.0735032601
 41
3.214963968432703
 42
3.92699081698799
  0
LINE
  5
14B
330
1F
100
AcDbEntity
  8
0
  6
Continuous
 62
     7
370
    15
100
AcDbLine
 10
422.1752969714
 20
686.5010741513
 30
0.0
 11
422.1752969714
 21
688.0010548394
 31
0.0
  0
LINE
  5
14C
330
1F
100
AcDbEntity
  8
0
  6
Continuous
 62
     7
370
    15
100
AcDbLine
 10
422.1752969714
 20
686.5010741513
 30
0.0
 11
420.691418385
 21
686.5010741513
 31
0.0
  0
LINE
  5
14D
330
1F
100
AcDbEntity
  8
0
  6
Continuous
 62
     7
370
    15
100
AcDbLine
 10
436.4861197936
 20
686.5010741513
 30
0.0
 11
422.1752969714
 21
686.5010741513
 31
0.0
  0
LINE
  5
14E
330
1F
100
AcDbEntity
  8
0
  6
Continuous
 62
     7
370
    15
100
AcDbLine
 10
418.3307084421
 20
688.0010548394
 30
0.0
 11
420.691418385
 21
688.0010548394
 31
0.0
  0
SPLINE
  5
14F
330
1F
100
AcDbEntity
  8
0
  6
Continuous
 62
     7
370
    15
100
AcDbSpline
210
0.0
220
0.0
230
1.0
 70
    24
 71
     1
 72
     4
 73
     2
 74
     0
 42
0.00000001
 43
0.00000001
 40
0.0
 40
0.0
 40
1.0
 40
1.0
 10
418.3307084421305
 20
688.0010548394348
 30
0.0
 10
421.0072848180917
 20
690.9010592263367
 30
0.0
  0
LINE
  5
150
330
1F
100
AcDbEntity
  8
0
  6
Continuous
 62
     7
370
    15
100
AcDbLine
 10
423.3835795129
 20
690.9010592263
 30
0.0
 11
421.0072848181
 21
690.9010592263
 31
0.0
  0
LINE
  5
151
330
1F
100
AcDbEntity
  8
0
  6
Continuous
 62
     7
370
    15
100
AcDbLine
 10
435.2778372521
 20
690.9010592263
 30
0.0
 11
437.654131947
 21
690.9010592263
 31
0.0
  0
SPLINE
  5
152
330
1F
100
AcDbEntity
  8
0
  6
Continuous
 62
     7
370
    15
100
AcDbSpline
210
0.0
220
0.0
230
1.0
 70
    24
 71
     1
 72
     4
 73
     2
 74
     0
 42
0.00000001
 43
0.00000001
 40
0.0
 40
0.0
 40
1.0
 40
1.0
 10
437.6541319469598
 20
690.9010592263368
 30
0.0
 10
440.3307083229212
 20
688.0010548394349
 30
0.0
  0
LINE
  5
153
330
1F
100
AcDbEntity
  8
0
  6
Continuous
 62
     7
370
    15
100
AcDbLine
 10
437.96999838
 20
688.0010548394
 30
0.0
 11
440.3307083229
 21
688.0010548394
 31
0.0
  0
LINE
  5
154
330
1F
100
AcDbEntity
  8
0
  6
Continuous
 62
     7
370
    15
100
AcDbLine
 10
418.3307084421
 20
686.5010741513
 30
0.0
 11
418.3307084421
 21
688.0010548394
 31
0.0
  0
LINE
  5
155
330
1F
100
AcDbEntity
  8
0
  6
Continuous
 62
     7
370
    15
100
AcDbLine
 10
420.691418385
 20
686.5010741513
 30
0.0
 11
418.3307084421
 21
686.5010741513
 31
0.0
  0
LINE
  5
156
330
1F
100
AcDbEntity
  8
0
  6
Continuous
 62
     7
370
    15
100
AcDbLine
 10
440.3307083229
 20
688.0010548394
 30
0.0
 11
440.3307083229
 21
686.5010741513
 31
0.0
  0
LINE
  5
157
330
1F
100
AcDbEntity
  8
0
  6
Continuous
 62
     7
370
    15
100
AcDbLine
 10
440.3307083229
 20
686.5010741513
 30
0.0
 11
437.96999838
 21
686.5010741513
 31
0.0
  0
LINE
  5
158
330
1F
100
AcDbEntity
  8
0
  6
Continuous
 62
     7
370
    15
100
AcDbLine
 10
541.8307054023
 20
682.7010694307
 30
0.0
 11
373.8307076673
 21
682.7010694307
 31
0.0
  0
LINE
  5
159
330
1F
100
AcDbEntity
  8
0
  6
Continuous
 62
     7
370
    15
100
AcDbLine
 10
541.8307054023
 20
682.7010694307
 30
0.0
 11
541.8307054023
 21
681.1198774141
 31
0.0
  0
LINE
  5
15A
330
1F
100
AcDbEntity
  8
0
  6
Continuous
 62
     7
370
    15
100
AcDbLine
 10
373.8307076673
 20
682.7010694307
 30
0.0
 11
373.8307076673
 21
681.1198774141
 31
0.0
  0
ARC
  5
15B
330
1F
100
AcDbEntity
  8
0
  6
Continuous
 62
     7
370
    15
100
AcDbCircle
 10
366.8307083825
 20
680.101068477
 30
0.0
 40
2.0
100
AcDbArc
 50
90.0
 51
180.0
  0
LINE
  5
15C
330
1F
100
AcDbEntity
  8
0
  6
Continuous
 62
     7
370
    15
100
AcDbLine
 10
366.8307083825
 20
682.101059274
 30
0.0
 11
366.8307083825
 21
680.5202546876
 31
0.0
  0
SPLINE
  5
15D
330
1F
100
AcDbEntity
  8
0
  6
Continuous
 62
     7
370
    15
100
AcDbSpline
210
0.0
220
0.0
230
1.0
 70
    24
 71
     3
 72
    11
 73
     7
 74
     0
 42
0.00000001
 43
0.00000001
 40
0.0
 40
0.0
 40
0.0
 40
0.0
 40
0.2497133258628272
 40
0.4985094893069981
 40
0.7505181069468061
 40
1.0
 40
1.0
 40
1.0
 40
1.0
 10
364.8307117799906
 20
680.1010552209044
 30
0.0
 10
364.8307117799906
 20
680.0942836570596
 30
0.0
 10
364.8307117799906
 20
680.0807654003848
 30
0.0
 10
364.8307117799906
 20
679.9684400392015
 30
0.0
 10
364.8307117799906
 20
679.8027261097228
 30
0.0
 10
364.8307117799906
 20
679.650065886495
 30
0.0
 10
364.8307117799906
 20
679.5741203587676
 30
0.0
  0
LINE
  5
15E
330
1F
100
AcDbEntity
  8
0
  6
Continuous
 62
     7
370
    15
100
AcDbLine
 10
541.8307054023
 20
682.101059274
 30
0.0
 11
548.830704687
 21
682.101059274
 31
0.0
  0
LINE
  5
15F
330
1F
100
AcDbEntity
  8
0
  6
Continuous
 62
     7
370
    15
100
AcDbLine
 10
548.830704687
 20
680.5202546876
 30
0.0
 11
548.830704687
 21
682.101059274
 31
0.0
  0
LINE
  5
160
330
1F
100
AcDbEntity
  8
0
  6
Continuous
 62
     7
370
    15
100
AcDbLine
 10
366.8307083825
 20
682.101059274
 30
0.0
 11
373.8307076673
 21
682.101059274
 31
0.0
  0
ARC
  5
161
330
1F
100
AcDbEntity
  8
0
  6
Continuous
 62
     7
370
    15
100
AcDbCircle
 10
548.8307083825
 20
680.101068477
 30
0.0
 40
2.0
100
AcDbArc
 50
0.0
 51
90.0
  0
SPLINE
  5
162
330
1F
100
AcDbEntity
  8
0
  6
Continuous
 62
     7
370
    15
100
AcDbSpline
210
0.0
220
0.0
230
1.0
 70
    24
 71
     3
 72
    11
 73
     7
 74
     0
 42
0.00000001
 43
0.00000001
 40
0.0
 40
0.0
 40
0.0
 40
0.0
 40
0.2497199782268975
 40
0.4985178538409589
 40
0.7505236231111364
 40
1.0
 40
1.0
 40
1.0
 40
1.0
 10
550.8307087401537
 20
679.5741203587683
 30
0.0
 10
550.8307087401537
 20
679.6500916333171
 30
0.0
 10
550.8307087401537
 20
679.8017536549561
 30
0.0
 10
550.8307087401537
 20
679.9679429500516
 30
0.0
 10
550.8307087401536
 20
680.0809543319044
 30
0.0
 10
550.8307087401536
 20
680.0943774926336
 30
0.0
 10
550.8307087401536
 20
680.101055220905
 30
0.0
  0
LINE
  5
163
330
1F
100
AcDbEntity
  8
0
  6
Continuous
 62
     7
370
    15
100
AcDbLine
 10
410.0807084868
 20
684.5010700982
 30
0.0
 11
448.5807082782
 21
684.5010700982
 31
0.0
  0
LINE
  5
164
330
1F
100
AcDbEntity
  8
0
  6
Continuous
 62
     7
370
    15
100
AcDbLine
 10
418.3307084421
 20
688.0010548394
 30
0.0
 11
410.0807084868
 21
688.0010548394
 31
0.0
  0
LINE
  5
165
330
1F
100
AcDbEntity
  8
0
  6
Continuous
 62
     7
370
    15
100
AcDbLine
 10
448.5807082782
 20
688.0010548394
 30
0.0
 11
440.3307083229
 21
688.0010548394
 31
0.0
  0
LINE
  5
166
330
1F
100
AcDbEntity
  8
0
  6
Continuous
 62
     7
370
    15
100
AcDbLine
 10
421.0072848181
 20
690.9010592263
 30
0.0
 11
412.9807091484
 21
690.9010592263
 31
0.0
  0
LINE
  5
167
330
1F
100
AcDbEntity
  8
0
  6
Continuous
 62
     7
370
    15
100
AcDbLine
 10
445.6807076166
 20
690.9010592263
 30
0.0
 11
437.654131947
 21
690.9010592263
 31
0.0
  0
LINE
  5
168
330
1F
100
AcDbEntity
  8
0
  6
Continuous
 62
     7
370
    15
100
AcDbLine
 10
441.8307085688
 20
683.5010829728
 30
0.0
 11
416.8307081963
 21
683.5010829728
 31
0.0
  0
LINE
  5
169
330
1F
100
AcDbEntity
  8
0
  6
Continuous
 62
     7
370
    15
100
AcDbLine
 10
429.3307083825
 20
683.9010599416
 30
0.0
 11
416.8457080776
 21
683.9010599416
 31
0.0
  0
LINE
  5
16A
330
1F
100
AcDbEntity
  8
0
  6
Continuous
 62
     7
370
    15
100
AcDbLine
 10
441.8157086874
 20
683.9010599416
 30
0.0
 11
429.3307083825
 21
683.9010599416
 31
0.0
  0
LINE
  5
16B
330
1F
100
AcDbEntity
  8
0
  6
Continuous
 62
     7
370
    15
100
AcDbLine
 10
431.3307084775
 20
702.2010567945
 30
0.0
 11
431.3307084775
 21
698.7010720533
 31
0.0
  0
LWPOLYLINE
  5
16C
330
1F
100
AcDbEntity
  8
0
  6
Continuous
 62
     7
370
    15
100
AcDbPolyline
 90
        3
 70
   128
 43
0.0
 10
431.3307084775
 20
702.2010567945
 10
431.5811795349
 20
702.4515453141
 10
431.8307083266
 20
702.7010801595
  0
LINE
  5
16D
330
1F
100
AcDbEntity
  8
0
  6
Continuous
 62
     7
370
    15
100
AcDbLine
 10
437.3307087625
 20
702.7010801595
 30
0.0
 11
431.8307083266
 21
702.7010801595
 31
0.0
  0
LINE
  5
16E
330
1F
100
AcDbEntity
  8
0
  6
Continuous
 62
     7
370
    15
100
AcDbLine
 10
437.3307087625
 20
690.9010592263
 30
0.0
 11
437.3307087625
 21
702.7010801595
 31
0.0
  0
LINE
  5
16F
330
1F
100
AcDbEntity
  8
0
  6
Continuous
 62
     7
370
    15
100
AcDbLine
 10
421.3307080025
 20
702.7010801595
 30
0.0
 11
421.3307080025
 21
690.9010592263
 31
0.0
  0
LINE
  5
170
330
1F
100
AcDbEntity
  8
0
  6
Continuous
 62
     7
370
    15
100
AcDbLine
 10
426.8307084384
 20
702.7010801595
 30
0.0
 11
421.3307080025
 21
702.7010801595
 31
0.0
  0
LWPOLYLINE
  5
171
330
1F
100
AcDbEntity
  8
0
  6
Continuous
 62
     7
370
    15
100
AcDbPolyline
 90
        3
 70
   128
 43
0.0
 10
427.3307082875
 20
702.2010567945
 10
427.0802372302
 20
702.4515453141
 10
426.8307084384
 20
702.7010801595
  0
LINE
  5
172
330
1F
100
AcDbEntity
  8
0
  6
Continuous
 62
     7
370
    15
100
AcDbLine
 10
427.3307082875
 20
698.7010720533
 30
0.0
 11
427.3307082875
 21
702.2010567945
 31
0.0
  0
LINE
  5
173
330
1F
100
AcDbEntity
  8
0
  6
Continuous
 62
     7
370
    15
100
AcDbLine
 10
431.3307084775
 20
698.7010720533
 30
0.0
 11
427.3307082875
 21
698.7010720533
 31
0.0
  0
LINE
  5
174
330
1F
100
AcDbEntity
  8
0
  6
Continuous
 62
     7
370
    15
100
AcDbLine
 10
558.8307100515
 20
631.8010571759
 30
0.0
 11
558.8307100515
 21
639.3010798257
 31
0.0
  0
LINE
  5
175
330
1F
100
AcDbEntity
  8
0
  6
Continuous
 62
     7
370
    15
100
AcDbLine
 10
558.8307100515
 20
624.3010643285
 30
0.0
 11
558.8307100515
 21
631.8010571759
 31
0.0
  0
SPLINE
  5
176
330
1F
100
AcDbEntity
  8
0
  6
Continuous
 62
     7
370
    15
100
AcDbSpline
210
0.0
220
0.0
230
1.0
 70
    24
 71
     3
 72
     9
 73
     5
 74
     0
 42
0.00000001
 43
0.00000001
 40
0.0
 40
0.0
 40
0.0
 40
0.0
 40
0.528770188490489
 40
1.0
 40
1.0
 40
1.0
 40
1.0
 10
557.8307080248981
 20
623.8010707657963
 30
0.0
 10
558.044450942968
 20
623.8010707657963
 30
0.0
 10
558.4486774344048
 20
623.8010707657963
 30
0.0
 10
558.4956606674803
 20
623.8010707657965
 30
0.0
 10
558.5178005675464
 20
623.8010707657965
 30
0.0
  0
SPLINE
  5
177
330
1F
100
AcDbEntity
  8
0
  6
Continuous
 62
     7
370
    15
100
AcDbSpline
210
0.0
220
0.0
230
1.0
 70
     8
 71
     3
 72
    11
 73
     7
 74
     0
 42
0.00000001
 43
0.00000001
 40
0.0
 40
0.0
 40
0.0
 40
0.0
 40
0.264535730760753
 40
0.534769458380756
 40
0.7652648134956009
 40
1.0
 40
1.0
 40
1.0
 40
1.0
 10
557.8307080248981
 20
631.8010571759373
 30
0.0
 10
558.036390863547
 20
631.1068279866079
 30
0.0
 10
558.4521868692747
 20
629.7034161809431
 30
0.0
 10
558.6044778263592
 20
627.6240695731092
 30
0.0
 10
558.3813822064923
 20
625.6358409523665
 30
0.0
 10
558.0153779330466
 20
624.416365350421
 30
0.0
 10
557.8307080248981
 20
623.8010707657965
 30
0.0
  0
SPLINE
  5
178
330
1F
100
AcDbEntity
  8
0
  6
Continuous
 62
     7
370
    15
100
AcDbSpline
210
0.0
220
0.0
230
1.0
 70
     8
 71
     3
 72
    11
 73
     7
 74
     0
 42
0.00000001
 43
0.00000001
 40
0.0
 40
0.0
 40
0.0
 40
0.0
 40
0.2645349964102596
 40
0.5347680234265548
 40
0.7652627845432572
 40
1.0
 40
1.0
 40
1.0
 40
1.0
 10
557.8307080248981
 20
639.8010733884007
 30
0.0
 10
558.0363908169962
 20
639.1068442299941
 30
0.0
 10
558.4521867671571
 20
637.7034323567669
 30
0.0
 10
558.6044783842248
 20
635.6240850300186
 30
0.0
 10
558.3813796185607
 20
633.6358524426049
 30
0.0
 10
558.0153777475076
 20
632.4163624447043
 30
0.0
 10
557.8307080248981
 20
631.8010571759373
 30
0.0
  0
SPLINE
  5
179
330
1F
100
AcDbEntity
  8
0
  6
Continuous
 62
     7
370
    15
100
AcDbSpline
210
0.0
220
0.0
230
1.0
 70
    24
 71
     3
 72
    10
 73
     6
 74
     0
 42
0.00000001
 43
0.00000001
 40
0.0
 40
0.0
 40
0.0
 40
0.0
 40
0.0690071937406876
 40
0.5302601895774787
 40
0.9999999999999999
 40
0.9999999999999999
 40
0.9999999999999999
 40
0.9999999999999999
 10
558.5178005675464
 20
639.8010733884007
 30
0.0
 10
558.5259477535376
 20
639.8010733884007
 30
0.0
 10
558.588551782973
 20
639.8010733884008
 30
0.0
 10
558.3594176959821
 20
639.8010733884006
 30
0.0
 10
558.0080123709994
 20
639.8010733884007
 30
0.0
 10
557.8307080248981
 20
639.8010733884007
 30
0.0
  0
LINE
  5
17A
330
1F
100
AcDbEntity
  8
0
  6
Continuous
 62
     7
370
    15
100
AcDbLine
 10
557.8307080249
 20
631.8010571759
 30
0.0
 11
551.8307107667
 21
631.8010571759
 31
0.0
  0
LINE
  5
17B
330
1F
100
AcDbEntity
  8
0
  6
Continuous
 62
     7
370
    15
100
AcDbLine
 10
557.8307080249
 20
623.8010707658
 30
0.0
 11
551.8307107667
 21
623.8010707658
 31
0.0
  0
SPLINE
  5
17C
330
1F
100
AcDbEntity
  8
0
  6
Continuous
 62
     7
370
    15
100
AcDbSpline
210
0.0
220
0.0
230
1.0
 70
     8
 71
     3
 72
    11
 73
     7
 74
     0
 42
0.00000001
 43
0.00000001
 40
0.0
 40
0.0
 40
0.0
 40
0.0
 40
0.264535882315644
 40
0.5347695320015119
 40
0.7652648357954064
 40
1.0
 40
1.0
 40
1.0
 40
1.0
 10
551.8307107667117
 20
623.8010707657963
 30
0.0
 10
551.6250228534086
 20
624.4952997877402
 30
0.0
 10
551.2092167700424
 20
625.8987106442067
 30
0.0
 10
551.0569564817565
 20
627.9780585428423
 30
0.0
 10
551.2800329169627
 20
629.9662870968892
 30
0.0
 10
551.6460396206758
 20
631.185762601506
 30
0.0
 10
551.8307107667117
 20
631.8010571759373
 30
0.0
  0
LINE
  5
17D
330
1F
100
AcDbEntity
  8
0
  6
Continuous
 62
     7
370
    15
100
AcDbLine
 10
557.8307080249
 20
639.8010733884
 30
0.0
 11
551.8307107667
 21
639.8010733884
 31
0.0
  0
SPLINE
  5
17E
330
1F
100
AcDbEntity
  8
0
  6
Continuous
 62
     7
370
    15
100
AcDbSpline
210
0.0
220
0.0
230
1.0
 70
     8
 71
     3
 72
    11
 73
     7
 74
     0
 42
0.00000001
 43
0.00000001
 40
0.0
 40
0.0
 40
0.0
 40
0.0
 40
0.2645378837310379
 40
0.53477078253935
 40
0.7652654422931034
 40
1.0
 40
1.0
 40
1.0
 40
1.0
 10
551.8307107667117
 20
631.8010571759373
 30
0.0
 10
551.6250229691808
 20
632.495296796883
 30
0.0
 10
551.2092192933782
 20
633.8987217435363
 30
0.0
 10
551.0569560257603
 20
635.9780741834138
 30
0.0
 10
551.2800330713455
 20
637.9663036697044
 30
0.0
 10
551.6460396596535
 20
639.1857788921833
 30
0.0
 10
551.8307107667117
 20
639.8010733884008
 30
0.0
  0
SPLINE
  5
17F
330
1F
100
AcDbEntity
  8
0
  6
Continuous
 62
     7
370
    15
100
AcDbSpline
210
0.0
220
0.0
230
1.0
 70
    24
 71
     3
 72
    10
 73
     6
 74
     0
 42
0.00000001
 43
0.00000001
 40
0.0
 40
0.0
 40
0.0
 40
0.0
 40
0.0690071067578483
 40
0.5302600670129781
 40
1.0
 40
1.0
 40
1.0
 40
1.0
 10
551.1436182240634
 20
623.8010707657963
 30
0.0
 10
551.1354737380194
 20
623.8010707657963
 30
0.0
 10
551.0728903909067
 20
623.8010707657963
 30
0.0
 10
551.3019919527003
 20
623.8010707657963
 30
0.0
 10
551.6534033347647
 20
623.8010707657963
 30
0.0
 10
551.8307107667117
 20
623.8010707657963
 30
0.0
  0
SPLINE
  5
180
330
1F
100
AcDbEntity
  8
0
  6
Continuous
 62
     7
370
    15
100
AcDbSpline
210
0.0
220
0.0
230
1.0
 70
    24
 71
     3
 72
     9
 73
     5
 74
     0
 42
0.00000001
 43
0.00000001
 40
0.0
 40
0.0
 40
0.0
 40
0.0
 40
0.5287704075067012
 40
1.0
 40
1.0
 40
1.0
 40
1.0
 10
551.8307107667117
 20
639.8010733884007
 30
0.0
 10
551.6169639706004
 20
639.8010733884007
 30
0.0
 10
551.2127303125199
 20
639.8010733884007
 30
0.0
 10
551.1657545795622
 20
639.8010733884007
 30
0.0
 10
551.1436182240634
 20
639.8010733884007
 30
0.0
  0
LINE
  5
181
330
1F
100
AcDbEntity
  8
0
  6
Continuous
 62
     7
370
    15
100
AcDbLine
 10
560.630710719
 20
631.8010571759
 30
0.0
 11
560.630710719
 21
636.8010822099
 31
0.0
  0
LINE
  5
182
330
1F
100
AcDbEntity
  8
0
  6
Continuous
 62
     7
370
    15
100
AcDbLine
 10
560.630710719
 20
626.8010619443
 30
0.0
 11
560.630710719
 21
631.8010571759
 31
0.0
  0
LINE
  5
183
330
1F
100
AcDbEntity
  8
0
  6
Continuous
 62
     7
370
    15
100
AcDbLine
 10
561.1307042817
 20
631.8010571759
 30
0.0
 11
561.1307042817
 21
636.3010588449
 31
0.0
  0
LINE
  5
184
330
1F
100
AcDbEntity
  8
0
  6
Continuous
 62
     7
370
    15
100
AcDbLine
 10
561.1307042817
 20
627.301055507
 30
0.0
 11
561.1307042817
 21
631.8010571759
 31
0.0
  0
SPLINE
  5
185
330
1F
100
AcDbEntity
  8
0
  6
Continuous
 62
     7
370
    15
100
AcDbSpline
210
0.0
220
0.0
230
1.0
 70
     8
 71
     3
 72
    18
 73
    14
 74
     0
 42
0.00000001
 43
0.00000001
 40
0.0
 40
0.0
 40
0.0
 40
0.0
 40
0.0391144520033593
 40
0.078092027267024
 40
0.1389198720023904
 40
0.2382981652206404
 40
0.4914347175272529
 40
0.7614772251805237
 40
0.8314854030829116
 40
0.9019336872484554
 40
0.9480415734075327
 40
0.9875254480364718
 40
1.0
 40
1.0
 40
1.0
 40
1.0
 10
458.8362611065302
 20
502.0010653298526
 30
0.0
 10
458.830064870189
 20
502.1187853427499
 30
0.0
 10
458.817694080557
 20
502.3538134202561
 30
0.0
 10
458.7119339706655
 20
502.7234999655847
 30
0.0
 10
458.4907818875282
 20
503.1364503990035
 30
0.0
 10
457.914623038205
 20
503.6475459136686
 30
0.0
 10
456.9742173623633
 20
503.7939447282532
 30
0.0
 10
456.0708504370442
 20
503.672306406328
 30
0.0
 10
455.499179674215
 20
503.2017324400982
 30
0.0
 10
455.2688026307609
 20
502.8677022842513
 30
0.0
 10
455.1311564751589
 20
502.4817611834389
 30
0.0
 10
455.0868256246405
 20
502.19417389688
 30
0.0
 10
455.0841322588384
 20
502.0384521294072
 30
0.0
 10
455.0834856162462
 20
502.0010653298526
 30
0.0
  0
SPLINE
  5
186
330
1F
100
AcDbEntity
  8
0
  6
Continuous
 62
     7
370
    15
100
AcDbSpline
210
0.0
220
0.0
230
1.0
 70
     8
 71
     3
 72
    18
 73
    14
 74
     0
 42
0.00000001
 43
0.00000001
 40
0.0
 40
0.0
 40
0.0
 40
0.0
 40
0.039114462102795
 40
0.0780921056831308
 40
0.1389198832958475
 40
0.2382981341090543
 40
0.4914346146964769
 40
0.7614773672627647
 40
0.8314853080878912
 40
0.9019335755232336
 40
0.9480416186908522
 40
0.9875254311190177
 40
1.0
 40
1.0
 40
1.0
 40
1.0
 10
455.0834856162462
 20
502.0010653298525
 30
0.0
 10
455.0710935240503
 20
502.1187853958758
 30
0.0
 10
455.0463526859721
 20
502.3538137547667
 30
0.0
 10
454.8348256361137
 20
502.7234992571458
 30
0.0
 10
454.3925269047486
 20
503.1364508212157
 30
0.0
 10
453.2402095278757
 20
503.6475456816389
 30
0.0
 10
451.3593966539872
 20
503.7939443440214
 30
0.0
 10
449.5526642682413
 20
503.6723078239231
 30
0.0
 10
448.4093218968423
 20
503.2017321186722
 30
0.0
 10
447.9485692295315
 20
502.8677011024223
 30
0.0
 10
447.6732737460052
 20
502.4817624503058
 30
0.0
 10
447.5846145321606
 20
502.1941734492259
 30
0.0
 10
447.57922489584
 20
502.0384521099004
 30
0.0
 10
447.577930910388
 20
502.0010653298525
 30
0.0
  0
SPLINE
  5
187
330
1F
100
AcDbEntity
  8
0
  6
Continuous
 62
     7
370
    15
100
AcDbSpline
210
0.0
220
0.0
230
1.0
 70
     8
 71
     3
 72
    18
 73
    14
 74
     0
 42
0.00000001
 43
0.00000001
 40
0.0
 40
0.0
 40
0.0
 40
0.0
 40
0.0344352711961469
 40
0.0724915183619365
 40
0.1306345799336408
 40
0.2236185273953029
 40
0.4104352663806359
 40
0.5001952024516879
 40
0.7376499168592278
 40
0.856869632547948
 40
0.9094903883292773
 40
0.9625703131177505
 40
1.0
 40
1.0
 40
1.0
 40
1.0
 10
447.577930910388
 20
502.0010653298525
 30
0.0
 10
447.5731345285099
 20
502.1046622490009
 30
0.0
 10
447.563037410267
 20
502.3227496258623
 30
0.0
 10
447.4707342077583
 20
502.6780557683705
 30
0.0
 10
447.2678977605065
 20
503.0861168467355
 30
0.0
 10
446.8052407604621
 20
503.5389832586028
 30
0.0
 10
446.2498941106127
 20
503.707283051686
 30
0.0
 10
445.4810188109458
 20
503.7591790184019
 30
0.0
 10
444.8061133624724
 20
503.6601534315236
 30
0.0
 10
444.2217899129334
 20
503.2044911717286
 30
0.0
 10
443.9648004891447
 20
502.7617040053307
 30
0.0
 10
443.8448916630651
 20
502.3861182977037
 30
0.0
 10
443.8309287603441
 20
502.1137157209579
 30
0.0
 10
443.8251544887814
 20
502.0010653298525
 30
0.0
  0
LINE
  5
188
330
1F
100
AcDbEntity
  8
0
  6
Continuous
 62
     7
370
    15
100
AcDbLine
 10
446.5627595017
 20
504.001069383
 30
0.0
 11
445.8251557479
 21
504.001069383
 31
0.0
  0
LINE
  5
189
330
1F
100
AcDbEntity
  8
0
  6
Continuous
 62
     7
370
    15
100
AcDbLine
 10
456.8362626413
 20
504.001069383
 30
0.0
 11
446.5627595017
 21
504.001069383
 31
0.0
  0
LINE
  5
18A
330
1F
100
AcDbEntity
  8
0
  6
Continuous
 62
     7
370
    15
100
AcDbLine
 10
451.3307082633
 20
499.1010758441
 30
0.0
 11
447.5779309104
 21
499.1010758441
 31
0.0
  0
LINE
  5
18B
330
1F
100
AcDbEntity
  8
0
  6
Continuous
 62
     7
370
    15
100
AcDbLine
 10
447.5779309104
 20
502.0010653299
 30
0.0
 11
447.5779309104
 21
499.1010758441
 31
0.0
  0
LINE
  5
18C
330
1F
100
AcDbEntity
  8
0
  6
Continuous
 62
     7
370
    15
100
AcDbLine
 10
455.0834856162
 20
502.0010653299
 30
0.0
 11
455.0834856162
 21
499.1010758441
 31
0.0
  0
LINE
  5
18D
330
1F
100
AcDbEntity
  8
0
  6
Continuous
 62
     7
370
    15
100
AcDbLine
 10
455.0834856162
 20
499.1010758441
 30
0.0
 11
451.3307082633
 21
499.1010758441
 31
0.0
  0
LINE
  5
18E
330
1F
100
AcDbEntity
  8
0
  6
Continuous
 62
     7
370
    15
100
AcDbLine
 10
458.8362611065
 20
502.0010653299
 30
0.0
 11
458.8362611065
 21
499.1010758441
 31
0.0
  0
LINE
  5
18F
330
1F
100
AcDbEntity
  8
0
  6
Continuous
 62
     7
370
    15
100
AcDbLine
 10
458.8362611065
 20
499.1010758441
 30
0.0
 11
456.9598733614
 21
499.1010758441
 31
0.0
  0
LINE
  5
190
330
1F
100
AcDbEntity
  8
0
  6
Continuous
 62
     7
370
    15
100
AcDbLine
 10
456.9598733614
 20
499.1010758441
 30
0.0
 11
455.0834856162
 21
499.1010758441
 31
0.0
  0
LINE
  5
191
330
1F
100
AcDbEntity
  8
0
  6
Continuous
 62
     7
370
    15
100
AcDbLine
 10
445.7015431652
 20
499.1010758441
 30
0.0
 11
443.8251544888
 21
499.1010758441
 31
0.0
  0
LINE
  5
192
330
1F
100
AcDbEntity
  8
0
  6
Continuous
 62
     7
370
    15
100
AcDbLine
 10
443.8251544888
 20
502.0010653299
 30
0.0
 11
443.8251544888
 21
499.1010758441
 31
0.0
  0
LINE
  5
193
330
1F
100
AcDbEntity
  8
0
  6
Continuous
 62
     7
370
    15
100
AcDbLine
 10
447.5779309104
 20
499.1010758441
 30
0.0
 11
445.7015431652
 21
499.1010758441
 31
0.0
  0
SPLINE
  5
194
330
1F
100
AcDbEntity
  8
0
  6
Continuous
 62
     7
370
    15
100
AcDbSpline
210
0.0
220
0.0
230
1.0
 70
     8
 71
     3
 72
    18
 73
    14
 74
     0
 42
0.00000001
 43
0.00000001
 40
0.0
 40
0.0
 40
0.0
 40
0.0
 40
0.0391144660042662
 40
0.0780920703582925
 40
0.1389198274584691
 40
0.2382981751684242
 40
0.4914347064209554
 40
0.7614774060738981
 40
0.8314853686613181
 40
0.9019336207888923
 40
0.9480415808798742
 40
0.9875254371669091
 40
1.0
 40
1.0
 40
1.0
 40
1.0
 10
414.8354240859542
 20
502.0010653298523
 30
0.0
 10
414.8293888824869
 20
502.1187853636119
 30
0.0
 10
414.8173395927496
 20
502.3538135283305
 30
0.0
 10
414.7143259574879
 20
502.7234994437135
 30
0.0
 10
414.4989253063254
 20
503.1364510906258
 30
0.0
 10
413.9377415867637
 20
503.6475452769057
 30
0.0
 10
413.0217804156172
 20
503.7939445166355
 30
0.0
 10
412.141895721887
 20
503.6723077461238
 30
0.0
 10
411.5850810857787
 20
503.2017320862541
 30
0.0
 10
411.3606951030005
 20
502.8677016732789
 30
0.0
 10
411.2266265193014
 20
502.481761719316
 30
0.0
 10
411.1834448321123
 20
502.1941736937436
 30
0.0
 10
411.1808221912484
 20
502.0384521206842
 30
0.0
 10
411.1801925281677
 20
502.0010653298523
 30
0.0
  0
SPLINE
  5
195
330
1F
100
AcDbEntity
  8
0
  6
Continuous
 62
     7
370
    15
100
AcDbSpline
210
0.0
220
0.0
230
1.0
 70
     8
 71
     3
 72
    18
 73
    14
 74
     0
 42
0.00000001
 43
0.00000001
 40
0.0
 40
0.0
 40
0.0
 40
0.0
 40
0.0391144497251663
 40
0.0780920834937022
 40
0.1389197899402595
 40
0.2382982500813113
 40
0.4914345586482187
 40
0.7614773839795289
 40
0.8314854430905594
 40
0.9019335723587023
 40
0.9480416304893989
 40
0.9875254383428705
 40
1.0
 40
1.0
 40
1.0
 40
1.0
 10
411.1801925281677
 20
502.0010653298523
 30
0.0
 10
411.1678020851984
 20
502.1187854031982
 30
0.0
 10
411.1430645390056
 20
502.3538137843005
 30
0.0
 10
410.9315611640067
 20
502.7234990239071
 30
0.0
 10
410.4893123644854
 20
503.1364517555675
 30
0.0
 10
409.3371223256586
 20
503.6475441454047
 30
0.0
 10
407.456519919916
 20
503.7939453190194
 30
0.0
 10
405.6499896499292
 20
503.6723067413059
 30
0.0
 10
404.5067737960907
 20
503.2017329255519
 30
0.0
 10
404.0460734649126
 20
502.8677004964286
 30
0.0
 10
403.7708091268272
 20
502.4817625616666
 30
0.0
 10
403.6821585090136
 20
502.1941735111368
 30
0.0
 10
403.6767712818577
 20
502.0384521112741
 30
0.0
 10
403.6754778752718
 20
502.0010653298523
 30
0.0
  0
SPLINE
  5
196
330
1F
100
AcDbEntity
  8
0
  6
Continuous
 62
     7
370
    15
100
AcDbSpline
210
0.0
220
0.0
230
1.0
 70
     8
 71
     3
 72
    18
 73
    14
 74
     0
 42
0.00000001
 43
0.00000001
 40
0.0
 40
0.0
 40
0.0
 40
0.0
 40
0.0344352874781545
 40
0.0724915258099098
 40
0.1306345312106298
 40
0.2236184803937209
 40
0.4104352333462653
 40
0.5001952450311077
 40
0.7376498970804931
 40
0.8568696748296855
 40
0.9094903802336826
 40
0.9625703082887767
 40
1.0
 40
1.0
 40
1.0
 40
1.0
 10
403.6754778752718
 20
502.0010653298523
 30
0.0
 10
403.6705573925973
 20
502.104662235827
 30
0.0
 10
403.6601990270101
 20
502.3227495042449
 30
0.0
 10
403.5655192802169
 20
502.678055625832
 30
0.0
 10
403.3574531533039
 20
503.0861171407379
 30
0.0
 10
402.8828743875285
 20
503.5389831272752
 30
0.0
 10
402.3132148077374
 20
503.707283084558
 30
0.0
 10
401.5245308240492
 20
503.7591790420823
 30
0.0
 10
400.8322284400479
 20
503.6601529209526
 30
0.0
 10
400.2328486130935
 20
503.2044916570899
 30
0.0
 10
399.9692359258924
 20
502.7617037696019
 30
0.0
 10
399.8462378011362
 20
502.3861182982181
 30
0.0
 10
399.8319150649024
 20
502.1137157242618
 30
0.0
 10
399.8259919861946
 20
502.0010653298523
 30
0.0
  0
SPLINE
  5
197
330
1F
100
AcDbEntity
  8
0
  6
Continuous
 62
     7
370
    15
100
AcDbSpline
210
0.0
220
0.0
230
1.0
 70
     8
 71
     3
 72
     9
 73
     5
 74
     0
 42
0.00000001
 43
0.00000001
 40
0.0
 40
0.0
 40
0.0
 40
0.0
 40
0.6925334315755821
 40
1.0
 40
1.0
 40
1.0
 40
1.0
 10
399.8259919861946
 20
502.0010653298523
 30
0.0
 10
399.829960612127
 20
502.120692803141
 30
0.0
 10
399.8356912032457
 20
502.2934317177323
 30
0.0
 10
399.8783369275263
 20
502.440003900521
 30
0.0
 10
399.8914490620289
 20
502.4850699465897
 30
0.0
  0
LINE
  5
198
330
1F
100
AcDbEntity
  8
0
  6
Continuous
 62
     7
370
    15
100
AcDbLine
 10
402.6044252495
 20
504.001069383
 30
0.0
 11
401.8251541237
 21
504.001069383
 31
0.0
  0
LINE
  5
199
330
1F
100
AcDbEntity
  8
0
  6
Continuous
 62
     7
370
    15
100
AcDbLine
 10
412.8362610171
 20
504.001069383
 30
0.0
 11
402.6044252495
 21
504.001069383
 31
0.0
  0
LINE
  5
19A
330
1F
100
AcDbEntity
  8
0
  6
Continuous
 62
     7
370
    15
100
AcDbLine
 10
407.4278342704
 20
499.1010758441
 30
0.0
 11
403.6754778753
 21
499.1010758441
 31
0.0
  0
LINE
  5
19B
330
1F
100
AcDbEntity
  8
0
  6
Continuous
 62
     7
370
    15
100
AcDbLine
 10
403.6754778753
 20
502.0010653299
 30
0.0
 11
403.6754778753
 21
499.1010758441
 31
0.0
  0
LINE
  5
19C
330
1F
100
AcDbEntity
  8
0
  6
Continuous
 62
     7
370
    15
100
AcDbLine
 10
411.1801925282
 20
502.0010653299
 30
0.0
 11
411.1801925282
 21
499.1010758441
 31
0.0
  0
LINE
  5
19D
330
1F
100
AcDbEntity
  8
0
  6
Continuous
 62
     7
370
    15
100
AcDbLine
 10
411.1801925282
 20
499.1010758441
 30
0.0
 11
407.4278342704
 21
499.1010758441
 31
0.0
  0
LINE
  5
19E
330
1F
100
AcDbEntity
  8
0
  6
Continuous
 62
     7
370
    15
100
AcDbLine
 10
414.835424086
 20
502.0010653299
 30
0.0
 11
414.835424086
 21
499.1010758441
 31
0.0
  0
LINE
  5
19F
330
1F
100
AcDbEntity
  8
0
  6
Continuous
 62
     7
370
    15
100
AcDbLine
 10
414.835424086
 20
499.1010758441
 30
0.0
 11
413.0078087727
 21
499.1010758441
 31
0.0
  0
LINE
  5
1A0
330
1F
100
AcDbEntity
  8
0
  6
Continuous
 62
     7
370
    15
100
AcDbLine
 10
413.0078087727
 20
499.1010758441
 30
0.0
 11
411.1801925282
 21
499.1010758441
 31
0.0
  0
LINE
  5
1A1
330
1F
100
AcDbEntity
  8
0
  6
Continuous
 62
     7
370
    15
100
AcDbLine
 10
401.7507358621
 20
499.1010758441
 30
0.0
 11
399.8259919862
 21
499.1010758441
 31
0.0
  0
LINE
  5
1A2
330
1F
100
AcDbEntity
  8
0
  6
Continuous
 62
     7
370
    15
100
AcDbLine
 10
399.8259919862
 20
502.0010653299
 30
0.0
 11
399.8259919862
 21
499.1010758441
 31
0.0
  0
LINE
  5
1A3
330
1F
100
AcDbEntity
  8
0
  6
Continuous
 62
     7
370
    15
100
AcDbLine
 10
403.6754778753
 20
499.1010758441
 30
0.0
 11
401.7507358621
 21
499.1010758441
 31
0.0
  0
LINE
  5
1A4
330
1F
100
AcDbEntity
  8
0
  6
Continuous
 62
     7
370
    15
100
AcDbLine
 10
414.8362622763
 20
502.0010653299
 30
0.0
 11
414.8362622763
 21
499.1010758441
 31
0.0
  0
LINE
  5
1A5
330
1F
100
AcDbEntity
  8
0
  6
Continuous
 62
     7
370
    15
100
AcDbLine
 10
414.8362622763
 20
499.1010758441
 30
0.0
 11
414.835424086
 21
499.1010758441
 31
0.0
  0
LINE
  5
1A6
330
1F
100
AcDbEntity
  8
0
  6
Continuous
 62
     7
370
    15
100
AcDbLine
 10
399.8259919862
 20
499.1010758441
 30
0.0
 11
399.8251556585
 21
499.1010758441
 31
0.0
  0
LINE
  5
1A7
330
1F
100
AcDbEntity
  8
0
  6
Continuous
 62
     7
370
    15
100
AcDbLine
 10
399.8251556585
 20
502.0010653299
 30
0.0
 11
399.8251556585
 21
499.1010758441
 31
0.0
  0
LINE
  5
1A8
330
1F
100
AcDbEntity
  8
0
  6
Continuous
 62
     7
370
    15
100
AcDbLine
 10
125.0666186418
 20
217.2510656875
 30
0.0
 11
129.0666192974
 21
213.2510724824
 31
0.0
  0
LINE
  5
1A9
330
1F
100
AcDbEntity
  8
0
  6
Continuous
 62
     7
370
    15
100
AcDbLine
 10
159.8666191305
 20
213.2510724824
 30
0.0
 11
163.8666197862
 21
217.2510656875
 31
0.0
  0
LINE
  5
1AA
330
1F
100
AcDbEntity
  8
0
  6
Continuous
 62
     7
370
    15
100
AcDbLine
 10
163.8666197862
 20
217.2510656875
 30
0.0
 11
163.8666197862
 21
220.7510653299
 31
0.0
  0
LINE
  5
1AB
330
1F
100
AcDbEntity
  8
0
  6
Continuous
 62
     7
370
    15
100
AcDbLine
 10
125.0666186418
 20
220.7510653299
 30
0.0
 11
125.0666186418
 21
217.2510656875
 31
0.0
  0
LINE
  5
1AC
330
1F
100
AcDbEntity
  8
0
  6
Continuous
 62
     7
370
    15
100
AcDbLine
 10
160.3666201438
 20
220.7510653299
 30
0.0
 11
158.3666188847
 21
222.751069383
 31
0.0
  0
LINE
  5
1AD
330
1F
100
AcDbEntity
  8
0
  6
Continuous
 62
     7
370
    15
100
AcDbLine
 10
130.5666195433
 20
222.751069383
 30
0.0
 11
128.5666182842
 21
220.7510653299
 31
0.0
  0
LINE
  5
1AE
330
1F
100
AcDbEntity
  8
0
  6
Continuous
 62
     7
370
    15
100
AcDbLine
 10
136.466618834
 20
223.7010631126
 30
0.0
 11
136.466618834
 21
222.751069383
 31
0.0
  0
LINE
  5
1AF
330
1F
100
AcDbEntity
  8
0
  6
Continuous
 62
     7
370
    15
100
AcDbLine
 10
152.466619594
 20
222.751069383
 30
0.0
 11
152.466619594
 21
223.7010631126
 31
0.0
  0
LINE
  5
1B0
330
1F
100
AcDbEntity
  8
0
  6
Continuous
 62
     7
370
    15
100
AcDbLine
 10
169.2666199263
 20
485.7010725301
 30
0.0
 11
165.4666189309
 21
485.7010725301
 31
0.0
  0
LINE
  5
1B1
330
1F
100
AcDbEntity
  8
0
  6
Continuous
 62
     7
370
    15
100
AcDbLine
 10
165.4666189309
 20
231.7010644239
 30
0.0
 11
169.2666199263
 21
231.7010644239
 31
0.0
  0
LINE
  5
1B2
330
1F
100
AcDbEntity
  8
0
  6
Continuous
 62
     7
370
    15
100
AcDbLine
 10
123.4666194971
 20
485.7010725301
 30
0.0
 11
119.6666185017
 21
485.7010725301
 31
0.0
  0
LINE
  5
1B3
330
1F
100
AcDbEntity
  8
0
  6
Continuous
 62
     7
370
    15
100
AcDbLine
 10
119.6666185017
 20
231.7010644239
 30
0.0
 11
123.4666194971
 21
231.7010644239
 31
0.0
  0
LINE
  5
1B4
330
1F
100
AcDbEntity
  8
0
  6
Continuous
 62
     7
370
    15
100
AcDbLine
 10
123.6666191574
 20
464.7010672253
 30
0.0
 11
123.4666194971
 21
464.7010672253
 31
0.0
  0
LINE
  5
1B5
330
1F
100
AcDbEntity
  8
0
  6
Continuous
 62
     7
370
    15
100
AcDbLine
 10
165.4666189309
 20
464.7010672253
 30
0.0
 11
165.2666192706
 21
464.7010672253
 31
0.0
  0
LINE
  5
1B6
330
1F
100
AcDbEntity
  8
0
  6
Continuous
 62
     7
370
    15
100
AcDbLine
 10
165.2666192706
 20
252.7010697287
 30
0.0
 11
165.4666189309
 21
252.7010697287
 31
0.0
  0
LINE
  5
1B7
330
1F
100
AcDbEntity
  8
0
  6
Continuous
 62
     7
370
    15
100
AcDbLine
 10
123.4666194971
 20
252.7010697287
 30
0.0
 11
123.6666191574
 21
252.7010697287
 31
0.0
  0
ARC
  5
1B8
330
1F
100
AcDbEntity
  8
0
  6
Continuous
 62
     7
370
    15
100
AcDbCircle
 10
100.5916646378
 20
564.301068477
 30
0.0
 40
2.0
100
AcDbArc
 50
249.7066760883
 51
270.0
  0
ARC
  5
1B9
330
1F
100
AcDbEntity
  8
0
  6
Continuous
 62
     7
370
    15
100
AcDbCircle
 10
188.3415737902
 20
564.301068477
 30
0.0
 40
2.000000000000017
100
AcDbArc
 50
270.0
 51
290.1615189104
  0
LINE
  5
1BA
330
1F
100
AcDbEntity
  8
0
  6
Continuous
 62
     7
370
    15
100
AcDbLine
 10
163.7166191097
 20
684.5010700982
 30
0.0
 11
163.7166191097
 21
688.0010548394
 31
0.0
  0
LINE
  5
1BB
330
1F
100
AcDbEntity
  8
0
  6
Continuous
 62
     7
370
    15
100
AcDbLine
 10
125.2166193183
 20
686.5010741513
 30
0.0
 11
125.2166193183
 21
684.5010700982
 31
0.0
  0
LINE
  5
1BC
330
1F
100
AcDbEntity
  8
0
  6
Continuous
 62
     7
370
    15
100
AcDbLine
 10
163.7166191097
 20
688.0010548394
 30
0.0
 11
160.8166184481
 21
690.9010592263
 31
0.0
  0
LINE
  5
1BD
330
1F
100
AcDbEntity
  8
0
  6
Continuous
 62
     7
370
    15
100
AcDbLine
 10
156.9666194003
 20
682.7010694307
 30
0.0
 11
156.9666194003
 21
683.5010829728
 31
0.0
  0
LINE
  5
1BE
330
1F
100
AcDbEntity
  8
0
  6
Continuous
 62
     7
370
    15
100
AcDbLine
 10
131.9666190277
 20
683.5010829728
 30
0.0
 11
131.9666190277
 21
682.7010694307
 31
0.0
  0
LINE
  5
1BF
330
1F
100
AcDbEntity
  8
0
  6
Continuous
 62
     7
370
    15
100
AcDbLine
 10
131.9816189091
 20
683.9010599416
 30
0.0
 11
131.9816189091
 21
683.5010829728
 31
0.0
  0
LINE
  5
1C0
330
1F
100
AcDbEntity
  8
0
  6
Continuous
 62
     7
370
    15
100
AcDbLine
 10
156.9516195189
 20
683.5010829728
 30
0.0
 11
156.9516195189
 21
683.9010599416
 31
0.0
  0
LINE
  5
1C1
330
1F
100
AcDbEntity
  8
0
  6
Continuous
 62
     7
370
    15
100
AcDbLine
 10
156.3166195731
 20
683.9010599416
 30
0.0
 11
156.3166195731
 21
684.5010700982
 31
0.0
  0
LINE
  5
1C2
330
1F
100
AcDbEntity
  8
0
  6
Continuous
 62
     7
370
    15
100
AcDbLine
 10
132.6166188549
 20
684.5010700982
 30
0.0
 11
132.6166188549
 21
683.9010599416
 31
0.0
  0
LINE
  5
1C3
330
1F
100
AcDbEntity
  8
0
  6
Continuous
 62
     7
370
    15
100
AcDbLine
 10
156.891619062
 20
690.9010592263
 30
0.0
 11
156.891619062
 21
698.7010720533
 31
0.0
  0
LINE
  5
1C4
330
1F
100
AcDbEntity
  8
0
  6
Continuous
 62
     7
370
    15
100
AcDbLine
 10
132.041619366
 20
698.7010720533
 30
0.0
 11
132.041619366
 21
690.9010592263
 31
0.0
  0
LINE
  5
1C5
330
1F
100
AcDbEntity
  8
0
  6
Continuous
 62
     7
370
    15
100
AcDbLine
 10
144.466619214
 20
213.2510724824
 30
0.0
 11
129.0666192974
 21
213.2510724824
 31
0.0
  0
LINE
  5
1C6
330
1F
100
AcDbEntity
  8
0
  6
Continuous
 62
     7
370
    15
100
AcDbLine
 10
159.8666191305
 20
213.2510724824
 30
0.0
 11
144.466619214
 21
213.2510724824
 31
0.0
  0
LINE
  5
1C7
330
1F
100
AcDbEntity
  8
0
  6
Continuous
 62
     7
370
    15
100
AcDbLine
 10
144.466619214
 20
217.2510656875
 30
0.0
 11
163.8666197862
 21
217.2510656875
 31
0.0
  0
LINE
  5
1C8
330
1F
100
AcDbEntity
  8
0
  6
Continuous
 62
     7
370
    15
100
AcDbLine
 10
125.0666186418
 20
217.2510656875
 30
0.0
 11
144.466619214
 21
217.2510656875
 31
0.0
  0
LINE
  5
1C9
330
1F
100
AcDbEntity
  8
0
  6
Continuous
 62
     7
370
    15
100
AcDbLine
 10
144.466619214
 20
220.7510653299
 30
0.0
 11
125.0666186418
 21
220.7510653299
 31
0.0
  0
LINE
  5
1CA
330
1F
100
AcDbEntity
  8
0
  6
Continuous
 62
     7
370
    15
100
AcDbLine
 10
163.8666197862
 20
220.7510653299
 30
0.0
 11
144.466619214
 21
220.7510653299
 31
0.0
  0
LINE
  5
1CB
330
1F
100
AcDbEntity
  8
0
  6
Continuous
 62
     7
370
    15
100
AcDbLine
 10
130.5666195433
 20
222.751069383
 30
0.0
 11
158.3666188847
 21
222.751069383
 31
0.0
  0
LINE
  5
1CC
330
1F
100
AcDbEntity
  8
0
  6
Continuous
 62
     7
370
    15
100
AcDbLine
 10
169.2666199263
 20
485.7010725301
 30
0.0
 11
169.2666199263
 21
231.7010644239
 31
0.0
  0
LINE
  5
1CD
330
1F
100
AcDbEntity
  8
0
  6
Continuous
 62
     7
370
    15
100
AcDbLine
 10
165.4666189309
 20
485.7010725301
 30
0.0
 11
165.4666189309
 21
231.7010644239
 31
0.0
  0
LINE
  5
1CE
330
1F
100
AcDbEntity
  8
0
  6
Continuous
 62
     7
370
    15
100
AcDbLine
 10
119.6666185017
 20
485.7010725301
 30
0.0
 11
119.6666185017
 21
231.7010644239
 31
0.0
  0
LINE
  5
1CF
330
1F
100
AcDbEntity
  8
0
  6
Continuous
 62
     7
370
    15
100
AcDbLine
 10
123.4666194971
 20
485.7010725301
 30
0.0
 11
123.4666194971
 21
231.7010644239
 31
0.0
  0
LINE
  5
1D0
330
1F
100
AcDbEntity
  8
0
  6
Continuous
 62
     7
370
    15
100
AcDbLine
 10
123.6666191574
 20
338.701068924
 30
0.0
 11
165.2666192706
 21
338.701068924
 31
0.0
  0
LINE
  5
1D1
330
1F
100
AcDbEntity
  8
0
  6
Continuous
 62
     7
370
    15
100
AcDbLine
 10
165.2666192706
 20
332.3252494794
 30
0.0
 11
123.6666191574
 21
332.3252494794
 31
0.0
  0
LINE
  5
1D2
330
1F
100
AcDbEntity
  8
0
  6
Continuous
 62
     7
370
    15
100
AcDbLine
 10
123.6666191574
 20
332.3252494794
 30
0.0
 11
123.6666191574
 21
338.701068924
 31
0.0
  0
LINE
  5
1D3
330
1F
100
AcDbEntity
  8
0
  6
Continuous
 62
     7
370
    15
100
AcDbLine
 10
165.2666192706
 20
338.701068924
 30
0.0
 11
165.2666192706
 21
332.3252494794
 31
0.0
  0
LINE
  5
1D4
330
1F
100
AcDbEntity
  8
0
  6
Continuous
 62
     7
370
    15
100
AcDbLine
 10
123.6666191574
 20
378.7010680299
 30
0.0
 11
165.2666192706
 21
378.7010680299
 31
0.0
  0
LINE
  5
1D5
330
1F
100
AcDbEntity
  8
0
  6
Continuous
 62
     7
370
    15
100
AcDbLine
 10
123.6666191574
 20
338.701068924
 30
0.0
 11
123.6666191574
 21
378.7010680299
 31
0.0
  0
LINE
  5
1D6
330
1F
100
AcDbEntity
  8
0
  6
Continuous
 62
     7
370
    15
100
AcDbLine
 10
165.2666192706
 20
338.701068924
 30
0.0
 11
165.2666192706
 21
378.7010680299
 31
0.0
  0
LINE
  5
1D7
330
1F
100
AcDbEntity
  8
0
  6
Continuous
 62
     7
370
    15
100
AcDbLine
 10
123.6666191574
 20
385.0768874746
 30
0.0
 11
165.2666192706
 21
385.0768874746
 31
0.0
  0
LINE
  5
1D8
330
1F
100
AcDbEntity
  8
0
  6
Continuous
 62
     7
370
    15
100
AcDbLine
 10
123.6666191574
 20
378.7010680299
 30
0.0
 11
123.6666191574
 21
385.0768874746
 31
0.0
  0
LINE
  5
1D9
330
1F
100
AcDbEntity
  8
0
  6
Continuous
 62
     7
370
    15
100
AcDbLine
 10
165.2666192706
 20
385.0768874746
 30
0.0
 11
165.2666192706
 21
378.7010680299
 31
0.0
  0
LINE
  5
1DA
330
1F
100
AcDbEntity
  8
0
  6
Continuous
 62
     7
370
    15
100
AcDbLine
 10
123.6666191574
 20
231.6039386552
 30
0.0
 11
165.2666192706
 21
231.6039386552
 31
0.0
  0
LINE
  5
1DB
330
1F
100
AcDbEntity
  8
0
  6
Continuous
 62
     7
370
    15
100
AcDbLine
 10
123.6666191574
 20
231.6039386552
 30
0.0
 11
123.6666191574
 21
332.3252494794
 31
0.0
  0
LINE
  5
1DC
330
1F
100
AcDbEntity
  8
0
  6
Continuous
 62
     7
370
    15
100
AcDbLine
 10
165.2666192706
 20
231.6039386552
 30
0.0
 11
165.2666192706
 21
332.3252494794
 31
0.0
  0
LINE
  5
1DD
330
1F
100
AcDbEntity
  8
0
  6
Continuous
 62
     7
370
    15
100
AcDbLine
 10
165.2666192706
 20
483.1202435654
 30
0.0
 11
123.6666191574
 21
483.1202435654
 31
0.0
  0
LINE
  5
1DE
330
1F
100
AcDbEntity
  8
0
  6
Continuous
 62
     7
370
    15
100
AcDbLine
 10
123.6666191574
 20
385.0768874746
 30
0.0
 11
123.6666191574
 21
483.1202435654
 31
0.0
  0
LINE
  5
1DF
330
1F
100
AcDbEntity
  8
0
  6
Continuous
 62
     7
370
    15
100
AcDbLine
 10
165.2666192706
 20
385.0768874746
 30
0.0
 11
165.2666192706
 21
483.1202435654
 31
0.0
  0
LINE
  5
1E0
330
1F
100
AcDbEntity
  8
0
  6
Continuous
 62
     7
370
    15
100
AcDbLine
 10
123.6666191574
 20
490.7768103641
 30
0.0
 11
165.2666192706
 21
490.7768103641
 31
0.0
  0
LINE
  5
1E1
330
1F
100
AcDbEntity
  8
0
  6
Continuous
 62
     7
370
    15
100
AcDbLine
 10
123.6666191574
 20
483.1202435654
 30
0.0
 11
123.6666191574
 21
490.7768103641
 31
0.0
  0
LINE
  5
1E2
330
1F
100
AcDbEntity
  8
0
  6
Continuous
 62
     7
370
    15
100
AcDbLine
 10
165.2666192706
 20
490.7768103641
 30
0.0
 11
165.2666192706
 21
483.1202435654
 31
0.0
  0
LINE
  5
1E3
330
1F
100
AcDbEntity
  8
0
  6
Continuous
 62
     7
370
    15
100
AcDbLine
 10
123.6666191574
 20
490.7768103641
 30
0.0
 11
123.6666191574
 21
493.7010738414
 31
0.0
  0
LINE
  5
1E4
330
1F
100
AcDbEntity
  8
0
  6
Continuous
 62
     7
370
    15
100
AcDbLine
 10
165.2666192706
 20
490.7768103641
 30
0.0
 11
165.2666192706
 21
493.7010738414
 31
0.0
  0
LINE
  5
1E5
330
1F
100
AcDbEntity
  8
0
  6
Continuous
 62
     7
370
    15
100
AcDbLine
 10
165.2666192706
 20
223.7825724643
 30
0.0
 11
123.6666191574
 21
223.7825724643
 31
0.0
  0
LINE
  5
1E6
330
1F
100
AcDbEntity
  8
0
  6
Continuous
 62
     7
370
    15
100
AcDbLine
 10
123.6666191574
 20
223.7825724643
 30
0.0
 11
123.6666191574
 21
231.6039386552
 31
0.0
  0
LINE
  5
1E7
330
1F
100
AcDbEntity
  8
0
  6
Continuous
 62
     7
370
    15
100
AcDbLine
 10
165.2666192706
 20
231.6039386552
 30
0.0
 11
165.2666192706
 21
223.7825724643
 31
0.0
  0
LINE
  5
1E8
330
1F
100
AcDbEntity
  8
0
  6
Continuous
 62
     7
370
    15
100
AcDbLine
 10
123.6666191574
 20
223.7010631126
 30
0.0
 11
165.2666192706
 21
223.7010631126
 31
0.0
  0
LINE
  5
1E9
330
1F
100
AcDbEntity
  8
0
  6
Continuous
 62
     7
370
    15
100
AcDbLine
 10
123.6666191574
 20
223.7010631126
 30
0.0
 11
123.6666191574
 21
223.7825724643
 31
0.0
  0
LINE
  5
1EA
330
1F
100
AcDbEntity
  8
0
  6
Continuous
 62
     7
370
    15
100
AcDbLine
 10
165.2666192706
 20
223.7010631126
 30
0.0
 11
165.2666192706
 21
223.7825724643
 31
0.0
  0
SPLINE
  5
1EB
330
1F
100
AcDbEntity
  8
0
  6
Continuous
 62
     7
370
    15
100
AcDbSpline
210
0.0
220
0.0
230
1.0
 70
     8
 71
     3
 72
    14
 73
    10
 74
     0
 42
0.00000001
 43
0.00000001
 40
0.0
 40
0.0
 40
0.0
 40
0.0
 40
0.195247388103698
 40
0.5120218467785617
 40
0.7021767346018266
 40
0.8186058461832731
 40
0.9017357995814755
 40
0.9668367897950546
 40
1.0
 40
1.0
 40
1.0
 40
1.0
 10
99.90661891358215
 20
562.4404433530001
 30
0.0
 10
99.90652819182023
 20
562.4382321279147
 30
0.0
 10
99.9062902807038
 20
562.4324333535351
 30
0.0
 10
99.90596608036464
 20
562.5771271377075
 30
0.0
 10
99.90568925907672
 20
562.9323829664345
 30
0.0
 10
99.90553269999549
 20
563.3364568937748
 30
0.0
 10
99.9054578624388
 20
563.7250989728836
 30
0.0
 10
99.90542158317022
 20
564.0519708843848
 30
0.0
 10
99.90541992853075
 20
564.2382085475839
 30
0.0
 10
99.90541937010603
 20
564.3010619443087
 30
0.0
  0
SPLINE
  5
1EC
330
1F
100
AcDbEntity
  8
0
  6
Continuous
 62
     7
370
    15
100
AcDbSpline
210
0.0
220
0.0
230
1.0
 70
     8
 71
     3
 72
    12
 73
     8
 74
     0
 42
0.00000001
 43
0.00000001
 40
0.0
 40
0.0
 40
0.0
 40
0.0
 40
0.155586051920329
 40
0.3105838112207216
 40
0.5598995799036169
 40
0.9803817535783285
 40
1.0
 40
1.0
 40
1.0
 40
1.0
 10
99.90541937010603
 20
564.3010619443087
 30
0.0
 10
99.91629924471368
 20
564.1828834705351
 30
0.0
 10
99.93801785560161
 20
563.9469733723236
 30
0.0
 10
100.1241002679888
 20
563.568519589481
 30
0.0
 10
100.5272794874069
 20
563.1526427534966
 30
0.0
 10
100.933350760544
 20
562.8641695601757
 30
0.0
 10
101.2192792834157
 20
562.8184239398429
 30
0.0
 10
101.2320250477107
 20
562.8163847487597
 30
0.0
  0
LINE
  5
1ED
330
1F
100
AcDbEntity
  8
0
  6
Continuous
 62
     7
370
    15
100
AcDbLine
 10
100.5916662719
 20
562.3010727924
 30
0.0
 11
101.3866208698
 21
562.3010727924
 31
0.0
  0
LINE
  5
1EE
330
1F
100
AcDbEntity
  8
0
  6
Continuous
 62
     7
370
    15
100
AcDbLine
 10
99.9054193701
 20
564.3010619443
 30
0.0
 11
99.9054193701
 21
567.23839374
 31
0.0
  0
LINE
  5
1EF
330
1F
100
AcDbEntity
  8
0
  6
Continuous
 62
     7
370
    15
100
AcDbLine
 10
99.825355431
 20
564.3010619443
 30
0.0
 11
99.825355431
 21
567.5052884381
 31
0.0
  0
LINE
  5
1F0
330
1F
100
AcDbEntity
  8
0
  6
Continuous
 62
     7
370
    15
100
AcDbLine
 10
189.043848982
 20
564.3010619443
 30
0.0
 11
189.043848982
 21
567.291829304
 31
0.0
  0
SPLINE
  5
1F1
330
1F
100
AcDbEntity
  8
0
  6
Continuous
 62
     7
370
    15
100
AcDbSpline
210
0.0
220
0.0
230
1.0
 70
     8
 71
     3
 72
    12
 73
     8
 74
     0
 42
0.00000001
 43
0.00000001
 40
0.0
 40
0.0
 40
0.0
 40
0.0
 40
0.3191538293400717
 40
0.5433608989120601
 40
0.7691798722736807
 40
0.9306842196831403
 40
1.0
 40
1.0
 40
1.0
 40
1.0
 10
187.7177797462256
 20
562.8716084521441
 30
0.0
 10
187.9182030185114
 20
562.9355834546559
 30
0.0
 10
188.259424584354
 20
563.0445011980042
 30
0.0
 10
188.6627871803104
 20
563.392878279577
 30
0.0
 10
188.9177331925165
 20
563.7487530976592
 30
0.0
 10
189.0193979699027
 20
564.0773423907602
 30
0.0
 10
189.0264558078907
 20
564.2493943663522
 30
0.0
 10
189.0285752918036
 20
564.3010619443087
 30
0.0
  0
SPLINE
  5
1F2
330
1F
100
AcDbEntity
  8
0
  6
Continuous
 62
     7
370
    15
100
AcDbSpline
210
0.0
220
0.0
230
1.0
 70
     8
 71
     3
 72
    13
 73
     9
 74
     0
 42
0.00000001
 43
0.00000001
 40
0.0
 40
0.0
 40
0.0
 40
0.0
 40
0.0623139348595427
 40
0.1243923175097888
 40
0.2242458230074589
 40
0.3926539789604267
 40
0.8702306757597223
 40
1.0
 40
1.0
 40
1.0
 40
1.0
 10
189.0285752918037
 20
564.3010619443087
 30
0.0
 10
189.0285697288045
 20
564.1827604910294
 30
0.0
 10
189.0285586238348
 20
563.9466047744736
 30
0.0
 10
189.0284711638391
 20
563.570359053327
 30
0.0
 10
189.0282904488317
 20
563.1373697768389
 30
0.0
 10
189.0277624311514
 20
562.5547271017807
 30
0.0
 10
189.0271767959173
 20
562.4174884825095
 30
0.0
 10
189.0267176239354
 20
562.4363653094024
 30
0.0
 10
189.026619514397
 20
562.4403986495165
 30
0.0
  0
LINE
  5
1F3
330
1F
100
AcDbEntity
  8
0
  6
Continuous
 62
     7
370
    15
100
AcDbLine
 10
187.5466175582
 20
562.3010727924
 30
0.0
 11
188.3415721561
 21
562.3010727924
 31
0.0
  0
LINE
  5
1F4
330
1F
100
AcDbEntity
  8
0
  6
Continuous
 62
     7
370
    15
100
AcDbLine
 10
189.0285752918
 20
564.3010619443
 30
0.0
 11
189.0285752918
 21
567.2409120362
 31
0.0
  0
LINE
  5
1F5
330
1F
100
AcDbEntity
  8
0
  6
Continuous
 62
     7
370
    15
100
AcDbLine
 10
118.3666188474
 20
505.7010683578
 30
0.0
 11
170.5666195806
 21
505.7010683578
 31
0.0
  0
LINE
  5
1F6
330
1F
100
AcDbEntity
  8
0
  6
Continuous
 62
     7
370
    15
100
AcDbLine
 10
101.5666194464
 20
561.7010626357
 30
0.0
 11
118.3666188474
 21
505.7010683578
 31
0.0
  0
LINE
  5
1F7
330
1F
100
AcDbEntity
  8
0
  6
Continuous
 62
     7
370
    15
100
AcDbLine
 10
101.5666194464
 20
561.7010626357
 30
0.0
 11
187.3666189815
 21
561.7010626357
 31
0.0
  0
LINE
  5
1F8
330
1F
100
AcDbEntity
  8
0
  6
Continuous
 62
     7
370
    15
100
AcDbLine
 10
170.5666195806
 20
505.7010683578
 30
0.0
 11
187.3666189815
 21
561.7010626357
 31
0.0
  0
LINE
  5
1F9
330
1F
100
AcDbEntity
  8
0
  6
Continuous
 62
     7
370
    15
100
AcDbLine
 10
121.9666183199
 20
493.7010738414
 30
0.0
 11
166.9666201081
 21
493.7010738414
 31
0.0
  0
LWPOLYLINE
  5
1FA
330
1F
100
AcDbEntity
  8
0
  6
Continuous
 62
     7
370
    15
100
AcDbPolyline
 90
       10
 70
   128
 43
0.0
 10
118.3666188474
 20
505.7010683578
 10
118.9917523618
 20
503.6172899764
 10
119.5978924836
 20
501.596826629
 10
120.166619515
 20
499.7010710996
 10
120.6806536968
 20
497.9876163762
 10
121.1243786122
 20
496.5085420173
 10
121.4843105729
 20
495.3087601226
 10
121.7495121266
 20
494.4247636359
 10
121.911927333
 20
493.8833746474
 10
121.9666183199
 20
493.7010738414
  0
LWPOLYLINE
  5
1FB
330
1F
100
AcDbEntity
  8
0
  6
Continuous
 62
     7
370
    15
100
AcDbPolyline
 90
       10
 70
   128
 43
0.0
 10
166.9666201081
 20
493.7010738414
 10
167.0213110949
 20
493.8833746474
 10
167.1837263014
 20
494.4247636359
 10
167.4489278551
 20
495.3087601226
 10
167.8088598158
 20
496.5085420173
 10
168.2525847312
 20
497.9876163762
 10
168.766618913
 20
499.7010710996
 10
169.3353459443
 20
501.596826629
 10
169.9414860662
 20
503.6172899764
 10
170.5666195806
 20
505.7010683578
  0
LWPOLYLINE
  5
1FC
330
1F
100
AcDbEntity
  8
0
  6
Continuous
 62
     7
370
    15
100
AcDbPolyline
 90
       10
 70
   128
 43
0.0
 10
97.9666181113
 20
573.7010720533
 10
98.0213128235
 20
573.518756346
 10
98.1837243046
 20
572.9773822587
 10
98.448927721
 20
572.0933708709
 10
98.808857819
 20
570.8936038774
 10
99.252584597
 20
569.4145146173
 10
99.7666187789
 20
567.7010747951
 10
100.3353476729
 20
565.8053043645
 10
100.941485932
 20
563.7848410171
 10
101.5666194464
 20
561.7010626357
  0
LINE
  5
1FD
330
1F
100
AcDbEntity
  8
0
  6
Continuous
 62
     7
370
    15
100
AcDbLine
 10
97.9666181113
 20
573.7010720533
 30
0.0
 11
102.7038946952
 21
573.7010720533
 31
0.0
  0
LINE
  5
1FE
330
1F
100
AcDbEntity
  8
0
  6
Continuous
 62
     7
370
    15
100
AcDbLine
 10
186.2293437328
 20
573.7010720533
 30
0.0
 11
190.9666203167
 21
573.7010720533
 31
0.0
  0
LWPOLYLINE
  5
1FF
330
1F
100
AcDbEntity
  8
0
  6
Continuous
 62
     7
370
    15
100
AcDbPolyline
 90
       10
 70
   128
 43
0.0
 10
187.3666189815
 20
561.7010626357
 10
187.9917524959
 20
563.7848410171
 10
188.5978907551
 20
565.8053043645
 10
189.1666196491
 20
567.7010747951
 10
189.6806538309
 20
569.4145146173
 10
190.124380609
 20
570.8936038774
 10
190.484310707
 20
572.0933708709
 10
190.7495141234
 20
572.9773822587
 10
190.9119256045
 20
573.518756346
 10
190.9666203167
 20
573.7010720533
  0
LINE
  5
200
330
1F
100
AcDbEntity
  8
0
  6
Continuous
 62
     7
370
    15
100
AcDbLine
 10
145.4236996681
 20
629.0776017469
 30
0.0
 11
142.5865586819
 21
629.6104672712
 31
0.0
  0
LINE
  5
201
330
1F
100
AcDbEntity
  8
0
  6
Continuous
 62
     7
370
    15
100
AcDbLine
 10
147.3037602584
 20
631.2681916516
 30
0.0
 11
145.4236996681
 21
629.0776017469
 31
0.0
  0
LINE
  5
202
330
1F
100
AcDbEntity
  8
0
  6
Continuous
 62
     7
370
    15
100
AcDbLine
 10
146.3466797461
 20
633.991676883
 30
0.0
 11
147.3037602584
 21
631.2681916516
 31
0.0
  0
LINE
  5
203
330
1F
100
AcDbEntity
  8
0
  6
Continuous
 62
     7
370
    15
100
AcDbLine
 10
143.5095387599
 20
634.5245424073
 30
0.0
 11
146.3466797461
 21
633.991676883
 31
0.0
  0
LINE
  5
204
330
1F
100
AcDbEntity
  8
0
  6
Continuous
 62
     7
370
    15
100
AcDbLine
 10
141.6294781696
 20
632.3339525026
 30
0.0
 11
143.5095387599
 21
634.5245424073
 31
0.0
  0
LINE
  5
205
330
1F
100
AcDbEntity
  8
0
  6
Continuous
 62
     7
370
    15
100
AcDbLine
 10
142.5865586819
 20
629.6104672712
 30
0.0
 11
141.6294781696
 21
632.3339525026
 31
0.0
  0
CIRCLE
  5
206
330
1F
100
AcDbEntity
  8
0
  6
Continuous
 62
     7
370
    15
100
AcDbCircle
 10
144.466619214
 20
631.801068477
 30
0.0
 40
4.500000000007276
  0
CIRCLE
  5
207
330
1F
100
AcDbEntity
  8
0
  6
Continuous
 62
     7
370
    15
100
AcDbCircle
 10
144.466619214
 20
631.801068477
 30
0.0
 40
5.000000000000028
  0
CIRCLE
  5
208
330
1F
100
AcDbEntity
  8
0
  6
Continuous
 62
     7
370
    15
100
AcDbCircle
 10
144.466619214
 20
631.801068477
 30
0.0
 40
7.500000000000028
  0
SPLINE
  5
209
330
1F
100
AcDbEntity
  8
0
  6
Continuous
 62
     7
370
    15
100
AcDbSpline
210
0.0
220
0.0
230
1.0
 70
    24
 71
     3
 72
    11
 73
     7
 74
     0
 42
0.00000001
 43
0.00000001
 40
0.0
 40
0.0
 40
0.0
 40
0.0
 40
0.2645362268753856
 40
0.5347696924125747
 40
0.7652643554067822
 40
1.0
 40
1.0
 40
1.0
 40
1.0
 10
139.8478171061187
 20
623.8010707657963
 30
0.0
 10
140.6494477016297
 20
623.8010707657963
 30
0.0
 10
142.2699733742511
 20
623.8010707657963
 30
0.0
 10
144.6709971129087
 20
623.8010707657963
 30
0.0
 10
146.9668041641276
 20
623.8010707657963
 30
0.0
 10
148.3749368152675
 20
623.8010707657963
 30
0.0
 10
149.0854213218598
 20
623.8010707657963
 30
0.0
  0
SPLINE
  5
20A
330
1F
100
AcDbEntity
  8
0
  6
Continuous
 62
     7
370
    15
100
AcDbSpline
210
0.0
220
0.0
230
1.0
 70
     8
 71
     3
 72
    11
 73
     7
 74
     0
 42
0.00000001
 43
0.00000001
 40
0.0
 40
0.0
 40
0.0
 40
0.0
 40
0.264535730760753
 40
0.534769458380756
 40
0.7652648134956009
 40
1.0
 40
1.0
 40
1.0
 40
1.0
 10
135.2290149982481
 20
631.8010571759373
 30
0.0
 10
135.6298307205547
 20
631.1068279866079
 30
0.0
 10
136.4400955800955
 20
629.7034161809431
 30
0.0
 10
137.6406063006855
 20
627.6240695731092
 30
0.0
 10
138.7885053390318
 20
625.6358409523665
 30
0.0
 10
139.4925743631918
 20
624.416365350421
 30
0.0
 10
139.8478171061187
 20
623.8010707657965
 30
0.0
  0
SPLINE
  5
20B
330
1F
100
AcDbEntity
  8
0
  6
Continuous
 62
     7
370
    15
100
AcDbSpline
210
0.0
220
0.0
230
1.0
 70
     8
 71
     3
 72
    11
 73
     7
 74
     0
 42
0.00000001
 43
0.00000001
 40
0.0
 40
0.0
 40
0.0
 40
0.0
 40
0.2645349964102596
 40
0.5347680234265548
 40
0.7652627845432572
 40
1.0
 40
1.0
 40
1.0
 40
1.0
 10
139.8478171061187
 20
639.8010733884007
 30
0.0
 10
139.4470015079529
 20
639.1068442299941
 30
0.0
 10
138.6367368242692
 20
637.7034323567669
 30
0.0
 10
137.4362268545719
 20
635.6240850300186
 30
0.0
 10
136.2883188418563
 20
633.6358524426049
 30
0.0
 10
135.5842563965874
 20
632.4163624447043
 30
0.0
 10
135.2290149982481
 20
631.8010571759373
 30
0.0
  0
SPLINE
  5
20C
330
1F
100
AcDbEntity
  8
0
  6
Continuous
 62
     7
370
    15
100
AcDbSpline
210
0.0
220
0.0
230
1.0
 70
    24
 71
     3
 72
    11
 73
     7
 74
     0
 42
0.00000001
 43
0.00000001
 40
0.0
 40
0.0
 40
0.0
 40
0.0
 40
0.2645362268753856
 40
0.5347696924125747
 40
0.7652643554067822
 40
1.0
 40
1.0
 40
1.0
 40
1.0
 10
149.0854213218598
 20
639.8010733884007
 30
0.0
 10
148.2837907263488
 20
639.8010733884008
 30
0.0
 10
146.6632650537274
 20
639.8010733884008
 30
0.0
 10
144.2622413150698
 20
639.8010733884006
 30
0.0
 10
141.9664342638508
 20
639.8010733884007
 30
0.0
 10
140.558301612711
 20
639.8010733884007
 30
0.0
 10
139.8478171061187
 20
639.8010733884007
 30
0.0
  0
SPLINE
  5
20D
330
1F
100
AcDbEntity
  8
0
  6
Continuous
 62
     7
370
    15
100
AcDbSpline
210
0.0
220
0.0
230
1.0
 70
     8
 71
     3
 72
    11
 73
     7
 74
     0
 42
0.00000001
 43
0.00000001
 40
0.0
 40
0.0
 40
0.0
 40
0.0
 40
0.264537707647083
 40
0.5347707088941207
 40
0.7652654444504967
 40
1.0
 40
1.0
 40
1.0
 40
1.0
 10
153.7042234297304
 20
631.8010571759373
 30
0.0
 10
153.3034088344285
 20
632.4952969959144
 30
0.0
 10
152.4931504135357
 20
633.8987230858041
 30
0.0
 10
151.2926313732959
 20
635.9780740371035
 30
0.0
 10
150.1447332686135
 20
637.9663033314547
 30
0.0
 10
149.4406641250384
 20
639.185778847246
 30
0.0
 10
149.0854213218598
 20
639.8010733884007
 30
0.0
  0
SPLINE
  5
20E
330
1F
100
AcDbEntity
  8
0
  6
Continuous
 62
     7
370
    15
100
AcDbSpline
210
0.0
220
0.0
230
1.0
 70
     8
 71
     3
 72
    11
 73
     7
 74
     0
 42
0.00000001
 43
0.00000001
 40
0.0
 40
0.0
 40
0.0
 40
0.0
 40
0.2645357062299297
 40
0.5347694583552679
 40
0.7652648379523889
 40
1.0
 40
1.0
 40
1.0
 40
1.0
 10
149.0854213218598
 20
623.8010707657965
 30
0.0
 10
149.486236833993
 20
624.4952999867714
 30
0.0
 10
150.2965013437584
 20
625.8987119864825
 30
0.0
 10
151.4970125739395
 20
627.9780583965302
 30
0.0
 10
152.6449122343076
 20
629.96628675864
 30
0.0
 10
153.3489809031256
 20
631.1857625565689
 30
0.0
 10
153.7042234297304
 20
631.8010571759374
 30
0.0
  0
LINE
  5
20F
330
1F
100
AcDbEntity
  8
0
  6
Continuous
 62
     7
370
    15
100
AcDbLine
 10
167.5745297428
 20
676.4587643903
 30
0.0
 11
168.2061825152
 21
674.2374184888
 31
0.0
  0
LINE
  5
210
330
1F
100
AcDbEntity
  8
0
  6
Continuous
 62
     7
370
    15
100
AcDbLine
 10
165.3349671717
 20
677.0224157136
 30
0.0
 11
167.5745297428
 21
676.4587643903
 31
0.0
  0
LINE
  5
211
330
1F
100
AcDbEntity
  8
0
  6
Continuous
 62
     7
370
    15
100
AcDbLine
 10
163.7270573731
 20
675.3647211354
 30
0.0
 11
165.3349671717
 21
677.0224157136
 31
0.0
  0
LINE
  5
212
330
1F
100
AcDbEntity
  8
0
  6
Continuous
 62
     7
370
    15
100
AcDbLine
 10
164.3587082829
 20
673.143375234
 30
0.0
 11
163.7270573731
 21
675.3647211354
 31
0.0
  0
LINE
  5
213
330
1F
100
AcDbEntity
  8
0
  6
Continuous
 62
     7
370
    15
100
AcDbLine
 10
166.5982708539
 20
672.5797239106
 30
0.0
 11
164.3587082829
 21
673.143375234
 31
0.0
  0
LINE
  5
214
330
1F
100
AcDbEntity
  8
0
  6
Continuous
 62
     7
370
    15
100
AcDbLine
 10
168.2061825152
 20
674.2374184888
 30
0.0
 11
166.5982708539
 21
672.5797239106
 31
0.0
  0
SPLINE
  5
215
330
1F
100
AcDbEntity
  8
0
  6
Continuous
 62
     7
370
    15
100
AcDbSpline
210
0.0
220
0.0
230
1.0
 70
     8
 71
     3
 72
    19
 73
    15
 74
     0
 42
0.00000001
 43
0.00000001
 40
0.0
 40
0.0
 40
0.0
 40
0.0
 40
0.0903186090132668
 40
0.2045636036302667
 40
0.271420998960554
 40
0.3439370917206535
 40
0.4207848288281436
 40
0.4999985227617563
 40
0.5792149111764284
 40
0.656062675365297
 40
0.7285790722429815
 40
0.7954357773656202
 40
0.9096811978977195
 40
1.0
 40
1.0
 40
1.0
 40
1.0
 10
166.6988127137928
 20
677.7103427212865
 30
0.0
 10
166.9680961538069
 20
677.6182522460734
 30
0.0
 10
167.5779991570644
 20
677.4096755233423
 30
0.0
 10
168.2338167783676
 20
676.8258467814663
 30
0.0
 10
168.6693402873308
 20
676.1580245693818
 30
0.0
 10
168.9082357419624
 20
675.517384656381
 30
0.0
 10
168.9967810289162
 20
674.8002401226669
 30
0.0
 10
168.9060510367599
 20
674.0612891801809
 30
0.0
 10
168.6361843024873
 20
673.3674183978442
 30
0.0
 10
168.2186965548239
 20
672.7776275836927
 30
0.0
 10
167.7050094182664
 20
672.3263903159011
 30
0.0
 10
167.0052418884412
 20
671.944304203145
 30
0.0
 10
166.1511970337837
 20
671.7404304552304
 30
0.0
 10
165.515220463762
 20
671.8454353456948
 30
0.0
 10
165.2344253118544
 20
671.8917969029576
 30
0.0
  0
SPLINE
  5
216
330
1F
100
AcDbEntity
  8
0
  6
Continuous
 62
     7
370
    15
100
AcDbSpline
210
0.0
220
0.0
230
1.0
 70
     8
 71
     3
 72
    19
 73
    15
 74
     0
 42
0.00000001
 43
0.00000001
 40
0.0
 40
0.0
 40
0.0
 40
0.0
 40
0.0903186704376908
 40
0.2045637427511152
 40
0.2714184149982199
 40
0.3439346263975628
 40
0.4207855398084808
 40
0.499999263446681
 40
0.5792157775967958
 40
0.6560634795131706
 40
0.7285799257082431
 40
0.7954368501174377
 40
0.9096816650553756
 40
1.0
 40
1.0
 40
1.0
 40
1.0
 10
165.2344253118544
 20
671.8917969029577
 30
0.0
 10
164.9651413992301
 20
671.9838870600258
 30
0.0
 10
164.3552373255525
 20
672.1924630621866
 30
0.0
 10
163.6994346236949
 20
672.776291389025
 30
0.0
 10
163.2638921419689
 20
673.4440905564014
 30
0.0
 10
163.0249983732263
 20
674.0847348883284
 30
0.0
 10
162.9364610866124
 20
674.8018895309855
 30
0.0
 10
163.0271849544308
 20
675.5408511485567
 30
0.0
 10
163.2970567329467
 20
676.2347200128274
 30
0.0
 10
163.7145410238725
 20
676.824513093345
 30
0.0
 10
164.2282293064935
 20
677.2757481091772
 30
0.0
 10
164.9279946305585
 20
677.6578414011256
 30
0.0
 10
165.7820439216511
 20
677.8616608833104
 30
0.0
 10
166.4180184452616
 20
677.7566894915794
 30
0.0
 10
166.6988127137928
 20
677.7103427212865
 30
0.0
  0
LINE
  5
217
330
1F
100
AcDbEntity
  8
0
  6
Continuous
 62
     7
370
    15
100
AcDbLine
 10
172.8119190987
 20
589.8010614675
 30
0.0
 11
171.6572188045
 21
591.8010655206
 31
0.0
  0
LINE
  5
218
330
1F
100
AcDbEntity
  8
0
  6
Continuous
 62
     7
370
    15
100
AcDbLine
 10
175.1213196869
 20
589.8010614675
 30
0.0
 11
172.8119190987
 21
589.8010614675
 31
0.0
  0
LINE
  5
219
330
1F
100
AcDbEntity
  8
0
  6
Continuous
 62
     7
370
    15
100
AcDbLine
 10
176.2760199811
 20
591.8010655206
 30
0.0
 11
175.1213196869
 21
589.8010614675
 31
0.0
  0
LINE
  5
21A
330
1F
100
AcDbEntity
  8
0
  6
Continuous
 62
     7
370
    15
100
AcDbLine
 10
175.1213196869
 20
593.8010695737
 30
0.0
 11
176.2760199811
 21
591.8010655206
 31
0.0
  0
LINE
  5
21B
330
1F
100
AcDbEntity
  8
0
  6
Continuous
 62
     7
370
    15
100
AcDbLine
 10
172.8119190987
 20
593.8010695737
 30
0.0
 11
175.1213196869
 21
593.8010695737
 31
0.0
  0
LINE
  5
21C
330
1F
100
AcDbEntity
  8
0
  6
Continuous
 62
     7
370
    15
100
AcDbLine
 10
171.6572188045
 20
591.8010655206
 30
0.0
 11
172.8119190987
 21
593.8010695737
 31
0.0
  0
SPLINE
  5
21D
330
1F
100
AcDbEntity
  8
0
  6
Continuous
 62
     7
370
    15
100
AcDbSpline
210
0.0
220
0.0
230
1.0
 70
     8
 71
     3
 72
    19
 73
    15
 74
     0
 42
0.00000001
 43
0.00000001
 40
0.0
 40
0.0
 40
0.0
 40
0.0
 40
0.0903185083020028
 40
0.2045631050137204
 40
0.271419553028557
 40
0.3439356199449636
 40
0.4207855915864133
 40
0.4999995979818028
 40
0.579215178228343
 40
0.6560636707256144
 40
0.728579737642021
 40
0.7954361856568577
 40
0.9096814916979972
 40
1.0
 40
1.0
 40
1.0
 40
1.0
 10
173.9666193928032
 20
588.801074342075
 30
0.0
 10
173.6830033884213
 20
588.824656072649
 30
0.0
 10
173.0406392531109
 20
588.8780665210552
 30
0.0
 10
172.2621640932825
 20
589.2841723741286
 30
0.0
 10
171.6768194481946
 20
589.8254968185483
 30
0.0
 10
171.2887840681873
 20
590.3884589045491
 30
0.0
 10
171.0278934981921
 20
591.0623165553975
 30
0.0
 10
170.9355183572476
 20
591.8010701141206
 30
0.0
 10
171.0278889916946
 20
592.5398210969064
 30
0.0
 10
171.2887881882006
 20
593.2136752664627
 30
0.0
 10
171.676818828796
 20
593.7766349350302
 30
0.0
 10
172.2621671958156
 20
594.3179575342075
 30
0.0
 10
173.0406353854245
 20
594.7240823800532
 30
0.0
 10
173.6830028860294
 20
594.7774908326448
 30
0.0
 10
173.9666193928032
 20
594.8010716002614
 30
0.0
  0
SPLINE
  5
21E
330
1F
100
AcDbEntity
  8
0
  6
Continuous
 62
     7
370
    15
100
AcDbSpline
210
0.0
220
0.0
230
1.0
 70
     8
 71
     3
 72
    19
 73
    15
 74
     0
 42
0.00000001
 43
0.00000001
 40
0.0
 40
0.0
 40
0.0
 40
0.0
 40
0.0903183213878613
 40
0.2045638165935813
 40
0.2714204168194144
 40
0.3439362661267807
 40
0.4207848381572262
 40
0.5000004020186215
 40
0.5792143920282143
 40
0.6560644432016137
 40
0.7285802925089799
 40
0.7954368927348131
 40
0.9096816786121387
 40
1.0
 40
1.0
 40
1.0
 40
1.0
 10
173.9666193928032
 20
594.8010716002614
 30
0.0
 10
174.2502353043615
 20
594.7774907460341
 30
0.0
 10
174.8926027932995
 20
594.7240819861598
 30
0.0
 10
175.6710705705417
 20
594.3179568794529
 30
0.0
 10
176.2564223659613
 20
593.7766367361519
 30
0.0
 10
176.6444473025249
 20
593.2136734471658
 30
0.0
 10
176.9053515234986
 20
592.5398218676021
 30
0.0
 10
176.9977167233571
 20
591.8010701141263
 30
0.0
 10
176.9053470169997
 20
591.0623157847173
 30
0.0
 10
176.6444514225076
 20
590.3884607238557
 30
0.0
 10
176.2564217465608
 20
589.8254950174277
 30
0.0
 10
175.6710736730817
 20
589.2841730288678
 30
0.0
 10
174.8925989256247
 20
588.8780669149381
 30
0.0
 10
174.2502348019728
 20
588.8246561592553
 30
0.0
 10
173.9666193928032
 20
588.801074342075
 30
0.0
  0
LINE
  5
21F
330
1F
100
AcDbEntity
  8
0
  6
Continuous
 62
     7
370
    15
100
AcDbLine
 10
113.811918741
 20
589.8010614675
 30
0.0
 11
112.6572184469
 21
591.8010655206
 31
0.0
  0
LINE
  5
220
330
1F
100
AcDbEntity
  8
0
  6
Continuous
 62
     7
370
    15
100
AcDbLine
 10
116.1213193293
 20
589.8010614675
 30
0.0
 11
113.811918741
 21
589.8010614675
 31
0.0
  0
LINE
  5
221
330
1F
100
AcDbEntity
  8
0
  6
Continuous
 62
     7
370
    15
100
AcDbLine
 10
117.2760196234
 20
591.8010655206
 30
0.0
 11
116.1213193293
 21
589.8010614675
 31
0.0
  0
LINE
  5
222
330
1F
100
AcDbEntity
  8
0
  6
Continuous
 62
     7
370
    15
100
AcDbLine
 10
116.1213193293
 20
593.8010695737
 30
0.0
 11
117.2760196234
 21
591.8010655206
 31
0.0
  0
LINE
  5
223
330
1F
100
AcDbEntity
  8
0
  6
Continuous
 62
     7
370
    15
100
AcDbLine
 10
113.811918741
 20
593.8010695737
 30
0.0
 11
116.1213193293
 21
593.8010695737
 31
0.0
  0
LINE
  5
224
330
1F
100
AcDbEntity
  8
0
  6
Continuous
 62
     7
370
    15
100
AcDbLine
 10
112.6572184469
 20
591.8010655206
 30
0.0
 11
113.811918741
 21
593.8010695737
 31
0.0
  0
SPLINE
  5
225
330
1F
100
AcDbEntity
  8
0
  6
Continuous
 62
     7
370
    15
100
AcDbSpline
210
0.0
220
0.0
230
1.0
 70
     8
 71
     3
 72
    19
 73
    15
 74
     0
 42
0.00000001
 43
0.00000001
 40
0.0
 40
0.0
 40
0.0
 40
0.0
 40
0.0903183213878613
 40
0.2045631072651868
 40
0.27141970749102
 40
0.3439355567983862
 40
0.4207856079717856
 40
0.4999995979813785
 40
0.5792151618427738
 40
0.6560637338732193
 40
0.7285795831805855
 40
0.7954361834064186
 40
0.9096816786121387
 40
1.0
 40
1.0
 40
1.0
 40
1.0
 10
114.9666190351753
 20
588.801074342075
 30
0.0
 10
114.6830036260057
 20
588.8246561592553
 30
0.0
 10
114.0406395023538
 20
588.8780669149381
 30
0.0
 10
113.2621647548968
 20
589.2841730288678
 30
0.0
 10
112.6768166814177
 20
589.8254950174276
 30
0.0
 10
112.2887870054709
 20
590.3884607238557
 30
0.0
 10
112.0278914109788
 20
591.062315784717
 30
0.0
 10
111.9355217046214
 20
591.8010701141263
 30
0.0
 10
112.02788690448
 20
592.5398218676021
 30
0.0
 10
112.2887911254536
 20
593.2136734471658
 30
0.0
 10
112.6768160620172
 20
593.7766367361519
 30
0.0
 10
113.2621678574369
 20
594.3179568794529
 30
0.0
 10
114.040635634679
 20
594.7240819861598
 30
0.0
 10
114.6830031236171
 20
594.7774907460341
 30
0.0
 10
114.9666190351753
 20
594.8010716002614
 30
0.0
  0
SPLINE
  5
226
330
1F
100
AcDbEntity
  8
0
  6
Continuous
 62
     7
370
    15
100
AcDbSpline
210
0.0
220
0.0
230
1.0
 70
     8
 71
     3
 72
    19
 73
    15
 74
     0
 42
0.00000001
 43
0.00000001
 40
0.0
 40
0.0
 40
0.0
 40
0.0
 40
0.0903185083020028
 40
0.2045638143431424
 40
0.271420262357979
 40
0.3439363292743856
 40
0.420784821771657
 40
0.5000004020181973
 40
0.5792144084135867
 40
0.6560643800550364
 40
0.728580446971443
 40
0.7954368949862796
 40
0.9096814916979972
 40
1.0
 40
1.0
 40
1.0
 40
1.0
 10
114.9666190351753
 20
594.8010716002614
 30
0.0
 10
115.2502355419491
 20
594.7774908326448
 30
0.0
 10
115.892603042554
 20
594.7240823800533
 30
0.0
 10
116.6710712321629
 20
594.3179575342074
 30
0.0
 10
117.2564195991825
 20
593.7766349350303
 30
0.0
 10
117.6444502397779
 20
593.2136752664627
 30
0.0
 10
117.9053494362839
 20
592.5398210969063
 30
0.0
 10
117.9977200707309
 20
591.8010701141206
 30
0.0
 10
117.9053449297864
 20
591.0623165553976
 30
0.0
 10
117.6444543597913
 20
590.3884589045491
 30
0.0
 10
117.256418979784
 20
589.8254968185483
 30
0.0
 10
116.671074334696
 20
589.2841723741286
 30
0.0
 10
115.8925991748676
 20
588.8780665210552
 30
0.0
 10
115.2502350395572
 20
588.824656072649
 30
0.0
 10
114.9666190351753
 20
588.801074342075
 30
0.0
  0
LINE
  5
227
330
1F
100
AcDbEntity
  8
0
  6
Continuous
 62
     7
370
    15
100
AcDbLine
 10
121.8119181897
 20
672.801065759
 30
0.0
 11
120.6572178956
 21
674.8010698121
 31
0.0
  0
LINE
  5
228
330
1F
100
AcDbEntity
  8
0
  6
Continuous
 62
     7
370
    15
100
AcDbLine
 10
124.1213206406
 20
672.801065759
 30
0.0
 11
121.8119181897
 21
672.801065759
 31
0.0
  0
LINE
  5
229
330
1F
100
AcDbEntity
  8
0
  6
Continuous
 62
     7
370
    15
100
AcDbLine
 10
125.2760209348
 20
674.8010698121
 30
0.0
 11
124.1213206406
 21
672.801065759
 31
0.0
  0
LINE
  5
22A
330
1F
100
AcDbEntity
  8
0
  6
Continuous
 62
     7
370
    15
100
AcDbLine
 10
124.1213206406
 20
676.8010738652
 30
0.0
 11
125.2760209348
 21
674.8010698121
 31
0.0
  0
LINE
  5
22B
330
1F
100
AcDbEntity
  8
0
  6
Continuous
 62
     7
370
    15
100
AcDbLine
 10
121.8119181897
 20
676.8010738652
 30
0.0
 11
124.1213206406
 21
676.8010738652
 31
0.0
  0
LINE
  5
22C
330
1F
100
AcDbEntity
  8
0
  6
Continuous
 62
     7
370
    15
100
AcDbLine
 10
120.6572178956
 20
674.8010698121
 30
0.0
 11
121.8119181897
 21
676.8010738652
 31
0.0
  0
SPLINE
  5
22D
330
1F
100
AcDbEntity
  8
0
  6
Continuous
 62
     7
370
    15
100
AcDbSpline
210
0.0
220
0.0
230
1.0
 70
     8
 71
     3
 72
    19
 73
    15
 74
     0
 42
0.00000001
 43
0.00000001
 40
0.0
 40
0.0
 40
0.0
 40
0.0
 40
0.0903179774513728
 40
0.2045624346586401
 40
0.2714189463203292
 40
0.3439361178265373
 40
0.4207845164838636
 40
0.5
 40
0.5792154835161364
 40
0.6560638821734627
 40
0.7285810536796709
 40
0.79543756534136
 40
0.9096820225486272
 40
1.0
 40
1.0
 40
1.0
 40
1.0
 10
122.9666184838324
 20
671.8010786336094
 30
0.0
 10
122.6830028232266
 20
671.8246542444427
 30
0.0
 10
122.0406377960417
 20
671.8780509710602
 30
0.0
 10
121.2621666841898
 20
672.2841643213045
 30
0.0
 10
120.6768128787326
 20
672.8254860506236
 30
0.0
 10
120.2887941032825
 20
673.388458861145
 30
0.0
 10
120.0278884524023
 20
674.0623137069974
 30
0.0
 10
119.9355209129427
 20
674.801069812122
 30
0.0
 10
120.0278884524023
 20
675.539825917247
 30
0.0
 10
120.2887941032825
 20
676.2136807630994
 30
0.0
 10
120.6768128787326
 20
676.7766535736208
 30
0.0
 10
121.2621666841898
 20
677.3179753029397
 30
0.0
 10
122.0406377960417
 20
677.7240886531844
 30
0.0
 10
122.6830028232266
 20
677.7774853798015
 30
0.0
 10
122.9666184838324
 20
677.8010609906346
 30
0.0
  0
SPLINE
  5
22E
330
1F
100
AcDbEntity
  8
0
  6
Continuous
 62
     7
370
    15
100
AcDbSpline
210
0.0
220
0.0
230
1.0
 70
     8
 71
     3
 72
    19
 73
    15
 74
     0
 42
0.00000001
 43
0.00000001
 40
0.0
 40
0.0
 40
0.0
 40
0.0
 40
0.0903181382678996
 40
0.2045625506296628
 40
0.2714190360475057
 40
0.3439361790878329
 40
0.4207845475790989
 40
0.5
 40
0.579215452420901
 40
0.6560638209121671
 40
0.7285809639524943
 40
0.7954374493703371
 40
0.9096818617321003
 40
1.0
 40
1.0
 40
1.0
 40
1.0
 10
122.9666184838324
 20
677.8010609906346
 30
0.0
 10
123.2502347802327
 20
677.7774854549453
 30
0.0
 10
123.8926004678391
 20
677.724088963326
 30
0.0
 10
124.6710721466872
 20
677.3179753002687
 30
0.0
 10
125.2564259514492
 20
676.7766535742235
 30
0.0
 10
125.6444447270653
 20
676.2136807629224
 30
0.0
 10
125.9053503778961
 20
675.5398259172938
 30
0.0
 10
125.997717917373
 20
674.8010698121221
 30
0.0
 10
125.9053503778961
 20
674.0623137069505
 30
0.0
 10
125.6444447270653
 20
673.388458861322
 30
0.0
 10
125.2564259514492
 20
672.8254860500209
 30
0.0
 10
124.6710721466872
 20
672.2841643239755
 30
0.0
 10
123.8926004678391
 20
671.8780506609183
 30
0.0
 10
123.2502347802327
 20
671.8246541692989
 30
0.0
 10
122.9666184838324
 20
671.8010786336094
 30
0.0
  0
CIRCLE
  5
22F
330
1F
100
AcDbEntity
  8
0
  6
Continuous
 62
     7
370
    15
100
AcDbCircle
 10
165.966619214
 20
674.801068477
 30
0.0
 40
4.85000000000872
  0
CIRCLE
  5
230
330
1F
100
AcDbEntity
  8
0
  6
Continuous
 62
     7
370
    15
100
AcDbCircle
 10
122.966619214
 20
674.801068477
 30
0.0
 40
4.850000000009459
  0
CIRCLE
  5
231
330
1F
100
AcDbEntity
  8
0
  6
Continuous
 62
     7
370
    15
100
AcDbCircle
 10
114.966619214
 20
591.801068477
 30
0.0
 40
4.850000000003675
  0
CIRCLE
  5
232
330
1F
100
AcDbEntity
  8
0
  6
Continuous
 62
     7
370
    15
100
AcDbCircle
 10
173.966619214
 20
591.801068477
 30
0.0
 40
4.850000000004286
  0
LINE
  5
233
330
1F
100
AcDbEntity
  8
0
  6
Continuous
 62
     7
370
    15
100
AcDbLine
 10
105.6402839925
 20
656.3136461538
 30
0.0
 11
118.1298691984
 21
679.5741203588
 31
0.0
  0
SPLINE
  5
234
330
1F
100
AcDbEntity
  8
0
  6
Continuous
 62
     7
370
    15
100
AcDbSpline
210
0.0
220
0.0
230
1.0
 70
     8
 71
     3
 72
    11
 73
     7
 74
     0
 42
0.00000001
 43
0.00000001
 40
0.0
 40
0.0
 40
0.0
 40
0.0
 40
0.2497199782268975
 40
0.4985178538409589
 40
0.7505236231111364
 40
1.0
 40
1.0
 40
1.0
 40
1.0
 10
118.1298691983728
 20
679.5741203587683
 30
0.0
 10
118.1783507082968
 20
679.6500916333171
 30
0.0
 10
118.2751347079187
 20
679.8017536549561
 30
0.0
 10
118.4918764401511
 20
679.9679429500516
 30
0.0
 10
118.7406152645976
 20
680.0809543319044
 30
0.0
 10
118.9211062962076
 20
680.0943774926336
 30
0.0
 10
119.0108966286688
 20
680.101055220905
 30
0.0
  0
LINE
  5
235
330
1F
100
AcDbEntity
  8
0
  6
Continuous
 62
     7
370
    15
100
AcDbLine
 10
119.0108966287
 20
680.1010552209
 30
0.0
 11
169.9223417993
 21
680.1010552209
 31
0.0
  0
SPLINE
  5
236
330
1F
100
AcDbEntity
  8
0
  6
Continuous
 62
     7
370
    15
100
AcDbSpline
210
0.0
220
0.0
230
1.0
 70
     8
 71
     3
 72
    11
 73
     7
 74
     0
 42
0.00000001
 43
0.00000001
 40
0.0
 40
0.0
 40
0.0
 40
0.0
 40
0.2497133258628272
 40
0.4985094893069981
 40
0.7505181069468061
 40
1.0
 40
1.0
 40
1.0
 40
1.0
 10
169.9223417993097
 20
680.101055220905
 30
0.0
 10
170.0122070239031
 20
680.0942836570603
 30
0.0
 10
170.1916074105813
 20
680.0807654003855
 30
0.0
 10
170.4405646278921
 20
679.968440039202
 30
0.0
 10
170.6577786109301
 20
679.8027261097235
 30
0.0
 10
170.7550023082957
 20
679.6500658864957
 30
0.0
 10
170.8033692296057
 20
679.5741203587681
 30
0.0
  0
LINE
  5
237
330
1F
100
AcDbEntity
  8
0
  6
Continuous
 62
     7
370
    15
100
AcDbLine
 10
170.8033692296
 20
679.5741203588
 30
0.0
 11
183.2929544355
 21
656.3136461538
 31
0.0
  0
SPLINE
  5
238
330
1F
100
AcDbEntity
  8
0
  6
Continuous
 62
     7
370
    15
100
AcDbSpline
210
0.0
220
0.0
230
1.0
 70
     8
 71
     3
 72
    12
 73
     8
 74
     0
 42
0.00000001
 43
0.00000001
 40
0.0
 40
0.0
 40
0.0
 40
0.0
 40
0.2486140956571988
 40
0.4998774315661062
 40
0.6674290499117391
 40
0.8341989980717615
 40
1.0
 40
1.0
 40
1.0
 40
1.0
 10
183.2929544355183
 20
656.313646153751
 30
0.0
 10
184.6487858033536
 20
653.5138261251117
 30
0.0
 10
187.3748963241538
 20
647.8843510904642
 30
0.0
 10
189.5881368335646
 20
639.7952893663377
 30
0.0
 10
190.708628825994
 20
632.5626092927532
 30
0.0
 10
191.0916203474029
 20
626.3105000794721
 30
0.0
 10
190.8392589390864
 20
622.1606792668337
 30
0.0
 10
190.7134458627014
 20
620.091814116779
 30
0.0
  0
LINE
  5
239
330
1F
100
AcDbEntity
  8
0
  6
Continuous
 62
     7
370
    15
100
AcDbLine
 10
190.7134458627
 20
620.0918141168
 30
0.0
 11
186.8674636091
 21
576.8125537198
 31
0.0
  0
ARC
  5
23A
330
1F
100
AcDbEntity
  8
0
  6
Continuous
 62
     7
370
    15
100
AcDbCircle
 10
185.8713899462
 20
576.901068477
 30
0.0
 40
1.000000000000015
100
AcDbArc
 50
270.0
 51
354.9217933762
  0
LINE
  5
23B
330
1F
100
AcDbEntity
  8
0
  6
Continuous
 62
     7
370
    15
100
AcDbLine
 10
185.8713917639
 20
575.9010645908
 30
0.0
 11
103.0618466641
 21
575.9010645908
 31
0.0
  0
ARC
  5
23C
330
1F
100
AcDbEntity
  8
0
  6
Continuous
 62
     7
370
    15
100
AcDbCircle
 10
103.0618484818
 20
576.901068477
 30
0.0
 40
1.000000000000015
100
AcDbArc
 50
185.0782066238
 51
270.0
  0
LINE
  5
23D
330
1F
100
AcDbEntity
  8
0
  6
Continuous
 62
     7
370
    15
100
AcDbLine
 10
102.0657748188
 20
576.8125537198
 30
0.0
 11
98.2197925653
 21
620.0918141168
 31
0.0
  0
SPLINE
  5
23E
330
1F
100
AcDbEntity
  8
0
  6
Continuous
 62
     7
370
    15
100
AcDbSpline
210
0.0
220
0.0
230
1.0
 70
    24
 71
     1
 72
     4
 73
     2
 74
     0
 42
0.00000001
 43
0.00000001
 40
0.0
 40
0.0
 40
1.0
 40
1.0
 10
98.2197925652771
 20
620.091814116779
 30
0.0
 10
97.96661811130333
 20
625.8010748189122
 30
0.0
  0
SPLINE
  5
23F
330
1F
100
AcDbEntity
  8
0
  6
Continuous
 62
     7
370
    15
100
AcDbSpline
210
0.0
220
0.0
230
1.0
 70
     8
 71
     3
 72
    11
 73
     7
 74
     0
 42
0.00000001
 43
0.00000001
 40
0.0
 40
0.0
 40
0.0
 40
0.0
 40
0.2490490463418547
 40
0.5000002716651235
 40
0.7509511890315117
 40
1.0
 40
1.0
 40
1.0
 40
1.0
 10
97.96661811130333
 20
625.8010748189123
 30
0.0
 10
98.0594150169429
 20
628.4400425967367
 30
0.0
 10
98.24571758951242
 20
633.7381339775663
 30
0.0
 10
99.77685570483906
 20
641.5670385909152
 30
0.0
 10
102.1314429125458
 20
649.1888506288008
 30
0.0
 10
104.473640373286
 20
653.9447451269463
 30
0.0
 10
105.6402839924603
 20
656.313646153751
 30
0.0
  0
LWPOLYLINE
  5
240
330
1F
100
AcDbEntity
  8
0
  6
Continuous
 62
     7
370
    15
100
AcDbPolyline
 90
        9
 70
   128
 43
0.0
 10
192.7055932786
 20
619.9147883218
 10
192.6673159208
 20
619.9181857865
 10
192.5539516117
 20
619.9282589715
 10
192.3698552157
 20
619.9446204465
 10
192.1221085097
 20
619.9666443628
 10
191.8202221598
 20
619.9934664529
 10
191.4758078958
 20
620.024073438
 10
191.1020942237
 20
620.0572732251
 10
190.7134458627
 20
620.0918141168
  0
LINE
  5
241
330
1F
100
AcDbEntity
  8
0
  6
Continuous
 62
     7
370
    15
100
AcDbLine
 10
192.7055932786
 20
619.9147883218
 30
0.0
 11
188.8596147503
 21
576.6355279248
 31
0.0
  0
LWPOLYLINE
  5
242
330
1F
100
AcDbEntity
  8
0
  6
Continuous
 62
     7
370
    15
100
AcDbPolyline
 90
        9
 70
   128
 43
0.0
 10
188.8596147503
 20
576.6355279248
 10
188.8213373925
 20
576.6389253896
 10
188.7079693581
 20
576.6489985746
 10
188.5238766875
 20
576.6653600495
 10
188.2761262562
 20
576.6873690646
 10
187.9742436315
 20
576.7142060559
 10
187.6298256423
 20
576.744813041
 10
187.2561156954
 20
576.7780128282
 10
186.8674636091
 20
576.8125537198
  0
LWPOLYLINE
  5
243
330
1F
100
AcDbEntity
  8
0
  6
Continuous
 62
     7
370
    15
100
AcDbPolyline
 90
        9
 70
   128
 43
0.0
 10
172.5654259528
 20
680.5202546876
 10
172.531568652
 20
680.502075271
 10
172.4312968756
 20
680.4482522767
 10
172.2684662993
 20
680.3608122628
 10
172.0493316855
 20
680.243152694
 10
171.7823159154
 20
680.099773721
 10
171.4776803012
 20
679.9361887735
 10
171.1471297051
 20
679.7587159436
 10
170.8033692296
 20
679.5741203588
  0
LINE
  5
244
330
1F
100
AcDbEntity
  8
0
  6
Continuous
 62
     7
370
    15
100
AcDbLine
 10
172.5654259528
 20
680.5202546876
 30
0.0
 11
185.0550130214
 21
657.2597804826
 31
0.0
  0
LWPOLYLINE
  5
245
330
1F
100
AcDbEntity
  8
0
  6
Continuous
 62
     7
370
    15
100
AcDbPolyline
 90
        9
 70
   128
 43
0.0
 10
185.0550130214
 20
657.2597804826
 10
185.0211538579
 20
657.2416010659
 10
184.9208839442
 20
657.1877482694
 10
184.7580515053
 20
657.1003380578
 10
184.5389150287
 20
656.9826486867
 10
184.2719011213
 20
656.839299516
 10
183.9672655072
 20
656.6757145684
 10
183.6367130484
 20
656.4982417386
 10
183.2929544355
 20
656.3136461538
  0
LINE
  5
246
330
1F
100
AcDbEntity
  8
0
  6
Continuous
 62
     7
370
    15
100
AcDbLine
 10
96.2276451494
 20
619.9147883218
 30
0.0
 11
100.0736236777
 21
576.6355279248
 31
0.0
  0
LWPOLYLINE
  5
247
330
1F
100
AcDbEntity
  8
0
  6
Continuous
 62
     7
370
    15
100
AcDbPolyline
 90
        9
 70
   128
 43
0.0
 10
96.2276451494
 20
619.9147883218
 10
96.2659225072
 20
619.9181857865
 10
96.3792868163
 20
619.9282589715
 10
96.5633832123
 20
619.9446204465
 10
96.8111299183
 20
619.9666443628
 10
97.1130162682
 20
619.9934664529
 10
97.4574305321
 20
620.024073438
 10
97.8311442043
 20
620.0572732251
 10
98.2197925653
 20
620.0918141168
  0
LWPOLYLINE
  5
248
330
1F
100
AcDbEntity
  8
0
  6
Continuous
 62
     7
370
    15
100
AcDbPolyline
 90
        9
 70
   128
 43
0.0
 10
100.0736236777
 20
576.6355279248
 10
100.1119010355
 20
576.6389253896
 10
100.2252690698
 20
576.6489985746
 10
100.4093617405
 20
576.6653600495
 10
100.6571121718
 20
576.6873690646
 10
100.9589947964
 20
576.7142060559
 10
101.3034127857
 20
576.744813041
 10
101.6771227326
 20
576.7780128282
 10
102.0657748188
 20
576.8125537198
  0
LWPOLYLINE
  5
249
330
1F
100
AcDbEntity
  8
0
  6
Continuous
 62
     7
370
    15
100
AcDbPolyline
 90
        9
 70
   128
 43
0.0
 10
103.8782254066
 20
657.2597804826
 10
103.9120845701
 20
657.2416010659
 10
104.0123544838
 20
657.1877482694
 10
104.1751869227
 20
657.1003380578
 10
104.3943233992
 20
656.9826486867
 10
104.6613373067
 20
656.839299516
 10
104.9659729208
 20
656.6757145684
 10
105.2965253796
 20
656.4982417386
 10
105.6402839925
 20
656.3136461538
  0
LINE
  5
24A
330
1F
100
AcDbEntity
  8
0
  6
Continuous
 62
     7
370
    15
100
AcDbLine
 10
116.3678124751
 20
680.5202546876
 30
0.0
 11
103.8782254066
 21
657.2597804826
 31
0.0
  0
LWPOLYLINE
  5
24B
330
1F
100
AcDbEntity
  8
0
  6
Continuous
 62
     7
370
    15
100
AcDbPolyline
 90
        9
 70
   128
 43
0.0
 10
116.3678124751
 20
680.5202546876
 10
116.401669776
 20
680.502075271
 10
116.5019415523
 20
680.4482522767
 10
116.6647721286
 20
680.3608122628
 10
116.8839067425
 20
680.243152694
 10
117.1509225126
 20
680.099773721
 10
117.4555581267
 20
679.9361887735
 10
117.7861087229
 20
679.7587159436
 10
118.1298691984
 20
679.5741203588
  0
CIRCLE
  5
24C
330
1F
100
AcDbEntity
  8
0
  6
Continuous
 62
     7
370
    15
100
AcDbCircle
 10
165.966619214
 20
674.801068477
 30
0.0
 40
4.0
  0
CIRCLE
  5
24D
330
1F
100
AcDbEntity
  8
0
  6
Continuous
 62
     7
370
    15
100
AcDbCircle
 10
173.966619214
 20
591.801068477
 30
0.0
 40
4.0
  0
CIRCLE
  5
24E
330
1F
100
AcDbEntity
  8
0
  6
Continuous
 62
     7
370
    15
100
AcDbCircle
 10
114.966619214
 20
591.801068477
 30
0.0
 40
4.0
  0
CIRCLE
  5
24F
330
1F
100
AcDbEntity
  8
0
  6
Continuous
 62
     7
370
    15
100
AcDbCircle
 10
122.966619214
 20
674.801068477
 30
0.0
 40
4.000000000000014
  0
ARC
  5
250
330
1F
100
AcDbEntity
  8
0
  6
Continuous
 62
     7
370
    15
100
AcDbCircle
 10
126.466619214
 20
625.801068477
 30
0.0
 40
66.5
100
AcDbArc
 50
354.9217933762
 51
28.2333248793
  0
ARC
  5
251
330
1F
100
AcDbEntity
  8
0
  6
Continuous
 62
     7
370
    15
100
AcDbCircle
 10
162.466619214
 20
625.801068477
 30
0.0
 40
66.5
100
AcDbArc
 50
151.7666751207
 51
185.0782066238
  0
ARC
  5
252
330
1F
100
AcDbEntity
  8
0
  6
Continuous
 62
     7
370
    15
100
AcDbCircle
 10
185.8713899462
 20
576.901068477
 30
0.0
 40
3.000000000000114
100
AcDbArc
 50
270.0
 51
354.9217933762
  0
LINE
  5
253
330
1F
100
AcDbEntity
  8
0
  6
Continuous
 62
     7
370
    15
100
AcDbLine
 10
185.8713917639
 20
575.9010645908
 30
0.0
 11
185.8713917639
 21
573.9010754388
 31
0.0
  0
LINE
  5
254
330
1F
100
AcDbEntity
  8
0
  6
Continuous
 62
     7
370
    15
100
AcDbLine
 10
185.8713917639
 20
573.9010754388
 30
0.0
 11
103.0618466641
 21
573.9010754388
 31
0.0
  0
LINE
  5
255
330
1F
100
AcDbEntity
  8
0
  6
Continuous
 62
     7
370
    15
100
AcDbLine
 10
103.0618466641
 20
573.9010754388
 30
0.0
 11
103.0618466641
 21
575.9010645908
 31
0.0
  0
CIRCLE
  5
256
330
1F
100
AcDbEntity
  8
0
  6
Continuous
 62
     7
370
    15
100
AcDbCircle
 10
173.966619214
 20
591.801068477
 30
0.0
 40
4.500365940291573
  0
CIRCLE
  5
257
330
1F
100
AcDbEntity
  8
0
  6
Continuous
 62
     7
370
    15
100
AcDbCircle
 10
114.966619214
 20
591.801068477
 30
0.0
 40
4.500365940279892
  0
ARC
  5
258
330
1F
100
AcDbEntity
  8
0
  6
Continuous
 62
     7
370
    15
100
AcDbCircle
 10
103.0618484818
 20
576.901068477
 30
0.0
 40
3.000000000000114
100
AcDbArc
 50
185.0782066238
 51
270.0
  0
CIRCLE
  5
259
330
1F
100
AcDbEntity
  8
0
  6
Continuous
 62
     7
370
    15
100
AcDbCircle
 10
165.966619214
 20
674.801068477
 30
0.0
 40
4.500365940284922
  0
LINE
  5
25A
330
1F
100
AcDbEntity
  8
0
  6
Continuous
 62
     7
370
    15
100
AcDbLine
 10
169.9223417993
 20
682.101059274
 30
0.0
 11
169.9223417993
 21
680.1010552209
 31
0.0
  0
ARC
  5
25B
330
1F
100
AcDbEntity
  8
0
  6
Continuous
 62
     7
370
    15
100
AcDbCircle
 10
169.9223409886
 20
679.101068477
 30
0.0
 40
3.000000000000114
100
AcDbArc
 50
28.2333248793
 51
90.0
  0
LINE
  5
25C
330
1F
100
AcDbEntity
  8
0
  6
Continuous
 62
     7
370
    15
100
AcDbLine
 10
119.0108966287
 20
682.101059274
 30
0.0
 11
119.0108966287
 21
680.1010552209
 31
0.0
  0
LINE
  5
25D
330
1F
100
AcDbEntity
  8
0
  6
Continuous
 62
     7
370
    15
100
AcDbLine
 10
119.0108966287
 20
682.101059274
 30
0.0
 11
169.9223417993
 21
682.101059274
 31
0.0
  0
CIRCLE
  5
25E
330
1F
100
AcDbEntity
  8
0
  6
Continuous
 62
     7
370
    15
100
AcDbCircle
 10
122.966619214
 20
674.801068477
 30
0.0
 40
4.500365940285675
  0
ARC
  5
25F
330
1F
100
AcDbEntity
  8
0
  6
Continuous
 62
     7
370
    15
100
AcDbCircle
 10
119.0108974394
 20
679.101068477
 30
0.0
 40
3.000000000000114
100
AcDbArc
 50
90.0
 51
151.7666751207
  0
LINE
  5
260
330
1F
100
AcDbEntity
  8
0
  6
Continuous
 62
     7
370
    15
100
AcDbLine
 10
116.1179013755
 20
681.1198774141
 30
0.0
 11
103.4331761505
 21
657.4878576558
 31
0.0
  0
ARC
  5
261
330
1F
100
AcDbEntity
  8
0
  6
Continuous
 62
     7
370
    15
100
AcDbCircle
 10
118.7611889462
 20
679.701068477
 30
0.0
 40
3.000000000000114
100
AcDbArc
 50
90.0
 51
151.774875858
  0
LINE
  5
262
330
1F
100
AcDbEntity
  8
0
  6
Continuous
 62
     7
370
    15
100
AcDbLine
 10
170.1720498707
 20
682.7010694307
 30
0.0
 11
118.7611885573
 21
682.7010694307
 31
0.0
  0
ARC
  5
263
330
1F
100
AcDbEntity
  8
0
  6
Continuous
 62
     7
370
    15
100
AcDbCircle
 10
170.1720494818
 20
679.701068477
 30
0.0
 40
3.000000000000114
100
AcDbArc
 50
28.225124142
 51
90.0
  0
LINE
  5
264
330
1F
100
AcDbEntity
  8
0
  6
Continuous
 62
     7
370
    15
100
AcDbLine
 10
185.5000622775
 20
657.4878576558
 30
0.0
 11
172.8153370525
 21
681.1198774141
 31
0.0
  0
ARC
  5
265
330
1F
100
AcDbEntity
  8
0
  6
Continuous
 62
     7
370
    15
100
AcDbCircle
 10
126.466619214
 20
625.801068477
 30
0.0
 40
67.00000000000007
100
AcDbArc
 50
354.7562578805
 51
28.225124142
  0
LINE
  5
266
330
1F
100
AcDbEntity
  8
0
  6
Continuous
 62
     7
370
    15
100
AcDbLine
 10
189.2167881336
 20
576.426896767
 30
0.0
 11
193.186219057
 21
619.6777406495
 31
0.0
  0
ARC
  5
267
330
1F
100
AcDbEntity
  8
0
  6
Continuous
 62
     7
370
    15
100
AcDbCircle
 10
186.2293420448
 20
576.701068477
 30
0.0
 40
3.0
100
AcDbArc
 50
270.0
 51
354.7562578805
  0
LINE
  5
268
330
1F
100
AcDbEntity
  8
0
  6
Continuous
 62
     7
370
    15
100
AcDbLine
 10
102.7038946952
 20
573.7010720533
 30
0.0
 11
186.2293437328
 21
573.7010720533
 31
0.0
  0
ARC
  5
269
330
1F
100
AcDbEntity
  8
0
  6
Continuous
 62
     7
370
    15
100
AcDbCircle
 10
102.7038963832
 20
576.701068477
 30
0.0
 40
3.000000000000041
100
AcDbArc
 50
185.2437421195
 51
270.0
  0
LINE
  5
26A
330
1F
100
AcDbEntity
  8
0
  6
Continuous
 62
     7
370
    15
100
AcDbLine
 10
98.7720854785
 20
586.7166850131
 30
0.0
 11
99.7164502944
 21
576.426896767
 31
0.0
  0
ARC
  5
26B
330
1F
100
AcDbEntity
  8
0
  6
Continuous
 62
     7
370
    15
100
AcDbCircle
 10
93.7930116054
 20
586.2597146693
 30
0.0
 40
4.999999999999948
100
AcDbArc
 50
5.2437421195
 51
85.0
  0
LINE
  5
26C
330
1F
100
AcDbEntity
  8
0
  6
Continuous
 62
     7
370
    15
100
AcDbLine
 10
91.7051501776
 20
591.4614829581
 30
0.0
 11
94.2287884857
 21
591.2406924527
 31
0.0
  0
ARC
  5
26D
330
1F
100
AcDbEntity
  8
0
  6
Continuous
 62
     7
370
    15
100
AcDbCircle
 10
91.966619214
 20
594.450061999
 30
0.0
 40
3.000000000000014
100
AcDbArc
 50
180.0
 51
265.0
  0
LINE
  5
26E
330
1F
100
AcDbEntity
  8
0
  6
Continuous
 62
     7
370
    15
100
AcDbLine
 10
88.9666184987
 20
634.7520831388
 30
0.0
 11
88.9666184987
 21
594.4500598472
 31
0.0
  0
ARC
  5
26F
330
1F
100
AcDbEntity
  8
0
  6
Continuous
 62
     7
370
    15
100
AcDbCircle
 10
91.966619214
 20
634.7520749549
 30
0.0
 40
3.000000000000014
100
AcDbArc
 50
95.0
 51
180.0
  0
LINE
  5
270
330
1F
100
AcDbEntity
  8
0
  6
Continuous
 62
     7
370
    15
100
AcDbLine
 10
91.7051501776
 20
637.7406600278
 30
0.0
 11
92.9451875593
 21
637.8491404813
 31
0.0
  0
ARC
  5
271
330
1F
100
AcDbEntity
  8
0
  6
Continuous
 62
     7
370
    15
100
AcDbCircle
 10
92.5094083535
 20
642.8301215517
 30
0.0
 40
4.999999999999988
100
AcDbArc
 50
275.0
 51
346.3190783769
  0
ARC
  5
272
330
1F
100
AcDbEntity
  8
0
  6
Continuous
 62
     7
370
    15
100
AcDbCircle
 10
162.466619214
 20
625.801068477
 30
0.0
 40
67.00000000000004
100
AcDbArc
 50
151.774875858
 51
166.3190783769
  0
LINE
  5
273
330
1F
100
AcDbEntity
  8
0
  6
Continuous
 62
     7
370
    15
100
AcDbLine
 10
128.6690712179
 20
688.0010548394
 30
0.0
 11
128.6690712179
 21
686.5010741513
 31
0.0
  0
LINE
  5
274
330
1F
100
AcDbEntity
  8
0
  6
Continuous
 62
     7
370
    15
100
AcDbLine
 10
163.7166191097
 20
688.0010548394
 30
0.0
 11
128.6690712179
 21
688.0010548394
 31
0.0
  0
LINE
  5
275
330
1F
100
AcDbEntity
  8
0
  6
Continuous
 62
     7
370
    15
100
AcDbLine
 10
125.2166193183
 20
684.5010700982
 30
0.0
 11
163.7166191097
 21
684.5010700982
 31
0.0
  0
SPLINE
  5
276
330
1F
100
AcDbEntity
  8
0
  6
Continuous
 62
     7
370
    15
100
AcDbSpline
210
0.0
220
0.0
230
1.0
 70
    24
 71
     1
 72
     4
 73
     2
 74
     0
 42
0.00000001
 43
0.00000001
 40
0.0
 40
0.0
 40
1.0
 40
1.0
 10
130.3938396479401
 20
690.9010592263368
 30
0.0
 10
128.6690712179455
 20
688.0010548394349
 30
0.0
  0
LINE
  5
277
330
1F
100
AcDbEntity
  8
0
  6
Continuous
 62
     7
370
    15
100
AcDbLine
 10
160.8166184481
 20
690.9010592263
 30
0.0
 11
130.3938396479
 21
690.9010592263
 31
0.0
  0
LINE
  5
278
330
1F
100
AcDbEntity
  8
0
  6
Continuous
 62
     7
370
    15
100
AcDbLine
 10
156.9666194003
 20
683.5010829728
 30
0.0
 11
131.9666190277
 21
683.5010829728
 31
0.0
  0
LINE
  5
279
330
1F
100
AcDbEntity
  8
0
  6
Continuous
 62
     7
370
    15
100
AcDbLine
 10
156.9516195189
 20
683.9010599416
 30
0.0
 11
131.9816189091
 21
683.9010599416
 31
0.0
  0
LINE
  5
27A
330
1F
100
AcDbEntity
  8
0
  6
Continuous
 62
     7
370
    15
100
AcDbLine
 10
114.316619208
 20
690.9010592263
 30
0.0
 11
111.781059971
 21
688.3655074399
 31
0.0
  0
LINE
  5
27B
330
1F
100
AcDbEntity
  8
0
  6
Continuous
 62
     7
370
    15
100
AcDbLine
 10
112.6972951199
 20
688.0010548394
 30
0.0
 11
128.6690712179
 21
688.0010548394
 31
0.0
  0
ELLIPSE
  5
27C
330
1F
100
AcDbEntity
  8
0
  6
Continuous
 62
     7
370
    15
100
AcDbEllipse
 10
112.916619214
 20
689.501068477
 30
0.0
 11
1.135558726259134
 21
1.135558726259092
 31
0.0
210
0.0
220
0.0
230
1.0
 40
0.8630590836
 41
3.141592653589757
 42
3.853619502145448
  0
LINE
  5
27D
330
1F
100
AcDbEntity
  8
0
  6
Continuous
 62
     7
370
    15
100
AcDbLine
 10
114.316619208
 20
690.9010592263
 30
0.0
 11
130.3938396479
 21
690.9010592263
 31
0.0
  0
LINE
  5
27E
330
1F
100
AcDbEntity
  8
0
  6
Continuous
 62
     7
370
    15
100
AcDbLine
 10
112.6972951199
 20
686.5010741513
 30
0.0
 11
112.6972951199
 21
688.0010548394
 31
0.0
  0
LINE
  5
27F
330
1F
100
AcDbEntity
  8
0
  6
Continuous
 62
     7
370
    15
100
AcDbLine
 10
128.6690712179
 20
686.5010741513
 30
0.0
 11
112.6972951199
 21
686.5010741513
 31
0.0
  0
LINE
  5
280
330
1F
100
AcDbEntity
  8
0
  6
Continuous
 62
     7
370
    15
100
AcDbLine
 10
111.4166185464
 20
688.0010548394
 30
0.0
 11
111.4166185464
 21
686.5010741513
 31
0.0
  0
LWPOLYLINE
  5
281
330
1F
100
AcDbEntity
  8
0
  6
Continuous
 62
     7
370
    15
100
AcDbPolyline
 90
        5
 70
   128
 43
0.0
 10
111.781059971
 20
688.3655074399
 10
111.6254657711
 20
688.2099095147
 10
111.5106784012
 20
688.0951407712
 10
111.4403225686
 20
688.0247774881
 10
111.4166185464
 20
688.0010548394
  0
LINE
  5
282
330
1F
100
AcDbEntity
  8
0
  6
Continuous
 62
     7
370
    15
100
AcDbLine
 10
112.6972951199
 20
686.5010741513
 30
0.0
 11
111.4166185464
 21
686.5010741513
 31
0.0
  0
LINE
  5
283
330
1F
100
AcDbEntity
  8
0
  6
Continuous
 62
     7
370
    15
100
AcDbLine
 10
134.9597463589
 20
702.7010801595
 30
0.0
 11
153.9734920691
 21
702.7010801595
 31
0.0
  0
LINE
  5
284
330
1F
100
AcDbEntity
  8
0
  6
Continuous
 62
     7
370
    15
100
AcDbLine
 10
153.9734920691
 20
702.7010801595
 30
0.0
 11
153.9734920691
 21
690.9010592263
 31
0.0
  0
LINE
  5
285
330
1F
100
AcDbEntity
  8
0
  6
Continuous
 62
     7
370
    15
100
AcDbLine
 10
134.9597463589
 20
690.9010592263
 30
0.0
 11
134.9597463589
 21
702.7010801595
 31
0.0
  0
LINE
  5
286
330
1F
100
AcDbEntity
  8
0
  6
Continuous
 62
     7
370
    15
100
AcDbLine
 10
156.6375114228
 20
702.7010801595
 30
0.0
 11
153.9734920691
 21
702.7010801595
 31
0.0
  0
ARC
  5
287
330
1F
100
AcDbEntity
  8
0
  6
Continuous
 62
     7
370
    15
100
AcDbCircle
 10
144.466619214
 20
700.201068477
 30
0.0
 40
12.42499999999998
100
AcDbArc
 50
9.2629588366
 51
11.6075642206
  0
LINE
  5
288
330
1F
100
AcDbEntity
  8
0
  6
Continuous
 62
     7
370
    15
100
AcDbLine
 10
156.7295968737
 20
698.7010720533
 30
0.0
 11
156.7295968737
 21
702.2010567945
 31
0.0
  0
LINE
  5
289
330
1F
100
AcDbEntity
  8
0
  6
Continuous
 62
     7
370
    15
100
AcDbLine
 10
156.891619062
 20
698.7010720533
 30
0.0
 11
156.7295968737
 21
698.7010720533
 31
0.0
  0
LINE
  5
28A
330
1F
100
AcDbEntity
  8
0
  6
Continuous
 62
     7
370
    15
100
AcDbLine
 10
132.2036415543
 20
702.2010567945
 30
0.0
 11
132.2036415543
 21
698.7010720533
 31
0.0
  0
ARC
  5
28B
330
1F
100
AcDbEntity
  8
0
  6
Continuous
 62
     7
370
    15
100
AcDbCircle
 10
144.466619214
 20
700.201068477
 30
0.0
 40
12.42500000000001
100
AcDbArc
 50
168.3924357794
 51
170.7370411634
  0
LINE
  5
28C
330
1F
100
AcDbEntity
  8
0
  6
Continuous
 62
     7
370
    15
100
AcDbLine
 10
132.2036415543
 20
698.7010720533
 30
0.0
 11
132.041619366
 21
698.7010720533
 31
0.0
  0
LINE
  5
28D
330
1F
100
AcDbEntity
  8
0
  6
Continuous
 62
     7
370
    15
100
AcDbLine
 10
134.9597463589
 20
702.7010801595
 30
0.0
 11
132.2957270052
 21
702.7010801595
 31
0.0
  0
LINE
  5
28E
330
1F
100
AcDbEntity
  8
0
  6
Continuous
 62
     7
370
    15
100
AcDbLine
 10
302.3307043294
 20
125.6232433029
 30
0.0
 11
302.3307043294
 21
121.8232423075
 31
0.0
  0
LINE
  5
28F
330
1F
100
AcDbEntity
  8
0
  6
Continuous
 62
     7
370
    15
100
AcDbLine
 10
556.3307124356
 20
121.8232423075
 30
0.0
 11
556.3307124356
 21
125.6232433029
 31
0.0
  0
LINE
  5
290
330
1F
100
AcDbEntity
  8
0
  6
Continuous
 62
     7
370
    15
100
AcDbLine
 10
302.3307043294
 20
79.8232428737
 30
0.0
 11
302.3307043294
 21
76.0232418783
 31
0.0
  0
LINE
  5
291
330
1F
100
AcDbEntity
  8
0
  6
Continuous
 62
     7
370
    15
100
AcDbLine
 10
556.3307124356
 20
76.0232418783
 30
0.0
 11
556.3307124356
 21
79.8232428737
 31
0.0
  0
LINE
  5
292
330
1F
100
AcDbEntity
  8
0
  6
Continuous
 62
     7
370
    15
100
AcDbLine
 10
323.3307096342
 20
121.8232423075
 30
0.0
 11
323.3307096342
 21
121.6232426472
 31
0.0
  0
LINE
  5
293
330
1F
100
AcDbEntity
  8
0
  6
Continuous
 62
     7
370
    15
100
AcDbLine
 10
323.3307096342
 20
80.023242534
 30
0.0
 11
323.3307096342
 21
79.8232428737
 31
0.0
  0
LINE
  5
294
330
1F
100
AcDbEntity
  8
0
  6
Continuous
 62
     7
370
    15
100
AcDbLine
 10
541.8307054023
 20
149.8232413091
 30
0.0
 11
373.8307076673
 21
149.8232413091
 31
0.0
  0
ARC
  5
295
330
1F
100
AcDbEntity
  8
0
  6
Continuous
 62
     7
370
    15
100
AcDbCircle
 10
548.8307083825
 20
54.3232425906
 30
0.0
 40
2.000000000000007
100
AcDbArc
 50
270.0
 51
0.0
  0
ARC
  5
296
330
1F
100
AcDbEntity
  8
0
  6
Continuous
 62
     7
370
    15
100
AcDbCircle
 10
366.8307083825
 20
147.3232425906
 30
0.0
 40
2.0
100
AcDbArc
 50
90.0
 51
180.0
  0
ARC
  5
297
330
1F
100
AcDbEntity
  8
0
  6
Continuous
 62
     7
370
    15
100
AcDbCircle
 10
548.8307083825
 20
147.3232425906
 30
0.0
 40
2.0
100
AcDbArc
 50
0.0
 51
90.0
  0
ARC
  5
298
330
1F
100
AcDbEntity
  8
0
  6
Continuous
 62
     7
370
    15
100
AcDbCircle
 10
366.8307083825
 20
54.3232425906
 30
0.0
 40
2.0
100
AcDbArc
 50
180.0
 51
270.0
  0
LINE
  5
299
330
1F
100
AcDbEntity
  8
0
  6
Continuous
 62
     7
370
    15
100
AcDbLine
 10
548.830704687
 20
149.3232440211
 30
0.0
 11
541.8307054023
 21
149.3232440211
 31
0.0
  0
LINE
  5
29A
330
1F
100
AcDbEntity
  8
0
  6
Continuous
 62
     7
370
    15
100
AcDbLine
 10
541.8307054023
 20
52.3232411601
 30
0.0
 11
548.830704687
 21
52.3232411601
 31
0.0
  0
LINE
  5
29B
330
1F
100
AcDbEntity
  8
0
  6
Continuous
 62
     7
370
    15
100
AcDbLine
 10
373.8307076673
 20
149.3232440211
 30
0.0
 11
366.8307083825
 21
149.3232440211
 31
0.0
  0
LINE
  5
29C
330
1F
100
AcDbEntity
  8
0
  6
Continuous
 62
     7
370
    15
100
AcDbLine
 10
366.8307083825
 20
52.3232411601
 30
0.0
 11
373.8307076673
 21
52.3232411601
 31
0.0
  0
LINE
  5
29D
330
1F
100
AcDbEntity
  8
0
  6
Continuous
 62
     7
370
    15
100
AcDbLine
 10
557.8307080249
 20
91.5856383749
 30
0.0
 11
558.8307100515
 21
93.3232427583
 31
0.0
  0
LINE
  5
29E
330
1F
100
AcDbEntity
  8
0
  6
Continuous
 62
     7
370
    15
100
AcDbLine
 10
558.8307100515
 20
108.323242423
 30
0.0
 11
557.8307080249
 21
110.0608468064
 31
0.0
  0
LINE
  5
29F
330
1F
100
AcDbEntity
  8
0
  6
Continuous
 62
     7
370
    15
100
AcDbLine
 10
551.8307107667
 20
110.0608468064
 30
0.0
 11
550.8307087402
 21
108.323242423
 31
0.0
  0
LINE
  5
2A0
330
1F
100
AcDbEntity
  8
0
  6
Continuous
 62
     7
370
    15
100
AcDbLine
 10
550.8307087402
 20
93.3232427583
 30
0.0
 11
551.8307107667
 21
91.5856383749
 31
0.0
  0
LINE
  5
2A1
330
1F
100
AcDbEntity
  8
0
  6
Continuous
 62
     7
370
    15
100
AcDbLine
 10
560.630710719
 20
95.8232427024
 30
0.0
 11
561.1307042817
 21
96.3232427843
 31
0.0
  0
LINE
  5
2A2
330
1F
100
AcDbEntity
  8
0
  6
Continuous
 62
     7
370
    15
100
AcDbLine
 10
561.1307042817
 20
105.3232423969
 30
0.0
 11
560.630710719
 21
105.8232424789
 31
0.0
  0
LINE
  5
2A3
330
1F
100
AcDbEntity
  8
0
  6
Continuous
 62
     7
370
    15
100
AcDbLine
 10
558.8307100515
 20
95.8232427024
 30
0.0
 11
560.630710719
 21
95.8232427024
 31
0.0
  0
LINE
  5
2A4
330
1F
100
AcDbEntity
  8
0
  6
Continuous
 62
     7
370
    15
100
AcDbLine
 10
560.630710719
 20
105.8232424789
 30
0.0
 11
558.8307100515
 21
105.8232424789
 31
0.0
  0
LINE
  5
2A5
330
1F
100
AcDbEntity
  8
0
  6
Continuous
 62
     7
370
    15
100
AcDbLine
 10
302.3307043294
 20
125.6232433029
 30
0.0
 11
364.8767712692
 21
125.6232433029
 31
0.0
  0
LINE
  5
2A6
330
1F
100
AcDbEntity
  8
0
  6
Continuous
 62
     7
370
    15
100
AcDbLine
 10
550.7846492509
 20
125.6232433029
 30
0.0
 11
556.3307124356
 21
125.6232433029
 31
0.0
  0
LINE
  5
2A7
330
1F
100
AcDbEntity
  8
0
  6
Continuous
 62
     7
370
    15
100
AcDbLine
 10
302.3307043294
 20
121.8232423075
 30
0.0
 11
364.7811877708
 21
121.8232423075
 31
0.0
  0
LINE
  5
2A8
330
1F
100
AcDbEntity
  8
0
  6
Continuous
 62
     7
370
    15
100
AcDbLine
 10
550.8787202815
 20
121.8232423075
 30
0.0
 11
556.3307124356
 21
121.8232423075
 31
0.0
  0
LINE
  5
2A9
330
1F
100
AcDbEntity
  8
0
  6
Continuous
 62
     7
370
    15
100
AcDbLine
 10
302.3307043294
 20
79.8232428737
 30
0.0
 11
364.7811877708
 21
79.8232428737
 31
0.0
  0
LINE
  5
2AA
330
1F
100
AcDbEntity
  8
0
  6
Continuous
 62
     7
370
    15
100
AcDbLine
 10
550.8787202815
 20
79.8232428737
 30
0.0
 11
556.3307124356
 21
79.8232428737
 31
0.0
  0
LINE
  5
2AB
330
1F
100
AcDbEntity
  8
0
  6
Continuous
 62
     7
370
    15
100
AcDbLine
 10
302.3307043294
 20
76.0232418783
 30
0.0
 11
364.8767712692
 21
76.0232418783
 31
0.0
  0
LINE
  5
2AC
330
1F
100
AcDbEntity
  8
0
  6
Continuous
 62
     7
370
    15
100
AcDbLine
 10
550.7846492509
 20
76.0232418783
 30
0.0
 11
556.3307124356
 21
76.0232418783
 31
0.0
  0
LINE
  5
2AD
330
1F
100
AcDbEntity
  8
0
  6
Continuous
 62
     7
370
    15
100
AcDbLine
 10
556.6268879155
 20
80.023242534
 30
0.0
 11
550.9944874028
 21
80.023242534
 31
0.0
  0
LINE
  5
2AE
330
1F
100
AcDbEntity
  8
0
  6
Continuous
 62
     7
370
    15
100
AcDbLine
 10
556.6268879155
 20
121.6232426472
 30
0.0
 11
550.9944874028
 21
121.6232426472
 31
0.0
  0
LINE
  5
2AF
330
1F
100
AcDbEntity
  8
0
  6
Continuous
 62
     7
370
    15
100
AcDbLine
 10
302.0345288495
 20
121.6232426472
 30
0.0
 11
302.0345288495
 21
80.023242534
 31
0.0
  0
LINE
  5
2B0
330
1F
100
AcDbEntity
  8
0
  6
Continuous
 62
     7
370
    15
100
AcDbLine
 10
364.7789898495
 20
80.023242534
 30
0.0
 11
302.0345288495
 21
80.023242534
 31
0.0
  0
LINE
  5
2B1
330
1F
100
AcDbEntity
  8
0
  6
Continuous
 62
     7
370
    15
100
AcDbLine
 10
364.7789898495
 20
121.6232426472
 30
0.0
 11
302.0345288495
 21
121.6232426472
 31
0.0
  0
LINE
  5
2B2
330
1F
100
AcDbEntity
  8
0
  6
Continuous
 62
     7
370
    15
100
AcDbLine
 10
564.3307137469
 20
80.023242534
 30
0.0
 11
564.3307137469
 21
121.6232426472
 31
0.0
  0
LINE
  5
2B3
330
1F
100
AcDbEntity
  8
0
  6
Continuous
 62
     7
370
    15
100
AcDbLine
 10
564.3307137469
 20
80.023242534
 30
0.0
 11
556.6268879155
 21
80.023242534
 31
0.0
  0
LINE
  5
2B4
330
1F
100
AcDbEntity
  8
0
  6
Continuous
 62
     7
370
    15
100
AcDbLine
 10
556.6268879155
 20
121.6232426472
 30
0.0
 11
564.3307137469
 21
121.6232426472
 31
0.0
  0
LINE
  5
2B5
330
1F
100
AcDbEntity
  8
0
  6
Continuous
 62
     7
370
    15
100
AcDbLine
 10
294.3307030181
 20
80.023242534
 30
0.0
 11
294.3307030181
 21
121.6232426472
 31
0.0
  0
LINE
  5
2B6
330
1F
100
AcDbEntity
  8
0
  6
Continuous
 62
     7
370
    15
100
AcDbLine
 10
302.0345288495
 20
80.023242534
 30
0.0
 11
294.3307030181
 21
80.023242534
 31
0.0
  0
LINE
  5
2B7
330
1F
100
AcDbEntity
  8
0
  6
Continuous
 62
     7
370
    15
100
AcDbLine
 10
294.3307030181
 20
121.6232426472
 30
0.0
 11
302.0345288495
 21
121.6232426472
 31
0.0
  0
ARC
  5
2B8
330
1F
100
AcDbEntity
  8
0
  6
Continuous
 62
     7
370
    15
100
AcDbCircle
 10
429.3307083825
 20
100.8232425906
 30
0.0
 40
12.42500000000002
100
AcDbArc
 50
49.919506039
 51
78.3924357794
  0
LINE
  5
2B9
330
1F
100
AcDbEntity
  8
0
  6
Continuous
 62
     7
370
    15
100
AcDbLine
 10
437.3307087625
 20
91.3163697355
 30
0.0
 11
437.3307087625
 21
110.3301154457
 31
0.0
  0
ARC
  5
2BA
330
1F
100
AcDbEntity
  8
0
  6
Continuous
 62
     7
370
    15
100
AcDbCircle
 10
429.3307083825
 20
100.8232425906
 30
0.0
 40
12.42500000000001
100
AcDbArc
 50
281.6075642206
 51
310.080493961
  0
LINE
  5
2BB
330
1F
100
AcDbEntity
  8
0
  6
Continuous
 62
     7
370
    15
100
AcDbLine
 10
431.8307083266
 20
100.8232425906
 30
0.0
 11
431.8307083266
 21
88.6523503818
 31
0.0
  0
LINE
  5
2BC
330
1F
100
AcDbEntity
  8
0
  6
Continuous
 62
     7
370
    15
100
AcDbLine
 10
431.8307083266
 20
112.9941347994
 30
0.0
 11
431.8307083266
 21
100.8232425906
 31
0.0
  0
LINE
  5
2BD
330
1F
100
AcDbEntity
  8
0
  6
Continuous
 62
     7
370
    15
100
AcDbLine
 10
426.8307084384
 20
100.8232425906
 30
0.0
 11
426.8307084384
 21
112.9941347994
 31
0.0
  0
LINE
  5
2BE
330
1F
100
AcDbEntity
  8
0
  6
Continuous
 62
     7
370
    15
100
AcDbLine
 10
427.3307082875
 20
113.0862202503
 30
0.0
 11
427.3307082875
 21
102.3232426037
 31
0.0
  0
ARC
  5
2BF
330
1F
100
AcDbEntity
  8
0
  6
Continuous
 62
     7
370
    15
100
AcDbCircle
 10
429.3307083825
 20
100.8232425906
 30
0.0
 40
2.500000000000057
100
AcDbArc
 50
143.1301023542
 51
180.0
  0
ARC
  5
2C0
330
1F
100
AcDbEntity
  8
0
  6
Continuous
 62
     7
370
    15
100
AcDbCircle
 10
429.3307083825
 20
100.8232425906
 30
0.0
 40
12.42500000000002
100
AcDbArc
 50
99.2629588366
 51
101.6075642206
  0
LINE
  5
2C1
330
1F
100
AcDbEntity
  8
0
  6
Continuous
 62
     7
370
    15
100
AcDbLine
 10
426.8307084384
 20
88.6523503818
 30
0.0
 11
426.8307084384
 21
100.8232425906
 31
0.0
  0
ARC
  5
2C2
330
1F
100
AcDbEntity
  8
0
  6
Continuous
 62
     7
370
    15
100
AcDbCircle
 10
429.3307083825
 20
100.8232425906
 30
0.0
 40
12.42500000000001
100
AcDbArc
 50
229.919506039
 51
258.3924357794
  0
LINE
  5
2C3
330
1F
100
AcDbEntity
  8
0
  6
Continuous
 62
     7
370
    15
100
AcDbLine
 10
421.3307080025
 20
110.3301154457
 30
0.0
 11
421.3307080025
 21
91.3163697355
 31
0.0
  0
ARC
  5
2C4
330
1F
100
AcDbEntity
  8
0
  6
Continuous
 62
     7
370
    15
100
AcDbCircle
 10
429.3307083825
 20
100.8232425906
 30
0.0
 40
12.42500000000002
100
AcDbArc
 50
101.6075642206
 51
130.080493961
  0
ARC
  5
2C5
330
1F
100
AcDbEntity
  8
0
  6
Continuous
 62
     7
370
    15
100
AcDbCircle
 10
429.3307083825
 20
100.8232425906
 30
0.0
 40
2.499999999999946
100
AcDbArc
 50
0.0
 51
36.8698976458
  0
LINE
  5
2C6
330
1F
100
AcDbEntity
  8
0
  6
Continuous
 62
     7
370
    15
100
AcDbLine
 10
431.3307084775
 20
113.0862202503
 30
0.0
 11
431.3307084775
 21
102.3232426037
 31
0.0
  0
ARC
  5
2C7
330
1F
100
AcDbEntity
  8
0
  6
Continuous
 62
     7
370
    15
100
AcDbCircle
 10
429.3307083825
 20
100.8232425906
 30
0.0
 40
12.425
100
AcDbArc
 50
78.3924357794
 51
80.7370411634
  0
LINE
  5
2C8
330
1F
100
AcDbEntity
  8
0
  6
Continuous
 62
     7
370
    15
100
AcDbLine
 10
431.3307084775
 20
99.3232425776
 30
0.0
 11
431.3307084775
 21
88.5602649309
 31
0.0
  0
ARC
  5
2C9
330
1F
100
AcDbEntity
  8
0
  6
Continuous
 62
     7
370
    15
100
AcDbCircle
 10
429.3307083825
 20
100.8232425906
 30
0.0
 40
2.499999999999963
100
AcDbArc
 50
323.1301023542
 51
0.0
  0
ARC
  5
2CA
330
1F
100
AcDbEntity
  8
0
  6
Continuous
 62
     7
370
    15
100
AcDbCircle
 10
429.3307083825
 20
100.8232425906
 30
0.0
 40
12.42500000000001
100
AcDbArc
 50
279.2629588366
 51
281.6075642206
  0
LINE
  5
2CB
330
1F
100
AcDbEntity
  8
0
  6
Continuous
 62
     7
370
    15
100
AcDbLine
 10
427.3307082875
 20
99.3232425776
 30
0.0
 11
427.3307082875
 21
88.5602649309
 31
0.0
  0
ARC
  5
2CC
330
1F
100
AcDbEntity
  8
0
  6
Continuous
 62
     7
370
    15
100
AcDbCircle
 10
429.3307083825
 20
100.8232425906
 30
0.0
 40
12.42500000000003
100
AcDbArc
 50
258.3924357794
 51
260.7370411634
  0
ARC
  5
2CD
330
1F
100
AcDbEntity
  8
0
  6
Continuous
 62
     7
370
    15
100
AcDbCircle
 10
429.3307083825
 20
100.8232425906
 30
0.0
 40
2.500000000000057
100
AcDbArc
 50
180.0
 51
216.8698976458
  0
ARC
  5
2CE
330
1F
100
AcDbEntity
  8
0
  6
Continuous
 62
     7
370
    15
100
AcDbCircle
 10
429.3307083825
 20
100.8232425906
 30
0.0
 40
2.500000000000017
100
AcDbArc
 50
36.8698976458
 51
143.1301023542
  0
ARC
  5
2CF
330
1F
100
AcDbEntity
  8
0
  6
Continuous
 62
     7
370
    15
100
AcDbCircle
 10
429.3307083825
 20
100.8232425906
 30
0.0
 40
12.425
100
AcDbArc
 50
80.7370411634
 51
99.2629588366
  0
ARC
  5
2D0
330
1F
100
AcDbEntity
  8
0
  6
Continuous
 62
     7
370
    15
100
AcDbCircle
 10
429.3307083825
 20
100.8232425906
 30
0.0
 40
12.425
100
AcDbArc
 50
260.7370411634
 51
279.2629588366
  0
ARC
  5
2D1
330
1F
100
AcDbEntity
  8
0
  6
Continuous
 62
     7
370
    15
100
AcDbCircle
 10
429.3307083825
 20
100.8232425906
 30
0.0
 40
2.500000000000008
100
AcDbArc
 50
216.8698976458
 51
323.1301023542
  0
LINE
  5
2D2
330
1F
100
AcDbEntity
  8
0
  6
Continuous
 62
     7
370
    15
100
AcDbLine
 10
423.3835795129
 20
70.6732425847
 30
0.0
 11
435.2778372521
 21
70.6732425847
 31
0.0
  0
LINE
  5
2D3
330
1F
100
AcDbEntity
  8
0
  6
Continuous
 62
     7
370
    15
100
AcDbLine
 10
423.3835795129
 20
70.6732425847
 30
0.0
 11
421.0072848181
 21
86.7504630246
 31
0.0
  0
ARC
  5
2D4
330
1F
100
AcDbEntity
  8
0
  6
Continuous
 62
     7
370
    15
100
AcDbCircle
 10
429.3307083825
 20
100.8232425906
 30
0.0
 40
16.35000000000001
100
AcDbArc
 50
300.6024274364
 51
239.3975725636
  0
LINE
  5
2D5
330
1F
100
AcDbEntity
  8
0
  6
Continuous
 62
     7
370
    15
100
AcDbLine
 10
435.2778372521
 20
70.6732425847
 30
0.0
 11
437.654131947
 21
86.7504630246
 31
0.0
  0
LINE
  5
2D6
330
1F
100
AcDbEntity
  8
0
  6
Continuous
 62
     7
370
    15
100
AcDbLine
 10
437.3307087625
 20
92.9732428871
 30
0.0
 11
438.9295363034
 21
92.9732428871
 31
0.0
  0
ARC
  5
2D7
330
1F
100
AcDbEntity
  8
0
  6
Continuous
 62
     7
370
    15
100
AcDbCircle
 10
429.3307083825
 20
100.8232425906
 30
0.0
 40
12.4000000000001
100
AcDbArc
 50
320.7234193842
 51
39.2765806158
  0
LINE
  5
2D8
330
1F
100
AcDbEntity
  8
0
  6
Continuous
 62
     7
370
    15
100
AcDbLine
 10
438.9295363034
 20
108.6732422941
 30
0.0
 11
437.3307087625
 21
108.6732422941
 31
0.0
  0
LINE
  5
2D9
330
1F
100
AcDbEntity
  8
0
  6
Continuous
 62
     7
370
    15
100
AcDbLine
 10
421.3307080025
 20
108.6732422941
 30
0.0
 11
419.7318804617
 21
108.6732422941
 31
0.0
  0
ARC
  5
2DA
330
1F
100
AcDbEntity
  8
0
  6
Continuous
 62
     7
370
    15
100
AcDbCircle
 10
429.3307083825
 20
100.8232425906
 30
0.0
 40
12.39999999999993
100
AcDbArc
 50
140.7234193842
 51
219.2765806158
  0
LINE
  5
2DB
330
1F
100
AcDbEntity
  8
0
  6
Continuous
 62
     7
370
    15
100
AcDbLine
 10
419.7318804617
 20
92.9732428871
 30
0.0
 11
421.3307080025
 21
92.9732428871
 31
0.0
  0
SPLINE
  5
2DC
330
1F
100
AcDbEntity
  8
0
  6
Continuous
 62
     7
370
    15
100
AcDbSpline
210
0.0
220
0.0
230
1.0
 70
    24
 71
     1
 72
     4
 73
     2
 74
     0
 42
0.00000001
 43
0.00000001
 40
0.0
 40
0.0
 40
1.0
 40
1.0
 10
437.6541319469598
 20
86.75046302456272
 30
0.0
 10
440.3307083229212
 20
85.02569459456814
 30
0.0
  0
SPLINE
  5
2DD
330
1F
100
AcDbEntity
  8
0
  6
Continuous
 62
     7
370
    15
100
AcDbSpline
210
0.0
220
0.0
230
1.0
 70
    24
 71
     1
 72
     4
 73
     2
 74
     0
 42
0.00000001
 43
0.00000001
 40
0.0
 40
0.0
 40
1.0
 40
1.0
 10
418.3307084421305
 20
85.02569459456814
 30
0.0
 10
421.0072848180917
 20
86.75046302456272
 30
0.0
  0
ARC
  5
2DE
330
1F
100
AcDbEntity
  8
0
  6
Continuous
 62
     7
370
    15
100
AcDbCircle
 10
429.3307083825
 20
100.8232425906
 30
0.0
 40
19.25000000000004
100
AcDbArc
 50
304.849904579
 51
235.150095421
  0
LINE
  5
2DF
330
1F
100
AcDbEntity
  8
0
  6
Continuous
 62
     7
370
    15
100
AcDbLine
 10
435.2778372521
 20
70.6732425847
 30
0.0
 11
437.4661742876
 21
68.1376833476
 31
0.0
  0
LINE
  5
2E0
330
1F
100
AcDbEntity
  8
0
  6
Continuous
 62
     7
370
    15
100
AcDbLine
 10
437.96999838
 20
69.0539184966
 30
0.0
 11
440.3307083229
 21
85.0256945946
 31
0.0
  0
ARC
  5
2E1
330
1F
100
AcDbEntity
  8
0
  6
Continuous
 62
     7
370
    15
100
AcDbCircle
 10
436.4861197572
 20
69.2732425906
 30
0.0
 40
1.500000000000061
100
AcDbArc
 50
310.7961333222
 51
351.5922666445
  0
LINE
  5
2E2
330
1F
100
AcDbEntity
  8
0
  6
Continuous
 62
     7
370
    15
100
AcDbLine
 10
418.3307084421
 20
85.0256945946
 30
0.0
 11
420.691418385
 21
69.0539184966
 31
0.0
  0
LINE
  5
2E3
330
1F
100
AcDbEntity
  8
0
  6
Continuous
 62
     7
370
    15
100
AcDbLine
 10
421.1952424775
 20
68.1376833476
 30
0.0
 11
423.3835795129
 21
70.6732425847
 31
0.0
  0
ARC
  5
2E4
330
1F
100
AcDbEntity
  8
0
  6
Continuous
 62
     7
370
    15
100
AcDbCircle
 10
422.1752970079
 20
69.2732425906
 30
0.0
 40
1.499999999999944
100
AcDbArc
 50
188.4077333555
 51
229.2038666778
  0
ARC
  5
2E5
330
1F
100
AcDbEntity
  8
0
  6
Continuous
 62
     7
370
    15
100
AcDbCircle
 10
436.4861197572
 20
69.2732425906
 30
0.0
 40
1.500000000000061
100
AcDbArc
 50
270.0
 51
310.7961333222
  0
LINE
  5
2E6
330
1F
100
AcDbEntity
  8
0
  6
Continuous
 62
     7
370
    15
100
AcDbLine
 10
422.1752969714
 20
67.773241923
 30
0.0
 11
436.4861197936
 21
67.773241923
 31
0.0
  0
ARC
  5
2E7
330
1F
100
AcDbEntity
  8
0
  6
Continuous
 62
     7
370
    15
100
AcDbCircle
 10
422.1752970079
 20
69.2732425906
 30
0.0
 40
1.5
100
AcDbArc
 50
229.2038666778
 51
270.0
  0
CIRCLE
  5
2E8
330
1F
100
AcDbEntity
  8
0
  6
Continuous
 62
     7
370
    15
100
AcDbCircle
 10
389.3307083825
 20
115.8232425906
 30
0.0
 40
2.0
  0
CIRCLE
  5
2E9
330
1F
100
AcDbEntity
  8
0
  6
Continuous
 62
     7
370
    15
100
AcDbCircle
 10
469.3307083825
 20
115.8232425906
 30
0.0
 40
2.0
  0
LINE
  5
2EA
330
1F
100
AcDbEntity
  8
0
  6
Continuous
 62
     7
370
    15
100
AcDbLine
 10
373.8307076673
 20
126.5286732473
 30
0.0
 11
541.8307054023
 21
126.5286732473
 31
0.0
  0
LINE
  5
2EB
330
1F
100
AcDbEntity
  8
0
  6
Continuous
 62
     7
370
    15
100
AcDbLine
 10
541.8307054023
 20
126.5286732473
 30
0.0
 11
541.8307054023
 21
75.1178119339
 31
0.0
  0
LINE
  5
2EC
330
1F
100
AcDbEntity
  8
0
  6
Continuous
 62
     7
370
    15
100
AcDbLine
 10
373.8307076673
 20
126.5286732473
 30
0.0
 11
373.8307076673
 21
75.1178119339
 31
0.0
  0
CIRCLE
  5
2ED
330
1F
100
AcDbEntity
  8
0
  6
Continuous
 62
     7
370
    15
100
AcDbCircle
 10
469.3307083825
 20
85.8232425906
 30
0.0
 40
2.0
  0
CIRCLE
  5
2EE
330
1F
100
AcDbEntity
  8
0
  6
Continuous
 62
     7
370
    15
100
AcDbCircle
 10
389.3307083825
 20
85.8232425906
 30
0.0
 40
2.0
  0
LINE
  5
2EF
330
1F
100
AcDbEntity
  8
0
  6
Continuous
 62
     7
370
    15
100
AcDbLine
 10
373.8307076673
 20
129.1719604291
 30
0.0
 11
373.8307076673
 21
126.5286732473
 31
0.0
  0
LINE
  5
2F0
330
1F
100
AcDbEntity
  8
0
  6
Continuous
 62
     7
370
    15
100
AcDbLine
 10
541.8307054023
 20
129.1719604291
 30
0.0
 11
373.8307076673
 21
129.1719604291
 31
0.0
  0
LINE
  5
2F1
330
1F
100
AcDbEntity
  8
0
  6
Continuous
 62
     7
370
    15
100
AcDbLine
 10
541.8307054023
 20
129.1719604291
 30
0.0
 11
541.8307054023
 21
126.5286732473
 31
0.0
  0
LINE
  5
2F2
330
1F
100
AcDbEntity
  8
0
  6
Continuous
 62
     7
370
    15
100
AcDbLine
 10
373.8307076673
 20
75.1178119339
 30
0.0
 11
373.8307076673
 21
72.4745247521
 31
0.0
  0
LINE
  5
2F3
330
1F
100
AcDbEntity
  8
0
  6
Continuous
 62
     7
370
    15
100
AcDbLine
 10
541.8307054023
 20
75.1178119339
 30
0.0
 11
541.8307054023
 21
72.4745247521
 31
0.0
  0
LINE
  5
2F4
330
1F
100
AcDbEntity
  8
0
  6
Continuous
 62
     7
370
    15
100
AcDbLine
 10
541.8307054023
 20
128.9220493295
 30
0.0
 11
548.830704687
 21
128.9220493295
 31
0.0
  0
LINE
  5
2F5
330
1F
100
AcDbEntity
  8
0
  6
Continuous
 62
     7
370
    15
100
AcDbLine
 10
548.830704687
 20
126.2789651759
 30
0.0
 11
548.830704687
 21
128.9220493295
 31
0.0
  0
LINE
  5
2F6
330
1F
100
AcDbEntity
  8
0
  6
Continuous
 62
     7
370
    15
100
AcDbLine
 10
541.8307054023
 20
126.2789651759
 30
0.0
 11
548.830704687
 21
126.2789651759
 31
0.0
  0
SPLINE
  5
2F7
330
1F
100
AcDbEntity
  8
0
  6
Continuous
 62
     7
370
    15
100
AcDbSpline
210
0.0
220
0.0
230
1.0
 70
    24
 71
     3
 72
    11
 73
     7
 74
     0
 42
0.00000001
 43
0.00000001
 40
0.0
 40
0.0
 40
0.0
 40
0.0
 40
0.2497133258628272
 40
0.4985094893069981
 40
0.7505181069468061
 40
1.0
 40
1.0
 40
1.0
 40
1.0
 10
550.8307087401536
 20
126.2789651759328
 30
0.0
 10
550.8307087401536
 20
126.3688304005262
 30
0.0
 10
550.8307087401537
 20
126.5482307872043
 30
0.0
 10
550.8307087401536
 20
126.7971880045152
 30
0.0
 10
550.8307087401537
 20
127.0144019875532
 30
0.0
 10
550.8307087401537
 20
127.1116256849188
 30
0.0
 10
550.8307087401536
 20
127.1599926062288
 30
0.0
  0
LINE
  5
2F8
330
1F
100
AcDbEntity
  8
0
  6
Continuous
 62
     7
370
    15
100
AcDbLine
 10
548.830704687
 20
126.2789651759
 30
0.0
 11
550.8307087402
 21
126.2789651759
 31
0.0
  0
ARC
  5
2F9
330
1F
100
AcDbEntity
  8
0
  6
Continuous
 62
     7
370
    15
100
AcDbCircle
 10
548.9426045936
 20
127.0329899458
 30
0.0
 40
1.89237072059549
100
AcDbArc
 50
3.8481836713
 51
93.3899988769
  0
LINE
  5
2FA
330
1F
100
AcDbEntity
  8
0
  6
Continuous
 62
     7
370
    15
100
AcDbLine
 10
548.830704687
 20
75.3675200053
 30
0.0
 11
548.830704687
 21
126.2789651759
 31
0.0
  0
LINE
  5
2FB
330
1F
100
AcDbEntity
  8
0
  6
Continuous
 62
     7
370
    15
100
AcDbLine
 10
541.8307054023
 20
75.3675200053
 30
0.0
 11
548.830704687
 21
75.3675200053
 31
0.0
  0
LINE
  5
2FC
330
1F
100
AcDbEntity
  8
0
  6
Continuous
 62
     7
370
    15
100
AcDbLine
 10
550.8307087402
 20
75.3675200053
 30
0.0
 11
550.8307087402
 21
126.2789651759
 31
0.0
  0
LINE
  5
2FD
330
1F
100
AcDbEntity
  8
0
  6
Continuous
 62
     7
370
    15
100
AcDbLine
 10
548.830704687
 20
75.3675200053
 30
0.0
 11
550.8307087402
 21
75.3675200053
 31
0.0
  0
SPLINE
  5
2FE
330
1F
100
AcDbEntity
  8
0
  6
Continuous
 62
     7
370
    15
100
AcDbSpline
210
0.0
220
0.0
230
1.0
 70
    24
 71
     3
 72
    11
 73
     7
 74
     0
 42
0.00000001
 43
0.00000001
 40
0.0
 40
0.0
 40
0.0
 40
0.0
 40
0.2497199782268975
 40
0.4985178538409589
 40
0.7505236231111364
 40
1.0
 40
1.0
 40
1.0
 40
1.0
 10
550.8307087401537
 20
74.4864925749959
 30
0.0
 10
550.8307087401537
 20
74.5349740849199
 30
0.0
 10
550.8307087401537
 20
74.63175808454173
 30
0.0
 10
550.8307087401537
 20
74.84849981677421
 30
0.0
 10
550.8307087401536
 20
75.09723864122063
 30
0.0
 10
550.8307087401536
 20
75.27772967283063
 30
0.0
 10
550.8307087401536
 20
75.36752000529185
 30
0.0
  0
ARC
  5
2FF
330
1F
100
AcDbEntity
  8
0
  6
Continuous
 62
     7
370
    15
100
AcDbCircle
 10
548.9426045936
 20
74.6134952354
 30
0.0
 40
1.892370720595504
100
AcDbArc
 50
266.6100011231
 51
356.1518163287
  0
LINE
  5
300
330
1F
100
AcDbEntity
  8
0
  6
Continuous
 62
     7
370
    15
100
AcDbLine
 10
548.830704687
 20
72.7244358518
 30
0.0
 11
548.830704687
 21
75.3675200053
 31
0.0
  0
LINE
  5
301
330
1F
100
AcDbEntity
  8
0
  6
Continuous
 62
     7
370
    15
100
AcDbLine
 10
541.8307054023
 20
72.7244358518
 30
0.0
 11
548.830704687
 21
72.7244358518
 31
0.0
  0
LINE
  5
302
330
1F
100
AcDbEntity
  8
0
  6
Continuous
 62
     7
370
    15
100
AcDbLine
 10
366.8307083825
 20
126.2789651759
 30
0.0
 11
373.8307076673
 21
126.2789651759
 31
0.0
  0
LINE
  5
303
330
1F
100
AcDbEntity
  8
0
  6
Continuous
 62
     7
370
    15
100
AcDbLine
 10
366.8307083825
 20
128.9220493295
 30
0.0
 11
366.8307083825
 21
126.2789651759
 31
0.0
  0
LINE
  5
304
330
1F
100
AcDbEntity
  8
0
  6
Continuous
 62
     7
370
    15
100
AcDbLine
 10
373.8307076673
 20
128.9220493295
 30
0.0
 11
366.8307083825
 21
128.9220493295
 31
0.0
  0
LINE
  5
305
330
1F
100
AcDbEntity
  8
0
  6
Continuous
 62
     7
370
    15
100
AcDbLine
 10
366.8307083825
 20
75.3675200053
 30
0.0
 11
373.8307076673
 21
75.3675200053
 31
0.0
  0
LINE
  5
306
330
1F
100
AcDbEntity
  8
0
  6
Continuous
 62
     7
370
    15
100
AcDbLine
 10
366.8307083825
 20
126.2789651759
 30
0.0
 11
366.8307083825
 21
75.3675200053
 31
0.0
  0
SPLINE
  5
307
330
1F
100
AcDbEntity
  8
0
  6
Continuous
 62
     7
370
    15
100
AcDbSpline
210
0.0
220
0.0
230
1.0
 70
    24
 71
     3
 72
    11
 73
     7
 74
     0
 42
0.00000001
 43
0.00000001
 40
0.0
 40
0.0
 40
0.0
 40
0.0
 40
0.2497199782268975
 40
0.4985178538409589
 40
0.7505236231111364
 40
1.0
 40
1.0
 40
1.0
 40
1.0
 10
364.8307117799906
 20
127.1599926062288
 30
0.0
 10
364.8307117799906
 20
127.1115110963048
 30
0.0
 10
364.8307117799906
 20
127.0147270966829
 30
0.0
 10
364.8307117799906
 20
126.7979853644505
 30
0.0
 10
364.8307117799906
 20
126.549246540004
 30
0.0
 10
364.8307117799906
 20
126.368755508394
 30
0.0
 10
364.8307117799906
 20
126.2789651759328
 30
0.0
  0
ARC
  5
308
330
1F
100
AcDbEntity
  8
0
  6
Continuous
 62
     7
370
    15
100
AcDbCircle
 10
366.7188084335
 20
127.0329979776
 30
0.0
 40
1.892362705387926
100
AcDbArc
 50
86.6099854588
 51
176.1520437355
  0
LINE
  5
309
330
1F
100
AcDbEntity
  8
0
  6
Continuous
 62
     7
370
    15
100
AcDbLine
 10
364.83071178
 20
126.2789651759
 30
0.0
 11
366.8307083825
 21
126.2789651759
 31
0.0
  0
LINE
  5
30A
330
1F
100
AcDbEntity
  8
0
  6
Continuous
 62
     7
370
    15
100
AcDbLine
 10
364.83071178
 20
126.2789651759
 30
0.0
 11
364.83071178
 21
75.3675200053
 31
0.0
  0
LINE
  5
30B
330
1F
100
AcDbEntity
  8
0
  6
Continuous
 62
     7
370
    15
100
AcDbLine
 10
364.83071178
 20
75.3675200053
 30
0.0
 11
366.8307083825
 21
75.3675200053
 31
0.0
  0
LINE
  5
30C
330
1F
100
AcDbEntity
  8
0
  6
Continuous
 62
     7
370
    15
100
AcDbLine
 10
366.8307083825
 20
72.7244358518
 30
0.0
 11
373.8307076673
 21
72.7244358518
 31
0.0
  0
LINE
  5
30D
330
1F
100
AcDbEntity
  8
0
  6
Continuous
 62
     7
370
    15
100
AcDbLine
 10
366.8307083825
 20
75.3675200053
 30
0.0
 11
366.8307083825
 21
72.7244358518
 31
0.0
  0
SPLINE
  5
30E
330
1F
100
AcDbEntity
  8
0
  6
Continuous
 62
     7
370
    15
100
AcDbSpline
210
0.0
220
0.0
230
1.0
 70
    24
 71
     3
 72
    11
 73
     7
 74
     0
 42
0.00000001
 43
0.00000001
 40
0.0
 40
0.0
 40
0.0
 40
0.0
 40
0.2497133258628272
 40
0.4985094893069981
 40
0.7505181069468061
 40
1.0
 40
1.0
 40
1.0
 40
1.0
 10
364.8307117799906
 20
75.36752000529185
 30
0.0
 10
364.8307117799906
 20
75.27765478069851
 30
0.0
 10
364.8307117799906
 20
75.09825439402034
 30
0.0
 10
364.8307117799906
 20
74.8492971767095
 30
0.0
 10
364.8307117799906
 20
74.63208319367146
 30
0.0
 10
364.8307117799906
 20
74.5348594963059
 30
0.0
 10
364.8307117799906
 20
74.4864925749959
 30
0.0
  0
ARC
  5
30F
330
1F
100
AcDbEntity
  8
0
  6
Continuous
 62
     7
370
    15
100
AcDbCircle
 10
366.7188084335
 20
74.6134872037
 30
0.0
 40
1.892362705387913
100
AcDbArc
 50
183.8479562645
 51
273.3900145412
  0
LINE
  5
310
330
1F
100
AcDbEntity
  8
0
  6
Continuous
 62
     7
370
    15
100
AcDbLine
 10
541.8307054023
 20
141.8566856541
 30
0.0
 11
373.8307076673
 21
141.8566856541
 31
0.0
  0
LINE
  5
311
330
1F
100
AcDbEntity
  8
0
  6
Continuous
 62
     7
370
    15
100
AcDbLine
 10
373.8307076673
 20
141.8566856541
 30
0.0
 11
373.8307076673
 21
129.1719604291
 31
0.0
  0
LINE
  5
312
330
1F
100
AcDbEntity
  8
0
  6
Continuous
 62
     7
370
    15
100
AcDbLine
 10
541.8307054023
 20
141.8566856541
 30
0.0
 11
541.8307054023
 21
129.1719604291
 31
0.0
  0
LINE
  5
313
330
1F
100
AcDbEntity
  8
0
  6
Continuous
 62
     7
370
    15
100
AcDbLine
 10
541.8307054023
 20
59.7897995271
 30
0.0
 11
373.8307076673
 21
59.7897995271
 31
0.0
  0
LINE
  5
314
330
1F
100
AcDbEntity
  8
0
  6
Continuous
 62
     7
370
    15
100
AcDbLine
 10
373.8307076673
 20
72.4745247521
 30
0.0
 11
373.8307076673
 21
59.7897995271
 31
0.0
  0
LINE
  5
315
330
1F
100
AcDbEntity
  8
0
  6
Continuous
 62
     7
370
    15
100
AcDbLine
 10
541.8307054023
 20
72.4745247521
 30
0.0
 11
541.8307054023
 21
59.7897995271
 31
0.0
  0
LINE
  5
316
330
1F
100
AcDbEntity
  8
0
  6
Continuous
 62
     7
370
    15
100
AcDbLine
 10
541.8307054023
 20
141.411636398
 30
0.0
 11
548.830704687
 21
141.411636398
 31
0.0
  0
LINE
  5
317
330
1F
100
AcDbEntity
  8
0
  6
Continuous
 62
     7
370
    15
100
AcDbLine
 10
548.830704687
 20
128.9220493295
 30
0.0
 11
548.830704687
 21
141.411636398
 31
0.0
  0
LINE
  5
318
330
1F
100
AcDbEntity
  8
0
  6
Continuous
 62
     7
370
    15
100
AcDbLine
 10
550.8307087402
 20
127.1599926062
 30
0.0
 11
550.8307087402
 21
139.6495778121
 31
0.0
  0
ARC
  5
319
330
1F
100
AcDbEntity
  8
0
  6
Continuous
 62
     7
370
    15
100
AcDbCircle
 10
548.9426018731
 20
139.5225740608
 30
0.0
 40
1.892373508116777
100
AcDbArc
 50
3.8482110986
 51
93.3899113658
  0
LINE
  5
31A
330
1F
100
AcDbEntity
  8
0
  6
Continuous
 62
     7
370
    15
100
AcDbLine
 10
548.830704687
 20
72.7244358518
 30
0.0
 11
548.830704687
 21
60.2348487832
 31
0.0
  0
LINE
  5
31B
330
1F
100
AcDbEntity
  8
0
  6
Continuous
 62
     7
370
    15
100
AcDbLine
 10
548.830704687
 20
60.2348487832
 30
0.0
 11
541.8307054023
 21
60.2348487832
 31
0.0
  0
LINE
  5
31C
330
1F
100
AcDbEntity
  8
0
  6
Continuous
 62
     7
370
    15
100
AcDbLine
 10
550.8307087402
 20
61.9969073691
 30
0.0
 11
550.8307087402
 21
74.486492575
 31
0.0
  0
ARC
  5
31D
330
1F
100
AcDbEntity
  8
0
  6
Continuous
 62
     7
370
    15
100
AcDbCircle
 10
548.9426018731
 20
62.1239111204
 30
0.0
 40
1.892373508116777
100
AcDbArc
 50
266.6100886342
 51
356.1517889014
  0
LINE
  5
31E
330
1F
100
AcDbEntity
  8
0
  6
Continuous
 62
     7
370
    15
100
AcDbLine
 10
366.8307083825
 20
128.9220493295
 30
0.0
 11
366.8307083825
 21
141.411636398
 31
0.0
  0
LINE
  5
31F
330
1F
100
AcDbEntity
  8
0
  6
Continuous
 62
     7
370
    15
100
AcDbLine
 10
366.8307083825
 20
141.411636398
 30
0.0
 11
373.8307076673
 21
141.411636398
 31
0.0
  0
LINE
  5
320
330
1F
100
AcDbEntity
  8
0
  6
Continuous
 62
     7
370
    15
100
AcDbLine
 10
364.83071178
 20
139.6495778121
 30
0.0
 11
364.83071178
 21
127.1599926062
 31
0.0
  0
ARC
  5
321
330
1F
100
AcDbEntity
  8
0
  6
Continuous
 62
     7
370
    15
100
AcDbCircle
 10
366.7188111539
 20
139.5225820926
 30
0.0
 40
1.892365492885201
100
AcDbArc
 50
86.6100729697
 51
176.1520163085
  0
LINE
  5
322
330
1F
100
AcDbEntity
  8
0
  6
Continuous
 62
     7
370
    15
100
AcDbLine
 10
366.8307083825
 20
60.2348487832
 30
0.0
 11
373.8307076673
 21
60.2348487832
 31
0.0
  0
LINE
  5
323
330
1F
100
AcDbEntity
  8
0
  6
Continuous
 62
     7
370
    15
100
AcDbLine
 10
366.8307083825
 20
72.7244358518
 30
0.0
 11
366.8307083825
 21
60.2348487832
 31
0.0
  0
LINE
  5
324
330
1F
100
AcDbEntity
  8
0
  6
Continuous
 62
     7
370
    15
100
AcDbLine
 10
364.83071178
 20
74.486492575
 30
0.0
 11
364.83071178
 21
61.9969073691
 31
0.0
  0
ARC
  5
325
330
1F
100
AcDbEntity
  8
0
  6
Continuous
 62
     7
370
    15
100
AcDbCircle
 10
366.7188111539
 20
62.1239030886
 30
0.0
 40
1.892365492885208
100
AcDbArc
 50
183.8479836915
 51
273.3899270303
  0
LINE
  5
326
330
1F
100
AcDbEntity
  8
0
  6
Continuous
 62
     7
370
    15
100
AcDbLine
 10
373.8307076673
 20
149.8232413091
 30
0.0
 11
373.8307076673
 21
141.8566856541
 31
0.0
  0
LINE
  5
327
330
1F
100
AcDbEntity
  8
0
  6
Continuous
 62
     7
370
    15
100
AcDbLine
 10
541.8307054023
 20
149.8232413091
 30
0.0
 11
541.8307054023
 21
141.8566856541
 31
0.0
  0
LINE
  5
328
330
1F
100
AcDbEntity
  8
0
  6
Continuous
 62
     7
370
    15
100
AcDbLine
 10
373.8307076673
 20
53.7241701045
 30
0.0
 11
541.8307054023
 21
53.7241701045
 31
0.0
  0
LINE
  5
329
330
1F
100
AcDbEntity
  8
0
  6
Continuous
 62
     7
370
    15
100
AcDbLine
 10
373.8307076673
 20
59.7897995271
 30
0.0
 11
373.8307076673
 21
53.7241701045
 31
0.0
  0
LINE
  5
32A
330
1F
100
AcDbEntity
  8
0
  6
Continuous
 62
     7
370
    15
100
AcDbLine
 10
541.8307054023
 20
59.7897995271
 30
0.0
 11
541.8307054023
 21
53.7241701045
 31
0.0
  0
SPLINE
  5
32B
330
1F
100
AcDbEntity
  8
0
  6
Continuous
 62
     7
370
    15
100
AcDbSpline
210
0.0
220
0.0
230
1.0
 70
    24
 71
     3
 72
    11
 73
     7
 74
     0
 42
0.00000001
 43
0.00000001
 40
0.0
 40
0.0
 40
0.0
 40
0.0
 40
0.2490490463418547
 40
0.5000002716651235
 40
0.7509511890315117
 40
1.0
 40
1.0
 40
1.0
 40
1.0
 10
550.8307087401538
 20
54.32324148792659
 30
0.0
 10
550.8307087401538
 20
54.41603839356615
 30
0.0
 10
550.8307087401538
 20
54.60234096613565
 30
0.0
 10
550.8307087401538
 20
56.13347908146226
 30
0.0
 10
550.8307087401538
 20
58.48806628916899
 30
0.0
 10
550.8307087401537
 20
60.83026374990914
 30
0.0
 10
550.8307087401537
 20
61.99690736908341
 30
0.0
  0
SPLINE
  5
32C
330
1F
100
AcDbEntity
  8
0
  6
Continuous
 62
     7
370
    15
100
AcDbSpline
210
0.0
220
0.0
230
1.0
 70
    24
 71
     3
 72
    11
 73
     7
 74
     0
 42
0.00000001
 43
0.00000001
 40
0.0
 40
0.0
 40
0.0
 40
0.0
 40
0.2490490463418547
 40
0.5000002716651235
 40
0.7509511890315117
 40
1.0
 40
1.0
 40
1.0
 40
1.0
 10
364.8307117799907
 20
147.3232436932985
 30
0.0
 10
364.8307117799907
 20
147.2304467876589
 30
0.0
 10
364.8307117799907
 20
147.0441442150893
 30
0.0
 10
364.8307117799907
 20
145.5130060997627
 30
0.0
 10
364.8307117799907
 20
143.1584188920559
 30
0.0
 10
364.8307117799907
 20
140.8162214313157
 30
0.0
 10
364.8307117799906
 20
139.6495778121414
 30
0.0
  0
SPLINE
  5
32D
330
1F
100
AcDbEntity
  8
0
  6
Continuous
 62
     7
370
    15
100
AcDbSpline
210
0.0
220
0.0
230
1.0
 70
    24
 71
     3
 72
    12
 73
     8
 74
     0
 42
0.00000001
 43
0.00000001
 40
0.0
 40
0.0
 40
0.0
 40
0.0
 40
0.2933472746037595
 40
0.5898204677342016
 40
0.7875196789040791
 40
0.9842965738312603
 40
1.0
 40
1.0
 40
1.0
 40
1.0
 10
550.8307087401537
 20
139.6495778121414
 30
0.0
 10
550.8307087401537
 20
141.0041029267694
 30
0.0
 10
550.8307087401537
 20
143.7275870216762
 30
0.0
 10
550.8307087401538
 20
145.9584734632987
 30
0.0
 10
550.8307087401537
 20
147.0325784686534
 30
0.0
 10
550.830708740154
 20
147.4067754532876
 30
0.0
 10
550.8307087401538
 20
147.3085638208727
 30
0.0
 10
550.8307087401538
 20
147.3013054587308
 30
0.0
  0
SPLINE
  5
32E
330
1F
100
AcDbEntity
  8
0
  6
Continuous
 62
     7
370
    15
100
AcDbSpline
210
0.0
220
0.0
230
1.0
 70
    24
 71
     3
 72
    12
 73
     8
 74
     0
 42
0.00000001
 43
0.00000001
 40
0.0
 40
0.0
 40
0.0
 40
0.0
 40
0.2933472746037595
 40
0.5898204677342016
 40
0.7875196789040791
 40
0.9842965738312603
 40
1.0
 40
1.0
 40
1.0
 40
1.0
 10
364.8307117799906
 20
61.99690736908341
 30
0.0
 10
364.8307117799907
 20
60.64238225445543
 30
0.0
 10
364.8307117799907
 20
57.91889815954864
 30
0.0
 10
364.8307117799907
 20
55.68801171792626
 30
0.0
 10
364.8307117799908
 20
54.61390671257159
 30
0.0
 10
364.8307117799905
 20
54.2397097279374
 30
0.0
 10
364.8307117799908
 20
54.33792136035235
 30
0.0
 10
364.8307117799907
 20
54.34517972249424
 30
0.0
  0
LINE
  5
32F
330
1F
100
AcDbEntity
  8
0
  6
Continuous
 62
     7
370
    15
100
AcDbLine
 10
541.8307054023
 20
49.3018109359
 30
0.0
 11
373.8307076673
 21
49.3018109359
 31
0.0
  0
LINE
  5
330
330
1F
100
AcDbEntity
  8
0
  6
Continuous
 62
     7
370
    15
100
AcDbLine
 10
373.8307076673
 20
53.7241701045
 30
0.0
 11
373.8307076673
 21
49.3018109359
 31
0.0
  0
LINE
  5
331
330
1F
100
AcDbEntity
  8
0
  6
Continuous
 62
     7
370
    15
100
AcDbLine
 10
541.8307054023
 20
53.7241701045
 30
0.0
 11
541.8307054023
 21
49.3018109359
 31
0.0
  0
LINE
  5
332
330
1F
100
AcDbEntity
  8
0
  6
Continuous
 62
     7
370
    15
100
AcDbLine
 10
558.8307100515
 20
93.3232427583
 30
0.0
 11
558.8307100515
 21
108.323242423
 31
0.0
  0
SPLINE
  5
333
330
1F
100
AcDbEntity
  8
0
  6
Continuous
 62
     7
370
    15
100
AcDbSpline
210
0.0
220
0.0
230
1.0
 70
     8
 71
     3
 72
    11
 73
     7
 74
     0
 42
0.00000001
 43
0.00000001
 40
0.0
 40
0.0
 40
0.0
 40
0.0
 40
0.2645349964102596
 40
0.5347680234265548
 40
0.7652627845432572
 40
1.0
 40
1.0
 40
1.0
 40
1.0
 10
557.8307080248981
 20
96.20444048274189
 30
0.0
 10
558.0363908169962
 20
95.80362488457614
 30
0.0
 10
558.4521867671571
 20
94.99336020089241
 30
0.0
 10
558.6044783842248
 20
93.79285023119509
 30
0.0
 10
558.3813796185607
 20
92.64494221847953
 30
0.0
 10
558.0153777475076
 20
91.94087977321061
 30
0.0
 10
557.8307080248981
 20
91.58563837487134
 30
0.0
  0
SPLINE
  5
334
330
1F
100
AcDbEntity
  8
0
  6
Continuous
 62
     7
370
    15
100
AcDbSpline
210
0.0
220
0.0
230
1.0
 70
     8
 71
     3
 72
    11
 73
     7
 74
     0
 42
0.00000001
 43
0.00000001
 40
0.0
 40
0.0
 40
0.0
 40
0.0
 40
0.2645362268753856
 40
0.5347696924125747
 40
0.7652643554067822
 40
1.0
 40
1.0
 40
1.0
 40
1.0
 10
557.8307080248981
 20
105.442044698483
 30
0.0
 10
558.0363907964344
 20
104.640414102972
 30
0.0
 10
558.4521860686672
 20
103.0198884303506
 30
0.0
 10
558.6044782687949
 20
100.618864691693
 30
0.0
 10
558.3813810569436
 20
98.32305764047408
 30
0.0
 10
558.0153778488154
 20
96.91492498933425
 30
0.0
 10
557.8307080248981
 20
96.20444048274189
 30
0.0
  0
SPLINE
  5
335
330
1F
100
AcDbEntity
  8
0
  6
Continuous
 62
     7
370
    15
100
AcDbSpline
210
0.0
220
0.0
230
1.0
 70
     8
 71
     3
 72
    11
 73
     7
 74
     0
 42
0.00000001
 43
0.00000001
 40
0.0
 40
0.0
 40
0.0
 40
0.0
 40
0.264537707647083
 40
0.5347707088941207
 40
0.7652654444504967
 40
1.0
 40
1.0
 40
1.0
 40
1.0
 10
557.8307080248981
 20
110.0608468063537
 30
0.0
 10
558.0363907507981
 20
109.6600322110517
 30
0.0
 10
558.4521843936598
 20
108.8497737901589
 30
0.0
 10
558.6044782633004
 20
107.6492547499192
 30
0.0
 10
558.3813821023753
 20
106.5013566452368
 30
0.0
 10
558.0153778981307
 20
105.7972875016616
 30
0.0
 10
557.8307080248981
 20
105.442044698483
 30
0.0
  0
SPLINE
  5
336
330
1F
100
AcDbEntity
  8
0
  6
Continuous
 62
     7
370
    15
100
AcDbSpline
210
0.0
220
0.0
230
1.0
 70
     8
 71
     3
 72
    11
 73
     7
 74
     0
 42
0.00000001
 43
0.00000001
 40
0.0
 40
0.0
 40
0.0
 40
0.0
 40
0.2645351724954949
 40
0.534768097072588
 40
0.7652627823862618
 40
1.0
 40
1.0
 40
1.0
 40
1.0
 10
551.8307107667117
 20
105.442044698483
 30
0.0
 10
551.6250229030156
 20
105.8428601817383
 30
0.0
 10
551.2092169199318
 20
106.6531242053674
 30
0.0
 10
551.0569559048429
 20
107.8536350345041
 30
0.0
 10
551.2800355551096
 20
109.0015431580336
 30
0.0
 10
551.6460398102553
 20
109.7056054339593
 30
0.0
 10
551.8307107667117
 20
110.0608468063537
 30
0.0
  0
SPLINE
  5
337
330
1F
100
AcDbEntity
  8
0
  6
Continuous
 62
     7
370
    15
100
AcDbSpline
210
0.0
220
0.0
230
1.0
 70
     8
 71
     3
 72
    11
 73
     7
 74
     0
 42
0.00000001
 43
0.00000001
 40
0.0
 40
0.0
 40
0.0
 40
0.0
 40
0.2645364029605208
 40
0.5347697660585612
 40
0.7652643532496372
 40
1.0
 40
1.0
 40
1.0
 40
1.0
 10
551.8307107667117
 20
96.20444048274189
 30
0.0
 10
551.6250229235663
 20
97.00607084843168
 30
0.0
 10
551.2092176184025
 20
98.62659520095087
 30
0.0
 10
551.0569560202684
 20
101.0276206584751
 30
0.0
 10
551.2800341167587
 20
103.3234279313299
 30
0.0
 10
551.6460397089605
 20
104.7315602437803
 30
0.0
 10
551.8307107667117
 20
105.442044698483
 30
0.0
  0
SPLINE
  5
338
330
1F
100
AcDbEntity
  8
0
  6
Continuous
 62
     7
370
    15
100
AcDbSpline
210
0.0
220
0.0
230
1.0
 70
     8
 71
     3
 72
    11
 73
     7
 74
     0
 42
0.00000001
 43
0.00000001
 40
0.0
 40
0.0
 40
0.0
 40
0.0
 40
0.2645378837310379
 40
0.53477078253935
 40
0.7652654422931034
 40
1.0
 40
1.0
 40
1.0
 40
1.0
 10
551.8307107667117
 20
91.58563837487134
 30
0.0
 10
551.6250229691808
 20
91.98645285526197
 30
0.0
 10
551.2092192933782
 20
92.7967106161108
 30
0.0
 10
551.0569560257603
 20
93.99723051577664
 30
0.0
 10
551.2800330713455
 20
95.14512873127718
 30
0.0
 10
551.6460396596535
 20
95.84919770550779
 30
0.0
 10
551.8307107667117
 20
96.20444048274189
 30
0.0
  0
LINE
  5
339
330
1F
100
AcDbEntity
  8
0
  6
Continuous
 62
     7
370
    15
100
AcDbLine
 10
551.8307107667
 20
110.0608468064
 30
0.0
 11
557.8307080249
 21
110.0608468064
 31
0.0
  0
LINE
  5
33A
330
1F
100
AcDbEntity
  8
0
  6
Continuous
 62
     7
370
    15
100
AcDbLine
 10
557.8307080249
 20
105.4420446985
 30
0.0
 11
551.8307107667
 21
105.4420446985
 31
0.0
  0
LINE
  5
33B
330
1F
100
AcDbEntity
  8
0
  6
Continuous
 62
     7
370
    15
100
AcDbLine
 10
557.8307080249
 20
96.2044404827
 30
0.0
 11
551.8307107667
 21
96.2044404827
 31
0.0
  0
LINE
  5
33C
330
1F
100
AcDbEntity
  8
0
  6
Continuous
 62
     7
370
    15
100
AcDbLine
 10
557.8307080249
 20
91.5856383749
 30
0.0
 11
551.8307107667
 21
91.5856383749
 31
0.0
  0
LINE
  5
33D
330
1F
100
AcDbEntity
  8
0
  6
Continuous
 62
     7
370
    15
100
AcDbLine
 10
541.8307054023
 20
48.0617735543
 30
0.0
 11
373.8307076673
 21
48.0617735543
 31
0.0
  0
LINE
  5
33E
330
1F
100
AcDbEntity
  8
0
  6
Continuous
 62
     7
370
    15
100
AcDbLine
 10
373.8307076673
 20
49.3018109359
 30
0.0
 11
373.8307076673
 21
48.0617735543
 31
0.0
  0
LINE
  5
33F
330
1F
100
AcDbEntity
  8
0
  6
Continuous
 62
     7
370
    15
100
AcDbLine
 10
541.8307054023
 20
48.0617735543
 30
0.0
 11
541.8307054023
 21
49.3018109359
 31
0.0
  0
LINE
  5
340
330
1F
100
AcDbEntity
  8
0
  6
Continuous
 62
     7
370
    15
100
AcDbLine
 10
373.8307076673
 20
45.3232418754
 30
0.0
 11
541.8307054023
 21
45.3232418754
 31
0.0
  0
LINE
  5
341
330
1F
100
AcDbEntity
  8
0
  6
Continuous
 62
     7
370
    15
100
AcDbLine
 10
373.8307076673
 20
48.0617735543
 30
0.0
 11
373.8307076673
 21
45.3232418754
 31
0.0
  0
LINE
  5
342
330
1F
100
AcDbEntity
  8
0
  6
Continuous
 62
     7
370
    15
100
AcDbLine
 10
541.8307054023
 20
48.0617735543
 30
0.0
 11
541.8307054023
 21
45.3232418754
 31
0.0
  0
LINE
  5
343
330
1F
100
AcDbEntity
  8
0
  6
Continuous
 62
     7
370
    15
100
AcDbLine
 10
560.630710719
 20
95.8232427024
 30
0.0
 11
560.630710719
 21
105.8232424789
 31
0.0
  0
LINE
  5
344
330
1F
100
AcDbEntity
  8
0
  6
Continuous
 62
     7
370
    15
100
AcDbLine
 10
561.1307042817
 20
96.3232427843
 30
0.0
 11
561.1307042817
 21
105.3232423969
 31
0.0
  0
LINE
  5
345
330
1F
100
AcDbEntity
  8
0
  6
Continuous
 62
     7
370
    15
100
AcDbLine
 10
556.6268879155
 20
80.023242534
 30
0.0
 11
556.6268879155
 21
91.5856383749
 31
0.0
  0
LINE
  5
346
330
1F
100
AcDbEntity
  8
0
  6
Continuous
 62
     7
370
    15
100
AcDbLine
 10
556.6268879155
 20
110.0608468064
 30
0.0
 11
556.6268879155
 21
121.6232426472
 31
0.0
  0
LINE
  5
347
330
1F
100
AcDbEntity
  8
0
  6
Continuous
 62
     7
370
    15
100
AcDbLine
 10
541.8307054023
 20
75.1178119339
 30
0.0
 11
438.8662734235
 21
75.1178119339
 31
0.0
  0
LINE
  5
348
330
1F
100
AcDbEntity
  8
0
  6
Continuous
 62
     7
370
    15
100
AcDbLine
 10
419.7951433415
 20
75.1178119339
 30
0.0
 11
373.8307076673
 21
75.1178119339
 31
0.0
  0
LINE
  5
349
330
1F
100
AcDbEntity
  8
0
  6
Continuous
 62
     7
370
    15
100
AcDbLine
 10
373.8307076673
 20
72.4745247521
 30
0.0
 11
420.1858350242
 21
72.4745247521
 31
0.0
  0
LINE
  5
34A
330
1F
100
AcDbEntity
  8
0
  6
Continuous
 62
     7
370
    15
100
AcDbLine
 10
438.4755817408
 20
72.4745247521
 30
0.0
 11
541.8307054023
 21
72.4745247521
 31
0.0
  0
LINE
  5
34B
330
1F
100
AcDbEntity
  8
0
  6
Continuous
 62
     7
370
    15
100
AcDbLine
 10
548.830704687
 20
52.3232411601
 30
0.0
 11
548.830704687
 21
60.2348487832
 31
0.0
  0
LINE
  5
34C
330
1F
100
AcDbEntity
  8
0
  6
Continuous
 62
     7
370
    15
100
AcDbLine
 10
366.8307083825
 20
149.3232440211
 30
0.0
 11
366.8307083825
 21
141.411636398
 31
0.0
  0
LINE
  5
34D
330
1F
100
AcDbEntity
  8
0
  6
Continuous
 62
     7
370
    15
100
AcDbLine
 10
548.830704687
 20
141.411636398
 30
0.0
 11
548.830704687
 21
149.3232440211
 31
0.0
  0
LINE
  5
34E
330
1F
100
AcDbEntity
  8
0
  6
Continuous
 62
     7
370
    15
100
AcDbLine
 10
366.8307083825
 20
60.2348487832
 30
0.0
 11
366.8307083825
 21
52.3232411601
 31
0.0
  0
ENDSEC
  0
SECTION
  2
OBJECTS
  0
DICTIONARY
  5
C
330
0
100
AcDbDictionary
281
     1
  3
ACAD_GROUP
350
D
  3
ACAD_LAYOUT
350
1A
  3
ACAD_MLINESTYLE
350
17
  3
ACAD_PLOTSETTINGS
350
19
  3
ACAD_PLOTSTYLENAME
350
E
  0
DICTIONARY
  5
D
102
{ACAD_REACTORS
330
C
102
}
330
C
100
AcDbDictionary
281
     1
  0
DICTIONARY
  5
1A
102
{ACAD_REACTORS
330
C
102
}
330
C
100
AcDbDictionary
281
     1
  3
Layout1
350
1E
  3
Layout2
350
26
  3
Model
350
22
  0
DICTIONARY
  5
17
102
{ACAD_REACTORS
330
C
102
}
330
C
100
AcDbDictionary
281
     1
  3
Standard
350
18
  0
DICTIONARY
  5
19
102
{ACAD_REACTORS
330
C
102
}
330
C
100
AcDbDictionary
281
     1
  0
ACDBDICTIONARYWDFLT
  5
E
102
{ACAD_REACTORS
330
C
102
}
330
C
100
AcDbDictionary
281
     1
  3
Normal
350
F
100
AcDbDictionaryWithDefault
340
F
  0
LAYOUT
  5
1E
102
{ACAD_REACTORS
330
1A
102
}
330
1A
100
AcDbPlotSettings
  1

  2
none_device
  4

  6

 40
0.0
 41
0.0
 42
0.0
 43
0.0
 44
0.0
 45
0.0
 46
0.0
 47
0.0
 48
0.0
 49
0.0
140
0.0
141
0.0
142
1.0
143
1.0
 70
   688
 72
     0
 73
     0
 74
     5
  7

 75
    16
147
1.0
148
0.0
149
0.0
100
AcDbLayout
  1
Layout1
 70
     1
 71
     1
 10
0.0
 20
0.0
 11
420.0
 21
297.0
 12
0.0
 22
0.0
 32
0.0
 14
1.0000000000E+20
 24
1.0000000000E+20
 34
1.0000000000E+20
 15
-1.0000000000E+20
 25
-1.0000000000E+20
 35
-1.0000000000E+20
146
0.0
 13
0.0
 23
0.0
 33
0.0
 16
1.0
 26
0.0
 36
0.0
 17
0.0
 27
1.0
 37
0.0
 76
     0
330
1B
  0
LAYOUT
  5
26
102
{ACAD_REACTORS
330
1A
102
}
330
1A
100
AcDbPlotSettings
  1

  2
none_device
  4

  6

 40
0.0
 41
0.0
 42
0.0
 43
0.0
 44
0.0
 45
0.0
 46
0.0
 47
0.0
 48
0.0
 49
0.0
140
0.0
141
0.0
142
1.0
143
1.0
 70
   688
 72
     0
 73
     0
 74
     5
  7

 75
    16
147
1.0
148
0.0
149
0.0
100
AcDbLayout
  1
Layout2
 70
     1
 71
     2
 10
0.0
 20
0.0
 11
0.0
 21
0.0
 12
0.0
 22
0.0
 32
0.0
 14
0.0
 24
0.0
 34
0.0
 15
0.0
 25
0.0
 35
0.0
146
0.0
 13
0.0
 23
0.0
 33
0.0
 16
1.0
 26
0.0
 36
0.0
 17
0.0
 27
1.0
 37
0.0
 76
     0
330
23
  0
LAYOUT
  5
22
102
{ACAD_REACTORS
330
1A
102
}
330
1A
100
AcDbPlotSettings
  1

  2
none_device
  4

  6

 40
0.0
 41
0.0
 42
0.0
 43
0.0
 44
0.0
 45
0.0
 46
0.0
 47
0.0
 48
0.0
 49
0.0
140
0.0
141
0.0
142
1.0
143
1.0
 70
  1712
 72
     0
 73
     0
 74
     0
  7

 75
     0
147
1.0
148
0.0
149
0.0
100
AcDbLayout
  1
Model
 70
     1
 71
     0
 10
0.0
 20
0.0
 11
0.0
 21
0.0
 12
0.0
 22
0.0
 32
0.0
 14
0.0
 24
0.0
 34
0.0
 15
841.0
 25
800.0
 35
0.0
146
0.0
 13
0.0
 23
0.0
 33
0.0
 16
1.0
 26
0.0
 36
0.0
 17
0.0
 27
1.0
 37
0.0
 76
     0
330
1F
  0
MLINESTYLE
  5
18
102
{ACAD_REACTORS
330
17
102
}
330
17
100
AcDbMlineStyle
  2
Standard
 70
     0
  3

 62
   256
 51
90.0
 52
90.0
 71
     2
 49
0.5
 62
   256
  6
BYLAYER
 49
-0.5
 62
   256
  6
BYLAYER
  0
ACDBPLACEHOLDER
  5
F
102
{ACAD_REACTORS
330
E
102
}
330
E
  0
ENDSEC
  0
EOF
