  0
SECTION
  2
HEADER
  9
$ACADVER
  1
AC1015
  9
$ACADMAINTVER
 70
     6
  9
$DWGCODEPAGE
  3
ANSI_1252
  9
$INSBASE
 10
0.0
 20
0.0
 30
0.0
  9
$EXTMIN
 10
0.0
 20
0.0
 30
0.0
  9
$EXTMAX
 10
1189.0
 20
841.0
 30
0.0
  9
$LIMMIN
 10
0.0
 20
0.0
  9
$LIMMAX
 10
1189.0
 20
841.0
  9
$ORTHOMODE
 70
     0
  9
$REGENMODE
 70
     1
  9
$FILLMODE
 70
     1
  9
$QTEXTMODE
 70
     0
  9
$MIRRTEXT
 70
     1
  9
$LTSCALE
 40
1.0
  9
$ATTMODE
 70
     1
  9
$TEXTSIZE
 40
3.5
  9
$TRACEWID
 40
1.0
  9
$TEXTSTYLE
  7
Standard
  9
$CLAYER
  8
0
  9
$CELTYPE
  6
ByLayer
  9
$CECOLOR
 62
   256
  9
$CELTSCALE
 40
1.0
  9
$DISPSILH
 70
     0
  9
$DIMSCALE
 40
1.0
  9
$DIMASZ
 40
6.0
  9
$DIMEXO
 40
1.0
  9
$DIMDLI
 40
3.75
  9
$DIMRND
 40
0.0
  9
$DIMDLE
 40
0.0
  9
$DIMEXE
 40
1.0
  9
$DIMTP
 40
0.0
  9
$DIMTM
 40
0.0
  9
$DIMTXT
 40
3.5
  9
$DIMCEN
 40
2.5
  9
$DIMTSZ
 40
0.0
  9
$DIMTOL
 70
     0
  9
$DIMLIM
 70
     0
  9
$DIMTIH
 70
     1
  9
$DIMTOH
 70
     1
  9
$DIMSE1
 70
     0
  9
$DIMSE2
 70
     0
  9
$DIMTAD
 70
     1
  9
$DIMZIN
 70
     0
  9
$DIMBLK
  1

  9
$DIMASO
 70
     1
  9
$DIMSHO
 70
     1
  9
$DIMPOST
  1

  9
$DIMAPOST
  1

  9
$DIMALT
 70
     0
  9
$DIMALTD
 70
     3
  9
$DIMALTF
 40
0.0393700787
  9
$DIMLFAC
 40
1.0
  9
$DIMTOFL
 70
     1
  9
$DIMTVP
 40
0.0
  9
$DIMTIX
 70
     0
  9
$DIMSOXD
 70
     0
  9
$DIMSAH
 70
     0
  9
$DIMBLK1
  1

  9
$DIMBLK2
  1

  9
$DIMSTYLE
  2
ISO-25
  9
$DIMCLRD
 70
     0
  9
$DIMCLRE
 70
     0
  9
$DIMCLRT
 70
     0
  9
$DIMTFAC
 40
1.0
  9
$DIMGAP
 40
1.524
  9
$DIMJUST
 70
     0
  9
$DIMSD1
 70
     0
  9
$DIMSD2
 70
     0
  9
$DIMTOLJ
 70
     0
  9
$DIMTZIN
 70
     0
  9
$DIMALTZ
 70
     0
  9
$DIMALTTZ
 70
     0
  9
$DIMUPT
 70
     0
  9
$DIMDEC
 70
     2
  9
$DIMTDEC
 70
     2
  9
$DIMALTU
 70
     2
  9
$DIMALTTD
 70
     3
  9
$DIMTXSTY
  7
Standard
  9
$DIMAUNIT
 70
     0
  9
$DIMADEC
 70
     2
  9
$DIMALTRND
 40
0.0
  9
$DIMAZIN
 70
     0
  9
$DIMDSEP
 70
    44
  9
$DIMATFIT
 70
     3
  9
$DIMFRAC
 70
     0
  9
$DIMLDRBLK
  1

  9
$DIMLUNIT
 70
     2
  9
$DIMLWD
 70
    -2
  9
$DIMLWE
 70
    -2
  9
$DIMTMOVE
 70
     0
  9
$LUNITS
 70
     2
  9
$LUPREC
 70
     2
  9
$SKETCHINC
 40
1.0
  9
$FILLETRAD
 40
10.0
  9
$AUNITS
 70
     0
  9
$AUPREC
 70
     2
  9
$MENU
  1
.
  9
$ELEVATION
 40
0.0
  9
$PELEVATION
 40
0.0
  9
$THICKNESS
 40
0.0
  9
$LIMCHECK
 70
     0
  9
$CHAMFERA
 40
10.0
  9
$CHAMFERB
 40
10.0
  9
$CHAMFERC
 40
20.0
  9
$CHAMFERD
 40
0.0
  9
$SKPOLY
 70
     0
  9
$TDCREATE
 40
2457806.582475868
  9
$TDUCREATE
 40
2457806.540809202
  9
$TDUPDATE
 40
2457806.58247588
  9
$TDUUPDATE
 40
2457806.540809213
  9
$TDINDWG
 40
0.0000000116
  9
$TDUSRTIMER
 40
0.0000000116
  9
$USRTIMER
 70
     1
  9
$ANGBASE
 50
0.0
  9
$ANGDIR
 70
     0
  9
$PDMODE
 70
     0
  9
$PDSIZE
 40
-1.0
  9
$PLINEWID
 40
0.0
  9
$SPLFRAME
 70
     0
  9
$SPLINETYPE
 70
     6
  9
$SPLINESEGS
 70
     8
  9
$HANDSEED
  5
2D0
  9
$SURFTAB1
 70
     6
  9
$SURFTAB2
 70
     6
  9
$SURFTYPE
 70
     6
  9
$SURFU
 70
     6
  9
$SURFV
 70
     6
  9
$UCSBASE
  2

  9
$UCSNAME
  2

  9
$UCSORG
 10
0.0
 20
0.0
 30
0.0
  9
$UCSXDIR
 10
1.0
 20
0.0
 30
0.0
  9
$UCSYDIR
 10
0.0
 20
1.0
 30
0.0
  9
$UCSORTHOREF
  2

  9
$UCSORTHOVIEW
 70
     0
  9
$UCSORGTOP
 10
0.0
 20
0.0
 30
0.0
  9
$UCSORGBOTTOM
 10
0.0
 20
0.0
 30
0.0
  9
$UCSORGLEFT
 10
0.0
 20
0.0
 30
0.0
  9
$UCSORGRIGHT
 10
0.0
 20
0.0
 30
0.0
  9
$UCSORGFRONT
 10
0.0
 20
0.0
 30
0.0
  9
$UCSORGBACK
 10
0.0
 20
0.0
 30
0.0
  9
$PUCSBASE
  2

  9
$PUCSNAME
  2

  9
$PUCSORG
 10
0.0
 20
0.0
 30
0.0
  9
$PUCSXDIR
 10
1.0
 20
0.0
 30
0.0
  9
$PUCSYDIR
 10
0.0
 20
1.0
 30
0.0
  9
$PUCSORTHOREF
  2

  9
$PUCSORTHOVIEW
 70
     0
  9
$PUCSORGTOP
 10
0.0
 20
0.0
 30
0.0
  9
$PUCSORGBOTTOM
 10
0.0
 20
0.0
 30
0.0
  9
$PUCSORGLEFT
 10
0.0
 20
0.0
 30
0.0
  9
$PUCSORGRIGHT
 10
0.0
 20
0.0
 30
0.0
  9
$PUCSORGFRONT
 10
0.0
 20
0.0
 30
0.0
  9
$PUCSORGBACK
 10
0.0
 20
0.0
 30
0.0
  9
$USERI1
 70
     0
  9
$USERI2
 70
     0
  9
$USERI3
 70
     0
  9
$USERI4
 70
     0
  9
$USERI5
 70
     0
  9
$USERR1
 40
0.0
  9
$USERR2
 40
0.0
  9
$USERR3
 40
0.0
  9
$USERR4
 40
0.0
  9
$USERR5
 40
0.0
  9
$WORLDVIEW
 70
     1
  9
$SHADEDGE
 70
     3
  9
$SHADEDIF
 70
    70
  9
$TILEMODE
 70
     1
  9
$MAXACTVP
 70
    64
  9
$PINSBASE
 10
0.0
 20
0.0
 30
0.0
  9
$PLIMCHECK
 70
     0
  9
$PEXTMIN
 10
1.0000000000E+20
 20
1.0000000000E+20
 30
1.0000000000E+20
  9
$PEXTMAX
 10
-1.0000000000E+20
 20
-1.0000000000E+20
 30
-1.0000000000E+20
  9
$PLIMMIN
 10
0.0
 20
0.0
  9
$PLIMMAX
 10
420.0
 20
297.0
  9
$UNITMODE
 70
     0
  9
$VISRETAIN
 70
     1
  9
$PLINEGEN
 70
     0
  9
$PSLTSCALE
 70
     1
  9
$TREEDEPTH
 70
  3020
  9
$CMLSTYLE
  2
Standard
  9
$CMLJUST
 70
     0
  9
$CMLSCALE
 40
20.0
  9
$PROXYGRAPHICS
 70
     1
  9
$MEASUREMENT
 70
     1
  9
$CELWEIGHT
370
    -1
  9
$ENDCAPS
280
     0
  9
$JOINSTYLE
280
     0
  9
$LWDISPLAY
290
     1
  9
$INSUNITS
 70
     4
  9
$HYPERLINKBASE
  1

  9
$STYLESHEET
  1

  9
$XEDIT
290
     1
  9
$CEPSNTYPE
380
     0
  9
$PSTYLEMODE
290
     1
  9
$FINGERPRINTGUID
  2
{9BD22078-C905-4237-ABFF-F82D17C22394}
  9
$VERSIONGUID
  2
{FAEB1C32-E019-11D5-929B-00C0DF256EC4}
  9
$EXTNAMES
290
     1
  9
$PSVPSCALE
 40
0.0
  9
$OLESTARTUP
290
     0
  0
ENDSEC
  0
SECTION
  2
CLASSES
  0
CLASS
  1
ACDBDICTIONARYWDFLT
  2
AcDbDictionaryWithDefault
  3
ObjectDBX Classes
 90
        0
280
     0
281
     0
  0
CLASS
  1
VISUALSTYLE
  2
AcDbVisualStyle
  3
ObjectDBX Classes
 90
     4095
280
     0
281
     0
  0
CLASS
  1
MATERIAL
  2
AcDbMaterial
  3
ObjectDBX Classes
 90
     1153
280
     0
281
     0
  0
CLASS
  1
ACDBPLACEHOLDER
  2
AcDbPlaceHolder
  3
ObjectDBX Classes
 90
        0
280
     0
281
     0
  0
CLASS
  1
LAYOUT
  2
AcDbLayout
  3
ObjectDBX Classes
 90
        0
280
     0
281
     0
  0
ENDSEC
  0
SECTION
  2
TABLES
  0
TABLE
  2
VPORT
  5
8
330
0
100
AcDbSymbolTable
 70
     1
  0
VPORT
  5
29
330
8
100
AcDbSymbolTableRecord
100
AcDbViewportTableRecord
  2
*Active
 70
     0
 10
0.0
 20
0.0
 11
1.0
 21
1.0
 12
594.5
 22
420.5
 13
0.0
 23
0.0
 14
10.0
 24
10.0
 15
10.0
 25
10.0
 16
0.0
 26
0.0
 36
1.0
 17
0.0
 27
0.0
 37
0.0
 40
841.0
 41
1.4137931034
 42
50.0
 43
0.0
 44
0.0
 50
0.0
 51
0.0
 71
     0
 72
  2000
 73
     1
 74
     3
 75
     0
 76
     0
 77
     0
 78
     0
281
     0
 65
     1
110
0.0
120
0.0
130
0.0
111
1.0
121
0.0
131
0.0
112
0.0
122
1.0
132
0.0
 79
     0
146
0.0
  0
ENDTAB
  0
TABLE
  2
LTYPE
  5
5
330
0
100
AcDbSymbolTable
 70
     6
  0
LTYPE
  5
14
330
5
100
AcDbSymbolTableRecord
100
AcDbLinetypeTableRecord
  2
ByBlock
 70
     0
  3

 72
    65
 73
     0
 40
0.0
  0
LTYPE
  5
15
330
5
100
AcDbSymbolTableRecord
100
AcDbLinetypeTableRecord
  2
ByLayer
 70
     0
  3

 72
    65
 73
     0
 40
0.0
  0
LTYPE
  5
16
330
5
100
AcDbSymbolTableRecord
100
AcDbLinetypeTableRecord
  2
Continuous
 70
     0
  3
Solid line
 72
    65
 73
     0
 40
0.0
  0
LTYPE
  5
3F
330
5
100
AcDbSymbolTableRecord
100
AcDbLinetypeTableRecord
  2
HIDDEN
 70
     0
  3
Hidden __ __ __ __ __ __ __ __ __ __ __ __ __ __
 72
    65
 73
     2
 40
1.905
 49
1.27
 74
     0
 49
-0.635
 74
     0
  0
LTYPE
  5
40
330
5
100
AcDbSymbolTableRecord
100
AcDbLinetypeTableRecord
  2
PHANTOM
 70
     0
  3
Phantom ______  __  __  ______  __  __  ______
 72
    65
 73
     6
 40
12.7
 49
6.35
 74
     0
 49
-1.27
 74
     0
 49
1.27
 74
     0
 49
-1.27
 74
     0
 49
1.27
 74
     0
 49
-1.27
 74
     0
  0
LTYPE
  5
41
330
5
100
AcDbSymbolTableRecord
100
AcDbLinetypeTableRecord
  2
CENTER
 70
     0
  3
Center ____ _ ____ _ ____ _ ____ _ ____ _ ____
 72
    65
 73
     4
 40
10.16
 49
6.35
 74
     0
 49
-1.27
 74
     0
 49
1.27
 74
     0
 49
-1.27
 74
     0
  0
LTYPE
  5
42
330
5
100
AcDbSymbolTableRecord
100
AcDbLinetypeTableRecord
  2
CENTERX2
 70
     0
  3
Center (2x) ________  __  ________  __  _____
 72
    65
 73
     4
 40
20.32
 49
12.7
 74
     0
 49
-2.54
 74
     0
 49
2.54
 74
     0
 49
-2.54
 74
     0
  0
LTYPE
  5
43
330
5
100
AcDbSymbolTableRecord
100
AcDbLinetypeTableRecord
  2
DOT2
 70
     0
  3
Dot (.5x) ........................................
 72
    65
 73
     2
 40
0.635
 49
0.0
 74
     0
 49
-0.635
 74
     0
  0
ENDTAB
  0
TABLE
  2
LAYER
  5
2
330
0
100
AcDbSymbolTable
 70
     2
  0
LAYER
  5
10
330
2
100
AcDbSymbolTableRecord
100
AcDbLayerTableRecord
  2
0
 70
     0
 62
     7
  6
Continuous
370
    -3
390
F
  0
LAYER
  5
44
330
2
100
AcDbSymbolTableRecord
100
AcDbLayerTableRecord
  2
FORMAT
 70
     0
 62
     7
  6
Continuous
370
    -3
390
F
  0
ENDTAB
  0
TABLE
  2
STYLE
  5
3
330
0
100
AcDbSymbolTable
 70
     1
  0
STYLE
  5
11
330
3
100
AcDbSymbolTableRecord
100
AcDbTextStyleTableRecord
  2
Standard
 70
     0
 40
0.0
 41
1.0
 50
0.0
 71
     0
 42
2.5
  3
txt
  4

  0
ENDTAB
  0
TABLE
  2
VIEW
  5
6
330
0
100
AcDbSymbolTable
 70
     0
  0
ENDTAB
  0
TABLE
  2
UCS
  5
7
330
0
100
AcDbSymbolTable
 70
     0
  0
ENDTAB
  0
TABLE
  2
APPID
  5
9
330
0
100
AcDbSymbolTable
 70
     1
  0
APPID
  5
12
330
9
100
AcDbSymbolTableRecord
100
AcDbRegAppTableRecord
  2
ACAD
 70
     0
  0
ENDTAB
  0
TABLE
  2
DIMSTYLE
  5
A
330
0
100
AcDbSymbolTable
 70
     1
100
AcDbDimStyleTable
  0
DIMSTYLE
105
27
330
A
100
AcDbSymbolTableRecord
100
AcDbDimStyleTableRecord
  2
ISO-25
 70
     0
 41
2.5
 42
0.625
 43
3.75
 44
1.25
 73
     0
 74
     0
 77
     1
 78
     8
140
2.5
141
2.5
143
0.0393700787
147
0.625
171
     3
172
     1
178
     0
271
     2
272
     2
274
     3
278
    44
283
     0
284
     8
340
11
  0
ENDTAB
  0
TABLE
  2
BLOCK_RECORD
  5
1
330
0
100
AcDbSymbolTable
 70
     1
  0
BLOCK_RECORD
  5
1F
330
1
100
AcDbSymbolTableRecord
100
AcDbBlockTableRecord
  2
*Model_Space
340
22
  0
BLOCK_RECORD
  5
1B
330
1
100
AcDbSymbolTableRecord
100
AcDbBlockTableRecord
  2
*Paper_Space
340
1E
  0
BLOCK_RECORD
  5
23
330
1
100
AcDbSymbolTableRecord
100
AcDbBlockTableRecord
  2
*Paper_Space0
340
26
  0
ENDTAB
  0
ENDSEC
  0
SECTION
  2
BLOCKS
  0
BLOCK
  5
20
330
1F
100
AcDbEntity
  8
0
100
AcDbBlockBegin
  2
*Model_Space
 70
     0
 10
0.0
 20
0.0
 30
0.0
  3
*Model_Space
  1

  0
ENDBLK
  5
21
330
1F
100
AcDbEntity
  8
0
100
AcDbBlockEnd
  0
BLOCK
  5
1C
330
1B
100
AcDbEntity
 67
     1
  8
0
100
AcDbBlockBegin
  2
*Paper_Space
 70
     0
 10
0.0
 20
0.0
 30
0.0
  3
*Paper_Space
  1

  0
ENDBLK
  5
1D
330
1B
100
AcDbEntity
 67
     1
  8
0
100
AcDbBlockEnd
  0
BLOCK
  5
24
330
23
100
AcDbEntity
  8
0
100
AcDbBlockBegin
  2
*Paper_Space0
 70
     0
 10
0.0
 20
0.0
 30
0.0
  3
*Paper_Space0
  1

  0
ENDBLK
  5
25
330
23
100
AcDbEntity
  8
0
100
AcDbBlockEnd
  0
ENDSEC
  0
SECTION
  2
ENTITIES
  0
LINE
  5
45
330
1F
100
AcDbEntity
  8
0
  6
Continuous
 62
     7
370
    15
100
AcDbLine
 10
871.7685202075
 20
506.2901558044
 30
0.0
 11
871.7683711959
 21
506.2901558044
 31
0.0
  0
LINE
  5
46
330
1F
100
AcDbEntity
  8
0
  6
Continuous
 62
     7
370
    15
100
AcDbLine
 10
868.7683651162
 20
506.2901558044
 30
0.0
 11
867.7183696939
 21
506.2901558044
 31
0.0
  0
LINE
  5
47
330
1F
100
AcDbEntity
  8
0
  6
Continuous
 62
     7
370
    15
100
AcDbLine
 10
859.7183683826
 20
506.2901558044
 30
0.0
 11
858.1682154847
 21
506.2901558044
 31
0.0
  0
LINE
  5
48
330
1F
100
AcDbEntity
  8
0
  6
Continuous
 62
     7
370
    15
100
AcDbLine
 10
858.1682154847
 20
500.2901585463
 30
0.0
 11
859.7183683826
 21
500.2901585463
 31
0.0
  0
LINE
  5
49
330
1F
100
AcDbEntity
  8
0
  6
Continuous
 62
     7
370
    15
100
AcDbLine
 10
867.7183696939
 20
500.2901585463
 30
0.0
 11
868.7683651162
 21
500.2901585463
 31
0.0
  0
LINE
  5
4A
330
1F
100
AcDbEntity
  8
0
  6
Continuous
 62
     7
370
    15
100
AcDbLine
 10
871.7683711959
 20
500.2901585463
 30
0.0
 11
871.7685202075
 21
500.2901585463
 31
0.0
  0
ARC
  5
4B
330
1F
100
AcDbEntity
  8
0
  6
Continuous
 62
     7
370
    15
100
AcDbCircle
 10
875.0683680965
 20
457.7846046892
 30
0.0
 40
2.000000000000023
100
AcDbArc
 50
304.3297726759
 51
0.0
  0
ARC
  5
4C
330
1F
100
AcDbEntity
  8
0
  6
Continuous
 62
     7
370
    15
100
AcDbCircle
 10
875.0683680965
 20
468.7957116881
 30
0.0
 40
2.0
100
AcDbArc
 50
0.0
 51
55.5529438572
  0
ARC
  5
4D
330
1F
100
AcDbEntity
  8
0
  6
Continuous
 62
     7
370
    15
100
AcDbCircle
 10
875.0683680965
 20
468.7957116881
 30
0.0
 40
2.000000000000018
100
AcDbArc
 50
70.5218639187
 51
94.1666471768
  0
LINE
  5
4E
330
1F
100
AcDbEntity
  8
0
  6
Continuous
 62
     7
370
    15
100
AcDbLine
 10
871.7683711959
 20
456.7901579353
 30
0.0
 11
872.1683630658
 21
456.7901579353
 31
0.0
  0
LINE
  5
4F
330
1F
100
AcDbEntity
  8
0
  6
Continuous
 62
     7
370
    15
100
AcDbLine
 10
872.1683630658
 20
469.7901582035
 30
0.0
 11
871.7683711959
 21
469.7901582035
 31
0.0
  0
ARC
  5
50
330
1F
100
AcDbEntity
  8
0
  6
Continuous
 62
     7
370
    15
100
AcDbCircle
 10
875.0683680965
 20
413.7846046892
 30
0.0
 40
2.0
100
AcDbArc
 50
304.3297726759
 51
0.0
  0
ARC
  5
51
330
1F
100
AcDbEntity
  8
0
  6
Continuous
 62
     7
370
    15
100
AcDbCircle
 10
875.0683680965
 20
424.7957116881
 30
0.0
 40
2.0
100
AcDbArc
 50
0.0
 51
55.5529438572
  0
ARC
  5
52
330
1F
100
AcDbEntity
  8
0
  6
Continuous
 62
     7
370
    15
100
AcDbCircle
 10
875.0683680965
 20
424.7957116881
 30
0.0
 40
2.000000000000018
100
AcDbArc
 50
70.5218639187
 51
94.1666471768
  0
LINE
  5
53
330
1F
100
AcDbEntity
  8
0
  6
Continuous
 62
     7
370
    15
100
AcDbLine
 10
871.7683711959
 20
412.7901581737
 30
0.0
 11
872.1683630658
 21
412.7901581737
 31
0.0
  0
LINE
  5
54
330
1F
100
AcDbEntity
  8
0
  6
Continuous
 62
     7
370
    15
100
AcDbLine
 10
872.1683630658
 20
425.7901584419
 30
0.0
 11
871.7683711959
 21
425.7901584419
 31
0.0
  0
ARC
  5
55
330
1F
100
AcDbEntity
  8
0
  6
Continuous
 62
     7
370
    15
100
AcDbCircle
 10
864.7368300669
 20
504.2901581886
 30
0.0
 40
64.0315380295994
100
AcDbArc
 50
340.0
 51
0.0
  0
ARC
  5
56
330
1F
100
AcDbEntity
  8
0
  6
Continuous
 62
     7
370
    15
100
AcDbCircle
 10
864.7368300669
 20
504.2901581886
 30
0.0
 40
64.03153802959935
100
AcDbArc
 50
0.0
 51
16.8193398341
  0
SPLINE
  5
57
330
1F
100
AcDbEntity
  8
0
  6
Continuous
 62
     7
370
    15
100
AcDbSpline
210
0.0
220
0.0
230
1.0
 70
     8
 71
     3
 72
    19
 73
    15
 74
     0
 42
0.00000001
 43
0.00000001
 40
0.0
 40
0.0
 40
0.0
 40
0.0
 40
0.0033176918168466
 40
0.06017206782215
 40
0.1417260162291472
 40
0.2389739893804685
 40
0.3405841949622891
 40
0.4417557879738951
 40
0.5421353580303132
 40
0.6423015418016769
 40
0.7411557957422206
 40
0.8392911962712272
 40
0.9376609141974143
 40
1.0
 40
1.0
 40
1.0
 40
1.0
 10
916.6904697133118
 20
488.7891145112944
 30
0.0
 10
916.6892334150608
 20
488.7890075778211
 30
0.0
 10
916.666811012284
 20
488.7870681547019
 30
0.0
 10
916.7860151461238
 20
488.7857160127638
 30
0.0
 10
917.0980773239347
 20
488.735503553048
 30
0.0
 10
917.7218813914716
 20
488.6380798952413
 30
0.0
 10
918.6048291619832
 20
488.5251496976873
 30
0.0
 10
919.6585520670844
 20
488.4459505155733
 30
0.0
 10
920.775301582992
 20
488.4296952374374
 30
0.0
 10
921.858395214429
 20
488.4805385675239
 30
0.0
 10
922.823218023994
 20
488.580317504662
 30
0.0
 10
923.5840593095442
 20
488.6914422162548
 30
0.0
 10
924.0751409323589
 20
488.7704198726226
 30
0.0
 10
924.1851050064978
 20
488.780480764024
 30
0.0
 10
924.2277601672226
 20
488.7843833926154
 30
0.0
  0
SPLINE
  5
58
330
1F
100
AcDbEntity
  8
0
  6
Continuous
 62
     7
370
    15
100
AcDbSpline
210
0.0
220
0.0
230
1.0
 70
     8
 71
     3
 72
    10
 73
     6
 74
     0
 42
0.00000001
 43
0.00000001
 40
0.0
 40
0.0
 40
0.0
 40
0.0
 40
0.3759193531144583
 40
0.874733903446478
 40
1.0
 40
1.0
 40
1.0
 40
1.0
 10
916.3177767706925
 20
525.1036615732145
 30
0.0
 10
916.1907927197511
 20
524.9234183177952
 30
0.0
 10
915.8953111127653
 20
524.504006853403
 30
0.0
 10
915.753543992487
 20
523.989369126484
 30
0.0
 10
915.7832790363325
 20
523.7195333929145
 30
0.0
 10
915.7892474843079
 20
523.6653716924619
 30
0.0
  0
SPLINE
  5
59
330
1F
100
AcDbEntity
  8
0
  6
Continuous
 62
     7
370
    15
100
AcDbSpline
210
0.0
220
0.0
230
1.0
 70
     8
 71
     3
 72
    13
 73
     9
 74
     0
 42
0.00000001
 43
0.00000001
 40
0.0
 40
0.0
 40
0.0
 40
0.0
 40
0.1786025534179907
 40
0.3712692119116781
 40
0.564964545993168
 40
0.7593961411340149
 40
0.9587027827291256
 40
1.0
 40
1.0
 40
1.0
 40
1.0
 10
921.1244294358307
 20
526.837664997859
 30
0.0
 10
920.7654453023565
 20
526.8591817864043
 30
0.0
 10
920.0192087353358
 20
526.9039097086719
 30
0.0
 10
918.9018822629936
 20
526.7154113658655
 30
0.0
 10
917.8665781421655
 20
526.3561359896062
 30
0.0
 10
917.0223383329551
 20
525.8449033857886
 30
0.0
 10
916.5039664741996
 20
525.409678474311
 30
0.0
 10
916.3450527099855
 20
525.1484916484535
 30
0.0
 10
916.3177767706925
 20
525.1036615732145
 30
0.0
  0
LINE
  5
5A
330
1F
100
AcDbEntity
  8
0
  6
Continuous
 62
     7
370
    15
100
AcDbLine
 10
915.7683709575
 20
514.790158129
 30
0.0
 11
896.7683622552
 21
514.790158129
 31
0.0
  0
LINE
  5
5B
330
1F
100
AcDbEntity
  8
0
  6
Continuous
 62
     7
370
    15
100
AcDbLine
 10
896.7683622552
 20
493.7901565495
 30
0.0
 11
915.7683709575
 21
493.7901565495
 31
0.0
  0
SPLINE
  5
5C
330
1F
100
AcDbEntity
  8
0
  6
Continuous
 62
     7
370
    15
100
AcDbSpline
210
0.0
220
0.0
230
1.0
 70
     8
 71
     3
 72
    13
 73
     9
 74
     0
 42
0.00000001
 43
0.00000001
 40
0.0
 40
0.0
 40
0.0
 40
0.0
 40
0.0058721466261319
 40
0.1047534760599529
 40
0.3519679163023179
 40
0.6197201479336293
 40
0.8917144611316442
 40
1.0
 40
1.0
 40
1.0
 40
1.0
 10
925.9632388068253
 20
522.9570300939512
 30
0.0
 10
925.9633071259287
 20
522.9569160759173
 30
0.0
 10
925.9645258733509
 20
522.9548821033095
 30
0.0
 10
925.9406671141663
 20
522.9951278797051
 30
0.0
 10
925.832675115553
 20
523.1784935005046
 30
0.0
 10
925.531338993903
 20
523.6872818151612
 30
0.0
 10
925.1928546489768
 20
524.2574085365663
 30
0.0
 10
924.9083279905574
 20
524.7301109366505
 30
0.0
 10
924.8273083878571
 20
524.8647140028905
 30
0.0
  0
SPLINE
  5
5D
330
1F
100
AcDbEntity
  8
0
  6
Continuous
 62
     7
370
    15
100
AcDbSpline
210
0.0
220
0.0
230
1.0
 70
     8
 71
     3
 72
    18
 73
    14
 74
     0
 42
0.00000001
 43
0.00000001
 40
0.0
 40
0.0
 40
0.0
 40
0.0
 40
0.0134278006548018
 40
0.0438959161897407
 40
0.0569543444772188
 40
0.0613400147228919
 40
0.0645047797720335
 40
0.0683343561922595
 40
0.0749984738890754
 40
0.0913302984348958
 40
0.158803880195563
 40
0.627448993287427
 40
1.0
 40
1.0
 40
1.0
 40
1.0
 10
926.0266432477051
 20
522.818032062335
 30
0.0
 10
926.0237447431552
 20
522.8275812469132
 30
0.0
 10
926.0142694377
 20
522.8587978412536
 30
0.0
 10
925.9960963526776
 20
522.8966139600063
 30
0.0
 10
925.9793611123893
 20
522.9287848639703
 30
0.0
 10
925.9729588252085
 20
522.9402573998991
 30
0.0
 10
925.9705654350951
 20
522.9444613060497
 30
0.0
 10
925.9688206740486
 20
522.9475111458787
 30
0.0
 10
925.9671408594863
 20
522.9504353290794
 30
0.0
 10
925.9653222820484
 20
522.9535191206832
 30
0.0
 10
925.9624695265829
 20
522.9583949233121
 30
0.0
 10
925.9539573943725
 20
522.9728192917393
 30
0.0
 10
925.8970729224121
 20
523.0691105790335
 30
0.0
 10
925.8718797875458
 20
523.1117563012075
 30
0.0
  0
LINE
  5
5E
330
1F
100
AcDbEntity
  8
0
  6
Continuous
 62
     7
370
    15
100
AcDbLine
 10
896.7683622552
 20
509.2901618841
 30
0.0
 11
896.2995568229
 21
508.4781603578
 31
0.0
  0
LINE
  5
5F
330
1F
100
AcDbEntity
  8
0
  6
Continuous
 62
     7
370
    15
100
AcDbLine
 10
896.2995568229
 20
500.1021580461
 30
0.0
 11
896.7683622552
 21
499.2901565197
 31
0.0
  0
LINE
  5
60
330
1F
100
AcDbEntity
  8
0
  6
Continuous
 62
     7
370
    15
100
AcDbLine
 10
895.4612472964
 20
499.2901565197
 30
0.0
 11
895.9300527288
 21
500.1021580461
 31
0.0
  0
LINE
  5
61
330
1F
100
AcDbEntity
  8
0
  6
Continuous
 62
     7
370
    15
100
AcDbLine
 10
895.9300527288
 20
508.4781603578
 30
0.0
 11
895.4612472964
 21
509.2901618841
 31
0.0
  0
LINE
  5
62
330
1F
100
AcDbEntity
  8
0
  6
Continuous
 62
     7
370
    15
100
AcDbLine
 10
895.4612472964
 20
509.2901618841
 30
0.0
 11
894.7683731032
 21
509.2901618841
 31
0.0
  0
LINE
  5
63
330
1F
100
AcDbEntity
  8
0
  6
Continuous
 62
     7
370
    15
100
AcDbLine
 10
894.7683731032
 20
499.2901565197
 30
0.0
 11
895.4612472964
 21
499.2901565197
 31
0.0
  0
LINE
  5
64
330
1F
100
AcDbEntity
  8
0
  6
Continuous
 62
     7
370
    15
100
AcDbLine
 10
891.4612540914
 20
499.2901565197
 30
0.0
 11
891.9300595237
 21
500.1021580461
 31
0.0
  0
LINE
  5
65
330
1F
100
AcDbEntity
  8
0
  6
Continuous
 62
     7
370
    15
100
AcDbLine
 10
891.9300595237
 20
508.4781603578
 30
0.0
 11
891.4612540914
 21
509.2901618841
 31
0.0
  0
LINE
  5
66
330
1F
100
AcDbEntity
  8
0
  6
Continuous
 62
     7
370
    15
100
AcDbLine
 10
893.4612432433
 20
509.2901618841
 30
0.0
 11
892.7683690501
 21
509.2901618841
 31
0.0
  0
LINE
  5
67
330
1F
100
AcDbEntity
  8
0
  6
Continuous
 62
     7
370
    15
100
AcDbLine
 10
892.7683690501
 20
499.2901565197
 30
0.0
 11
893.4612432433
 21
499.2901565197
 31
0.0
  0
LINE
  5
68
330
1F
100
AcDbEntity
  8
0
  6
Continuous
 62
     7
370
    15
100
AcDbLine
 10
889.4612500382
 20
509.2901618841
 30
0.0
 11
888.7683609439
 21
509.2901618841
 31
0.0
  0
LINE
  5
69
330
1F
100
AcDbEntity
  8
0
  6
Continuous
 62
     7
370
    15
100
AcDbLine
 10
888.7683609439
 20
499.2901565197
 30
0.0
 11
889.4612500382
 21
499.2901565197
 31
0.0
  0
LINE
  5
6A
330
1F
100
AcDbEntity
  8
0
  6
Continuous
 62
     7
370
    15
100
AcDbLine
 10
889.4612500382
 20
499.2901565197
 30
0.0
 11
889.9300554706
 21
500.1021580461
 31
0.0
  0
LINE
  5
6B
330
1F
100
AcDbEntity
  8
0
  6
Continuous
 62
     7
370
    15
100
AcDbLine
 10
889.9300554706
 20
508.4781603578
 30
0.0
 11
889.4612500382
 21
509.2901618841
 31
0.0
  0
LINE
  5
6C
330
1F
100
AcDbEntity
  8
0
  6
Continuous
 62
     7
370
    15
100
AcDbLine
 10
893.4612432433
 20
499.2901565197
 30
0.0
 11
893.9300486756
 21
500.1021580461
 31
0.0
  0
LINE
  5
6D
330
1F
100
AcDbEntity
  8
0
  6
Continuous
 62
     7
370
    15
100
AcDbLine
 10
893.9300486756
 20
508.4781603578
 30
0.0
 11
893.4612432433
 21
509.2901618841
 31
0.0
  0
LINE
  5
6E
330
1F
100
AcDbEntity
  8
0
  6
Continuous
 62
     7
370
    15
100
AcDbLine
 10
892.7683690501
 20
509.2901618841
 30
0.0
 11
892.2995636178
 21
508.4781603578
 31
0.0
  0
LINE
  5
6F
330
1F
100
AcDbEntity
  8
0
  6
Continuous
 62
     7
370
    15
100
AcDbLine
 10
892.2995636178
 20
500.1021580461
 30
0.0
 11
892.7683690501
 21
499.2901565197
 31
0.0
  0
LINE
  5
70
330
1F
100
AcDbEntity
  8
0
  6
Continuous
 62
     7
370
    15
100
AcDbLine
 10
894.7683731032
 20
509.2901618841
 30
0.0
 11
894.2995527698
 21
508.4781603578
 31
0.0
  0
LINE
  5
71
330
1F
100
AcDbEntity
  8
0
  6
Continuous
 62
     7
370
    15
100
AcDbLine
 10
894.2995527698
 20
500.1021580461
 30
0.0
 11
894.7683731032
 21
499.2901565197
 31
0.0
  0
LINE
  5
72
330
1F
100
AcDbEntity
  8
0
  6
Continuous
 62
     7
370
    15
100
AcDbLine
 10
891.4612540914
 20
509.2901618841
 30
0.0
 11
890.768364997
 21
509.2901618841
 31
0.0
  0
LINE
  5
73
330
1F
100
AcDbEntity
  8
0
  6
Continuous
 62
     7
370
    15
100
AcDbLine
 10
890.768364997
 20
499.2901565197
 30
0.0
 11
891.4612540914
 21
499.2901565197
 31
0.0
  0
LINE
  5
74
330
1F
100
AcDbEntity
  8
0
  6
Continuous
 62
     7
370
    15
100
AcDbLine
 10
888.7683609439
 20
509.2901618841
 30
0.0
 11
888.2995555116
 21
508.4781603578
 31
0.0
  0
LINE
  5
75
330
1F
100
AcDbEntity
  8
0
  6
Continuous
 62
     7
370
    15
100
AcDbLine
 10
888.2995555116
 20
500.1021580461
 30
0.0
 11
888.7683609439
 21
499.2901565197
 31
0.0
  0
LINE
  5
76
330
1F
100
AcDbEntity
  8
0
  6
Continuous
 62
     7
370
    15
100
AcDbLine
 10
890.768364997
 20
509.2901618841
 30
0.0
 11
890.2995595647
 21
508.4781603578
 31
0.0
  0
LINE
  5
77
330
1F
100
AcDbEntity
  8
0
  6
Continuous
 62
     7
370
    15
100
AcDbLine
 10
890.2995595647
 20
500.1021580461
 30
0.0
 11
890.768364997
 21
499.2901565197
 31
0.0
  0
LINE
  5
78
330
1F
100
AcDbEntity
  8
0
  6
Continuous
 62
     7
370
    15
100
AcDbLine
 10
877.4612406207
 20
509.2901618841
 30
0.0
 11
876.7683664275
 21
509.2901618841
 31
0.0
  0
LINE
  5
79
330
1F
100
AcDbEntity
  8
0
  6
Continuous
 62
     7
370
    15
100
AcDbLine
 10
876.7683664275
 20
499.2901565197
 30
0.0
 11
877.4612406207
 21
499.2901565197
 31
0.0
  0
LINE
  5
7A
330
1F
100
AcDbEntity
  8
0
  6
Continuous
 62
     7
370
    15
100
AcDbLine
 10
876.7683664275
 20
509.2901618841
 30
0.0
 11
876.2995609952
 21
508.4781603578
 31
0.0
  0
LINE
  5
7B
330
1F
100
AcDbEntity
  8
0
  6
Continuous
 62
     7
370
    15
100
AcDbLine
 10
876.2995609952
 20
500.1021580461
 30
0.0
 11
876.7683664275
 21
499.2901565197
 31
0.0
  0
LINE
  5
7C
330
1F
100
AcDbEntity
  8
0
  6
Continuous
 62
     7
370
    15
100
AcDbLine
 10
877.4612406207
 20
499.2901565197
 30
0.0
 11
877.9300609542
 21
500.1021580461
 31
0.0
  0
LINE
  5
7D
330
1F
100
AcDbEntity
  8
0
  6
Continuous
 62
     7
370
    15
100
AcDbLine
 10
877.9300609542
 20
508.4781603578
 30
0.0
 11
877.4612406207
 21
509.2901618841
 31
0.0
  0
LINE
  5
7E
330
1F
100
AcDbEntity
  8
0
  6
Continuous
 62
     7
370
    15
100
AcDbLine
 10
875.5736658288
 20
509.0954484108
 30
0.0
 11
871.7683711959
 21
505.2901612285
 31
0.0
  0
LINE
  5
7F
330
1F
100
AcDbEntity
  8
0
  6
Continuous
 62
     7
370
    15
100
AcDbLine
 10
871.7683711959
 20
503.2901571753
 30
0.0
 11
875.5736658288
 21
499.4848662677
 31
0.0
  0
LINE
  5
80
330
1F
100
AcDbEntity
  8
0
  6
Continuous
 62
     7
370
    15
100
AcDbLine
 10
875.5736658288
 20
499.4848662677
 30
0.0
 11
875.9300569011
 21
500.1021580461
 31
0.0
  0
LINE
  5
81
330
1F
100
AcDbEntity
  8
0
  6
Continuous
 62
     7
370
    15
100
AcDbLine
 10
875.9300569011
 20
508.4781603578
 30
0.0
 11
875.5736658288
 21
509.0954484108
 31
0.0
  0
LINE
  5
82
330
1F
100
AcDbEntity
  8
0
  6
Continuous
 62
     7
370
    15
100
AcDbLine
 10
896.2995568229
 20
508.4781603578
 30
0.0
 11
895.9300527288
 21
508.4781603578
 31
0.0
  0
LINE
  5
83
330
1F
100
AcDbEntity
  8
0
  6
Continuous
 62
     7
370
    15
100
AcDbLine
 10
895.9300527288
 20
500.1021580461
 30
0.0
 11
896.2995568229
 21
500.1021580461
 31
0.0
  0
LINE
  5
84
330
1F
100
AcDbEntity
  8
0
  6
Continuous
 62
     7
370
    15
100
AcDbLine
 10
888.2995555116
 20
508.4781603578
 30
0.0
 11
888.2183739854
 21
508.4781603578
 31
0.0
  0
LINE
  5
85
330
1F
100
AcDbEntity
  8
0
  6
Continuous
 62
     7
370
    15
100
AcDbLine
 10
888.2183739854
 20
500.1021580461
 30
0.0
 11
888.2995555116
 21
500.1021580461
 31
0.0
  0
LINE
  5
86
330
1F
100
AcDbEntity
  8
0
  6
Continuous
 62
     7
370
    15
100
AcDbLine
 10
894.2995527698
 20
508.4781603578
 30
0.0
 11
893.9300486756
 21
508.4781603578
 31
0.0
  0
LINE
  5
87
330
1F
100
AcDbEntity
  8
0
  6
Continuous
 62
     7
370
    15
100
AcDbLine
 10
893.9300486756
 20
500.1021580461
 30
0.0
 11
894.2995527698
 21
500.1021580461
 31
0.0
  0
LINE
  5
88
330
1F
100
AcDbEntity
  8
0
  6
Continuous
 62
     7
370
    15
100
AcDbLine
 10
892.2995636178
 20
508.4781603578
 30
0.0
 11
891.9300595237
 21
508.4781603578
 31
0.0
  0
LINE
  5
89
330
1F
100
AcDbEntity
  8
0
  6
Continuous
 62
     7
370
    15
100
AcDbLine
 10
891.9300595237
 20
500.1021580461
 30
0.0
 11
892.2995636178
 21
500.1021580461
 31
0.0
  0
LINE
  5
8A
330
1F
100
AcDbEntity
  8
0
  6
Continuous
 62
     7
370
    15
100
AcDbLine
 10
890.2995595647
 20
508.4781603578
 30
0.0
 11
889.9300554706
 21
508.4781603578
 31
0.0
  0
LINE
  5
8B
330
1F
100
AcDbEntity
  8
0
  6
Continuous
 62
     7
370
    15
100
AcDbLine
 10
889.9300554706
 20
500.1021580461
 30
0.0
 11
890.2995595647
 21
500.1021580461
 31
0.0
  0
LINE
  5
8C
330
1F
100
AcDbEntity
  8
0
  6
Continuous
 62
     7
370
    15
100
AcDbLine
 10
878.218368621
 20
508.4781603578
 30
0.0
 11
877.9300609542
 21
508.4781603578
 31
0.0
  0
LINE
  5
8D
330
1F
100
AcDbEntity
  8
0
  6
Continuous
 62
     7
370
    15
100
AcDbLine
 10
877.9300609542
 20
500.1021580461
 30
0.0
 11
878.218368621
 21
500.1021580461
 31
0.0
  0
LINE
  5
8E
330
1F
100
AcDbEntity
  8
0
  6
Continuous
 62
     7
370
    15
100
AcDbLine
 10
876.2995609952
 20
508.4781603578
 30
0.0
 11
875.9300569011
 21
508.4781603578
 31
0.0
  0
LINE
  5
8F
330
1F
100
AcDbEntity
  8
0
  6
Continuous
 62
     7
370
    15
100
AcDbLine
 10
875.9300569011
 20
500.1021580461
 30
0.0
 11
876.2995609952
 21
500.1021580461
 31
0.0
  0
ARC
  5
90
330
1F
100
AcDbEntity
  8
0
  6
Continuous
 62
     7
370
    15
100
AcDbCircle
 10
920.4796433039
 20
484.0014333961
 30
0.0
 40
4.711275207452577
100
AcDbArc
 50
255.1810072227
 51
255.506233997
  0
LWPOLYLINE
  5
91
330
1F
100
AcDbEntity
  8
0
  6
Continuous
 62
     7
370
    15
100
AcDbPolyline
 90
        3
 70
   128
 43
0.0
 10
915.7683709575
 20
484.0014347496
 10
915.8315965844
 20
483.2321511271
 10
915.892661543
 20
482.9264053765
  0
LINE
  5
92
330
1F
100
AcDbEntity
  8
0
  6
Continuous
 62
     7
370
    15
100
AcDbLine
 10
918.8194284154
 20
479.5923748675
 30
0.0
 11
919.2746588899
 21
479.4468613031
 31
0.0
  0
LINE
  5
93
330
1F
100
AcDbEntity
  8
0
  6
Continuous
 62
     7
370
    15
100
AcDbLine
 10
921.8184510184
 20
479.4843861523
 30
0.0
 11
922.1443245126
 21
479.5940549734
 31
0.0
  0
LINE
  5
94
330
1F
100
AcDbEntity
  8
0
  6
Continuous
 62
     7
370
    15
100
AcDbLine
 10
924.7169205857
 20
481.9419117334
 30
0.0
 11
924.9067911817
 21
482.3900827828
 31
0.0
  0
LINE
  5
95
330
1F
100
AcDbEntity
  8
0
  6
Continuous
 62
     7
370
    15
100
AcDbLine
 10
871.7683711959
 20
511.2901584866
 30
0.0
 11
868.7683651162
 21
511.2901584866
 31
0.0
  0
LINE
  5
96
330
1F
100
AcDbEntity
  8
0
  6
Continuous
 62
     7
370
    15
100
AcDbLine
 10
512.3183736516
 20
421.8901576164
 30
0.0
 11
515.818373294
 21
421.8901576164
 31
0.0
  0
LINE
  5
97
330
1F
100
AcDbEntity
  8
0
  6
Continuous
 62
     7
370
    15
100
AcDbLine
 10
515.818373294
 20
460.6901587608
 30
0.0
 11
512.3183736516
 21
460.6901587608
 31
0.0
  0
LINE
  5
98
330
1F
100
AcDbEntity
  8
0
  6
Continuous
 62
     7
370
    15
100
AcDbLine
 10
512.3183736516
 20
460.6901587608
 30
0.0
 11
508.3183655454
 21
456.6901581052
 31
0.0
  0
LINE
  5
99
330
1F
100
AcDbEntity
  8
0
  6
Continuous
 62
     7
370
    15
100
AcDbLine
 10
508.3183655454
 20
425.8901582721
 30
0.0
 11
512.3183736516
 21
421.8901576164
 31
0.0
  0
LINE
  5
9A
330
1F
100
AcDbEntity
  8
0
  6
Continuous
 62
     7
370
    15
100
AcDbLine
 10
515.818373294
 20
425.3901572588
 30
0.0
 11
517.8183624459
 21
427.3901585179
 31
0.0
  0
LINE
  5
9B
330
1F
100
AcDbEntity
  8
0
  6
Continuous
 62
     7
370
    15
100
AcDbLine
 10
517.8183624459
 20
455.1901578593
 30
0.0
 11
515.818373294
 21
457.1901591185
 31
0.0
  0
SPLINE
  5
9C
330
1F
100
AcDbEntity
  8
0
  6
Continuous
 62
     7
370
    15
100
AcDbSpline
210
0.0
220
0.0
230
1.0
 70
     8
 71
     3
 72
    21
 73
    17
 74
     0
 42
0.00000001
 43
0.00000001
 40
0.0
 40
0.0
 40
0.0
 40
0.0
 40
0.1123545500871598
 40
0.222198759965857
 40
0.3223192852375106
 40
0.4127161387961046
 40
0.4933897133160822
 40
0.5643398019287709
 40
0.6255664137065748
 40
0.6761348739179187
 40
0.7173651265251481
 40
0.7556506552469738
 40
0.8018587976948286
 40
0.8589842915103203
 40
0.9250354878275796
 40
1.0
 40
1.0
 40
1.0
 40
1.0
 10
868.3604458285386
 20
734.1570736530256
 30
0.0
 10
868.6549746997104
 20
729.7396054369183
 30
0.0
 10
869.2374517769425
 20
721.0033685951869
 30
0.0
 10
870.0825144925635
 20
708.3306562301942
 30
0.0
 10
870.8700137525441
 20
696.5212475737
 30
0.0
 10
871.5810232641978
 20
685.85873655647
 30
0.0
 10
872.2154729808069
 20
676.3431168078594
 30
0.0
 10
872.7734473536964
 20
667.9743834811511
 30
0.0
 10
873.252424891398
 20
660.7893096617969
 30
0.0
 10
873.6534482331781
 20
654.7727002015883
 30
0.0
 10
873.994444073524
 20
649.6581951919425
 30
0.0
 10
874.3234627729211
 20
644.7147235125399
 30
0.0
 10
874.6939701882804
 20
639.1532955831938
 30
0.0
 10
875.1395806619406
 20
632.5099532129681
 30
0.0
 10
875.6642713587931
 20
624.7467985490622
 30
0.0
 10
876.0260445165665
 20
619.2253690937474
 30
0.0
 10
876.2183645678574
 20
616.2901552083921
 30
0.0
  0
SPLINE
  5
9D
330
1F
100
AcDbEntity
  8
0
  6
Continuous
 62
     7
370
    15
100
AcDbSpline
210
0.0
220
0.0
230
1.0
 70
     8
 71
     3
 72
    24
 73
    20
 74
     0
 42
0.00000001
 43
0.00000001
 40
0.0
 40
0.0
 40
0.0
 40
0.0
 40
0.0604816405803595
 40
0.1096928650364985
 40
0.1478077503821703
 40
0.180897564627868
 40
0.2130662464180644
 40
0.2437643959336579
 40
0.273574716908469
 40
0.3034511031320122
 40
0.3395986119952943
 40
0.3896464018889822
 40
0.4492379501809755
 40
0.51837339396429
 40
0.5970524989085665
 40
0.6852754070119285
 40
0.7830422356539056
 40
0.8903527265292067
 40
1.0
 40
1.0
 40
1.0
 40
1.0
 10
890.2183631373459
 20
616.2901552083921
 30
0.0
 10
890.3729632181397
 20
618.6278234918008
 30
0.0
 10
890.6533545176221
 20
622.8675486224599
 30
0.0
 10
891.0416674114567
 20
628.6254388855712
 30
0.0
 10
891.3555363196343
 20
633.3617972348528
 30
0.0
 10
891.626689800202
 20
637.429646344462
 30
0.0
 10
891.8780181672496
 20
641.2053183991262
 30
0.0
 10
892.1209213602609
 20
644.8520880635774
 30
0.0
 10
892.3579306066134
 20
648.4086286104613
 30
0.0
 10
892.6093907584702
 20
652.1795177265163
 30
0.0
 10
892.9139673505238
 20
656.746736614667
 30
0.0
 10
893.2964963104827
 20
662.4832097246687
 30
0.0
 10
893.7656410277885
 20
669.517710999567
 30
0.0
 10
894.3099175522094
 20
677.6788152316396
 30
0.0
 10
894.9293441353745
 20
686.9665213669576
 30
0.0
 10
895.6239279619193
 20
697.3808279938181
 30
0.0
 10
896.3936018904843
 20
708.9217375818113
 30
0.0
 10
897.2194408554531
 20
721.3056643305458
 30
0.0
 10
897.788624703947
 20
729.8426209370297
 30
0.0
 10
898.0762818766648
 20
734.1570736530256
 30
0.0
  0
ARC
  5
9E
330
1F
100
AcDbEntity
  8
0
  6
Continuous
 62
     7
370
    15
100
AcDbCircle
 10
896.0807256252
 20
734.2901581886
 30
0.0
 40
2.0
100
AcDbArc
 50
356.2054965625
 51
90.0
  0
ARC
  5
9F
330
1F
100
AcDbEntity
  8
0
  6
Continuous
 62
     7
370
    15
100
AcDbCircle
 10
870.3559765404
 20
734.2901771829
 30
0.0
 40
1.999967893312562
100
AcDbArc
 50
89.9986335772
 51
183.7980478546
  0
LINE
  5
A0
330
1F
100
AcDbEntity
  8
0
  6
Continuous
 62
     7
370
    15
100
AcDbLine
 10
569.3949395729
 20
428.7901580024
 30
0.0
 11
569.9474150253
 21
428.7901580024
 31
0.0
  0
LINE
  5
A1
330
1F
100
AcDbEntity
  8
0
  6
Continuous
 62
     7
370
    15
100
AcDbLine
 10
569.9474150253
 20
453.7901583749
 30
0.0
 11
569.3949395729
 21
453.7901583749
 31
0.0
  0
LINE
  5
A2
330
1F
100
AcDbEntity
  8
0
  6
Continuous
 62
     7
370
    15
100
AcDbLine
 10
818.14179662
 20
453.7901583749
 30
0.0
 11
817.5893211676
 21
453.7901583749
 31
0.0
  0
LINE
  5
A3
330
1F
100
AcDbEntity
  8
0
  6
Continuous
 62
     7
370
    15
100
AcDbLine
 10
817.5893211676
 20
428.7901580024
 30
0.0
 11
818.14179662
 21
428.7901580024
 31
0.0
  0
LINE
  5
A4
330
1F
100
AcDbEntity
  8
0
  6
Continuous
 62
     7
370
    15
100
AcDbLine
 10
878.218368621
 20
428.7901580024
 30
0.0
 11
888.2183739854
 21
428.7901580024
 31
0.0
  0
LINE
  5
A5
330
1F
100
AcDbEntity
  8
0
  6
Continuous
 62
     7
370
    15
100
AcDbLine
 10
818.2183662368
 20
433.2901578086
 30
0.0
 11
818.5121053768
 21
433.2901578086
 31
0.0
  0
LINE
  5
A6
330
1F
100
AcDbEntity
  8
0
  6
Continuous
 62
     7
370
    15
100
AcDbLine
 10
871.7683711959
 20
433.2901578086
 30
0.0
 11
878.218368621
 21
433.2901578086
 31
0.0
  0
LINE
  5
A7
330
1F
100
AcDbEntity
  8
0
  6
Continuous
 62
     7
370
    15
100
AcDbLine
 10
878.218368621
 20
449.2901585686
 30
0.0
 11
871.7683711959
 21
449.2901585686
 31
0.0
  0
LINE
  5
A8
330
1F
100
AcDbEntity
  8
0
  6
Continuous
 62
     7
370
    15
100
AcDbLine
 10
818.5121053768
 20
449.2901585686
 30
0.0
 11
818.2183662368
 21
449.2901585686
 31
0.0
  0
LINE
  5
A9
330
1F
100
AcDbEntity
  8
0
  6
Continuous
 62
     7
370
    15
100
AcDbLine
 10
569.3183699561
 20
449.2901585686
 30
0.0
 11
569.0246308161
 21
449.2901585686
 31
0.0
  0
LINE
  5
AA
330
1F
100
AcDbEntity
  8
0
  6
Continuous
 62
     7
370
    15
100
AcDbLine
 10
518.7683710767
 20
449.2901585686
 30
0.0
 11
517.8183624459
 21
449.2901585686
 31
0.0
  0
LINE
  5
AB
330
1F
100
AcDbEntity
  8
0
  6
Continuous
 62
     7
370
    15
100
AcDbLine
 10
517.8183624459
 20
433.2901578086
 30
0.0
 11
518.7683710767
 21
433.2901578086
 31
0.0
  0
LINE
  5
AC
330
1F
100
AcDbEntity
  8
0
  6
Continuous
 62
     7
370
    15
100
AcDbLine
 10
569.0246308161
 20
433.2901578086
 30
0.0
 11
569.3183699561
 21
433.2901578086
 31
0.0
  0
LINE
  5
AD
330
1F
100
AcDbEntity
  8
0
  6
Continuous
 62
     7
370
    15
100
AcDbLine
 10
859.7183683826
 20
495.2901595893
 30
0.0
 11
861.7183724357
 21
493.2901592615
 31
0.0
  0
LINE
  5
AE
330
1F
100
AcDbEntity
  8
0
  6
Continuous
 62
     7
370
    15
100
AcDbLine
 10
865.7183656407
 20
493.2901592615
 30
0.0
 11
867.7183696939
 21
495.2901595893
 31
0.0
  0
LINE
  5
AF
330
1F
100
AcDbEntity
  8
0
  6
Continuous
 62
     7
370
    15
100
AcDbLine
 10
878.218368621
 20
525.2901570561
 30
0.0
 11
873.718366952
 21
525.2901570561
 31
0.0
  0
LINE
  5
B0
330
1F
100
AcDbEntity
  8
0
  6
Continuous
 62
     7
370
    15
100
AcDbLine
 10
873.718366952
 20
517.2901557448
 30
0.0
 11
878.218368621
 21
517.2901557448
 31
0.0
  0
ARC
  5
B1
330
1F
100
AcDbEntity
  8
0
  6
Continuous
 62
     7
370
    15
100
AcDbCircle
 10
873.7183680965
 20
511.2901581886
 30
0.0
 40
6.0
100
AcDbArc
 50
90.0
 51
180.0
  0
ARC
  5
B2
330
1F
100
AcDbEntity
  8
0
  6
Continuous
 62
     7
370
    15
100
AcDbCircle
 10
873.7183680965
 20
511.2901581886
 30
0.0
 40
14.0
100
AcDbArc
 50
90.0
 51
180.0
  0
LINE
  5
B3
330
1F
100
AcDbEntity
  8
0
  6
Continuous
 62
     7
370
    15
100
AcDbLine
 10
867.7183696939
 20
495.2901595893
 30
0.0
 11
867.7183696939
 21
511.2901584866
 31
0.0
  0
LINE
  5
B4
330
1F
100
AcDbEntity
  8
0
  6
Continuous
 62
     7
370
    15
100
AcDbLine
 10
859.7183683826
 20
511.2901584866
 30
0.0
 11
859.7183683826
 21
495.2901595893
 31
0.0
  0
SPLINE
  5
B5
330
1F
100
AcDbEntity
  8
0
  6
Continuous
 62
     7
370
    15
100
AcDbSpline
210
0.0
220
0.0
230
1.0
 70
     8
 71
     3
 72
    18
 73
    14
 74
     0
 42
0.00000001
 43
0.00000001
 40
0.0
 40
0.0
 40
0.0
 40
0.0
 40
0.0326495327523752
 40
0.1400512383634062
 40
0.2474527772168203
 40
0.3548544223856139
 40
0.4622562147095128
 40
0.5696576956576869
 40
0.6770599899306098
 40
0.7844616702588462
 40
0.8918633130909355
 40
0.9992649629788009
 40
1.0
 40
1.0
 40
1.0
 40
1.0
 10
858.1682154847199
 20
500.3261597516966
 30
0.0
 10
858.1682084392502
 20
500.3156277179824
 30
0.0
 10
858.1681782174777
 20
500.2704502149729
 30
0.0
 10
858.1683275312541
 20
500.5362207013859
 30
0.0
 10
858.1681178923785
 20
501.1014609292191
 30
0.0
 10
858.1683149938007
 20
501.9379786883953
 30
0.0
 10
858.1681832619365
 20
502.9201794832845
 30
0.0
 10
858.168244867105
 20
503.9466358889354
 30
0.0
 10
858.1682195852394
 20
504.8956768742556
 30
0.0
 10
858.1681697007004
 20
505.6747814783706
 30
0.0
 10
858.1683051133746
 20
506.1441400954535
 30
0.0
 10
858.1682153817909
 20
506.3448957948465
 30
0.0
 10
858.168215484025
 20
506.2893709327637
 30
0.0
 10
858.1682154847199
 20
506.2889935138655
 30
0.0
  0
SPLINE
  5
B6
330
1F
100
AcDbEntity
  8
0
  6
Continuous
 62
     7
370
    15
100
AcDbSpline
210
0.0
220
0.0
230
1.0
 70
     8
 71
     3
 72
    13
 73
     9
 74
     0
 42
0.00000001
 43
0.00000001
 40
0.0
 40
0.0
 40
0.0
 40
0.0
 40
0.0651758038656915
 40
0.2795737418954798
 40
0.493971347297638
 40
0.7083691649291831
 40
0.9227672760573405
 40
1.0
 40
1.0
 40
1.0
 40
1.0
 10
871.7685202075058
 20
500.3261597516966
 30
0.0
 10
871.7685273387926
 20
500.3156280501009
 30
0.0
 10
871.7685579286807
 20
500.2704519717248
 30
0.0
 10
871.7684008954092
 20
500.5361925832767
 30
0.0
 10
871.7686440761763
 20
501.1015626212245
 30
0.0
 10
871.7684122656038
 20
501.9376000376827
 30
0.0
 10
871.7685284044467
 20
502.7117502560104
 30
0.0
 10
871.7685219237829
 20
503.1689353554985
 30
0.0
 10
871.7685202075058
 20
503.2900118890238
 30
0.0
  0
SPLINE
  5
B7
330
1F
100
AcDbEntity
  8
0
  6
Continuous
 62
     7
370
    15
100
AcDbSpline
210
0.0
220
0.0
230
1.0
 70
     8
 71
     3
 72
    11
 73
     7
 74
     0
 42
0.00000001
 43
0.00000001
 40
0.0
 40
0.0
 40
0.0
 40
0.0
 40
0.1799495912319443
 40
0.5885764986251077
 40
0.9972034328631108
 40
1.0
 40
1.0
 40
1.0
 40
1.0
 10
871.768535108667
 20
505.2903176906538
 30
0.0
 10
871.7685374927154
 20
505.4067462497602
 30
0.0
 10
871.7685452904262
 20
505.7875590828967
 30
0.0
 10
871.7684288670972
 20
506.1346696836471
 30
0.0
 10
871.768520312402
 20
506.3449066705652
 30
0.0
 10
871.768520208214
 20
506.2893710061901
 30
0.0
 10
871.7685202075058
 20
506.2889935138655
 30
0.0
  0
SPLINE
  5
B8
330
1F
100
AcDbEntity
  8
0
  6
Continuous
 62
     7
370
    15
100
AcDbSpline
210
0.0
220
0.0
230
1.0
 70
     8
 71
     3
 72
    18
 73
    14
 74
     0
 42
0.00000001
 43
0.00000001
 40
0.0
 40
0.0
 40
0.0
 40
0.0
 40
0.039114462102795
 40
0.0780921056831308
 40
0.1389198832958475
 40
0.2382981341090543
 40
0.4914346146964769
 40
0.7614773672627647
 40
0.8314853080878912
 40
0.9019335755232336
 40
0.9480416186908522
 40
0.9875254311190177
 40
1.0
 40
1.0
 40
1.0
 40
1.0
 10
875.0683674527222
 20
459.537380716486
 30
0.0
 10
875.1860875187456
 20
459.549772808682
 30
0.0
 10
875.4211158776365
 20
459.5745136467602
 30
0.0
 10
875.7908013800154
 20
459.7860406966186
 30
0.0
 10
876.2037529440854
 20
460.2283394279837
 30
0.0
 10
876.7148478045087
 20
461.3806568048566
 30
0.0
 10
876.861246466891
 20
463.261469678745
 30
0.0
 10
876.7396099467928
 20
465.0682020644909
 30
0.0
 10
876.269034241542
 20
466.2115444358899
 30
0.0
 10
875.935003225292
 20
466.6722971032007
 30
0.0
 10
875.5490645731757
 20
466.9475925867271
 30
0.0
 10
875.2614755720956
 20
467.0362518005717
 30
0.0
 10
875.1057542327702
 20
467.0416414368922
 30
0.0
 10
875.0683674527222
 20
467.0429354223443
 30
0.0
  0
SPLINE
  5
B9
330
1F
100
AcDbEntity
  8
0
  6
Continuous
 62
     7
370
    15
100
AcDbSpline
210
0.0
220
0.0
230
1.0
 70
     8
 71
     3
 72
    18
 73
    14
 74
     0
 42
0.00000001
 43
0.00000001
 40
0.0
 40
0.0
 40
0.0
 40
0.0
 40
0.0344336919930901
 40
0.0724914586391419
 40
0.1306345332058386
 40
0.2236186401965475
 40
0.4104357218335176
 40
0.5001956991791514
 40
0.7376506308272652
 40
0.856870629700423
 40
0.9094902477810577
 40
0.9625702671301385
 40
1.0
 40
1.0
 40
1.0
 40
1.0
 10
875.0683674527222
 20
467.0429354223443
 30
0.0
 10
875.1719589399179
 20
467.0477324537082
 30
0.0
 10
875.3900447034463
 20
467.0578313940361
 30
0.0
 10
875.7453558473994
 20
467.1501290364815
 30
0.0
 10
876.1534189134726
 20
467.3529696275583
 30
0.0
 10
876.6062838545632
 20
467.8156244761382
 30
0.0
 10
876.7745960864977
 20
468.3709753590035
 30
0.0
 10
876.8264514345163
 20
469.1398456274737
 30
0.0
 10
876.7274472592302
 20
469.8147549669064
 30
0.0
 10
876.2717736993898
 20
470.3990733199381
 30
0.0
 10
875.8290056799415
 20
470.6560674964607
 30
0.0
 10
875.4534200821087
 20
470.7759763327667
 30
0.0
 10
875.1810177189694
 20
470.7899374014092
 30
0.0
 10
875.0683674527222
 20
470.7957109126282
 30
0.0
  0
SPLINE
  5
BA
330
1F
100
AcDbEntity
  8
0
  6
Continuous
 62
     7
370
    15
100
AcDbSpline
210
0.0
220
0.0
230
1.0
 70
     8
 71
     3
 72
    18
 73
    14
 74
     0
 42
0.00000001
 43
0.00000001
 40
0.0
 40
0.0
 40
0.0
 40
0.0
 40
0.0391144676347483
 40
0.0780920918620744
 40
0.1389198352174596
 40
0.238298162806542
 40
0.4914346783036921
 40
0.7614772757724181
 40
0.8314853715292031
 40
0.9019336559074237
 40
0.948041593188339
 40
0.9875254429773228
 40
1.0
 40
1.0
 40
1.0
 40
1.0
 10
875.0683674527222
 20
455.7846042948795
 30
0.0
 10
875.1860875023884
 20
455.7908003367403
 30
0.0
 10
875.4211157537859
 20
455.8031707433812
 30
0.0
 10
875.7908013812146
 20
455.9089342651641
 30
0.0
 10
876.203753288676
 20
456.1300839154491
 30
0.0
 10
876.7148473521868
 20
456.7062417757125
 30
0.0
 10
876.8612469477608
 20
457.6466501317996
 30
0.0
 10
876.73960903017
 20
458.5500150801382
 30
0.0
 10
876.2690344302762
 20
459.1216868582704
 30
0.0
 10
875.9350040349042
 20
459.352063819202
 30
0.0
 10
875.5490637467017
 20
459.4897097591013
 30
0.0
 10
875.261475861995
 20
459.534040718409
 30
0.0
 10
875.1057542454395
 20
459.5367340754813
 30
0.0
 10
875.0683674527222
 20
459.537380716486
 30
0.0
  0
LINE
  5
BB
330
1F
100
AcDbEntity
  8
0
  6
Continuous
 62
     7
370
    15
100
AcDbLine
 10
877.0683715058
 20
457.784605554
 30
0.0
 11
877.0683715058
 21
468.7957124474
 31
0.0
  0
LINE
  5
BC
330
1F
100
AcDbEntity
  8
0
  6
Continuous
 62
     7
370
    15
100
AcDbLine
 10
872.1683630658
 20
463.2901580694
 30
0.0
 11
872.1683630658
 21
467.0429354223
 31
0.0
  0
LINE
  5
BD
330
1F
100
AcDbEntity
  8
0
  6
Continuous
 62
     7
370
    15
100
AcDbLine
 10
875.0683674527
 20
467.0429354223
 30
0.0
 11
872.1683630658
 21
467.0429354223
 31
0.0
  0
LINE
  5
BE
330
1F
100
AcDbEntity
  8
0
  6
Continuous
 62
     7
370
    15
100
AcDbLine
 10
875.0683674527
 20
459.5373807165
 30
0.0
 11
872.1683630658
 21
459.5373807165
 31
0.0
  0
LINE
  5
BF
330
1F
100
AcDbEntity
  8
0
  6
Continuous
 62
     7
370
    15
100
AcDbLine
 10
872.1683630658
 20
459.5373807165
 30
0.0
 11
872.1683630658
 21
463.2901580694
 31
0.0
  0
LINE
  5
C0
330
1F
100
AcDbEntity
  8
0
  6
Continuous
 62
     7
370
    15
100
AcDbLine
 10
875.0683674527
 20
455.7846042949
 30
0.0
 11
872.1683630658
 21
455.7846042949
 31
0.0
  0
LINE
  5
C1
330
1F
100
AcDbEntity
  8
0
  6
Continuous
 62
     7
370
    15
100
AcDbLine
 10
872.1683630658
 20
455.7846042949
 30
0.0
 11
872.1683630658
 21
457.6609929713
 31
0.0
  0
LINE
  5
C2
330
1F
100
AcDbEntity
  8
0
  6
Continuous
 62
     7
370
    15
100
AcDbLine
 10
872.1683630658
 20
457.6609929713
 30
0.0
 11
872.1683630658
 21
459.5373807165
 31
0.0
  0
LINE
  5
C3
330
1F
100
AcDbEntity
  8
0
  6
Continuous
 62
     7
370
    15
100
AcDbLine
 10
872.1683630658
 20
468.9193231675
 30
0.0
 11
872.1683630658
 21
470.7957109126
 31
0.0
  0
LINE
  5
C4
330
1F
100
AcDbEntity
  8
0
  6
Continuous
 62
     7
370
    15
100
AcDbLine
 10
875.0683674527
 20
470.7957109126
 30
0.0
 11
872.1683630658
 21
470.7957109126
 31
0.0
  0
LINE
  5
C5
330
1F
100
AcDbEntity
  8
0
  6
Continuous
 62
     7
370
    15
100
AcDbLine
 10
872.1683630658
 20
467.0429354223
 30
0.0
 11
872.1683630658
 21
468.9193231675
 31
0.0
  0
SPLINE
  5
C6
330
1F
100
AcDbEntity
  8
0
  6
Continuous
 62
     7
370
    15
100
AcDbSpline
210
0.0
220
0.0
230
1.0
 70
     8
 71
     3
 72
    18
 73
    14
 74
     0
 42
0.00000001
 43
0.00000001
 40
0.0
 40
0.0
 40
0.0
 40
0.0
 40
0.0391144520033593
 40
0.078092027267024
 40
0.1389198720023904
 40
0.2382981652206404
 40
0.4914347175272529
 40
0.7614772251805237
 40
0.8314854030829116
 40
0.9019336872484554
 40
0.9480415734075327
 40
0.9875254480364718
 40
1.0
 40
1.0
 40
1.0
 40
1.0
 10
875.0683674527222
 20
411.7846054646207
 30
0.0
 10
875.1860874656196
 20
411.7908017009618
 30
0.0
 10
875.4211155431258
 20
411.803172490594
 30
0.0
 10
875.7908020884545
 20
411.9089326004853
 30
0.0
 10
876.2037525218731
 20
412.1300846836227
 30
0.0
 10
876.7148480365383
 20
412.7062435329459
 30
0.0
 10
876.861246851123
 20
413.6466492087875
 30
0.0
 10
876.7396085291977
 20
414.5500161341066
 30
0.0
 10
876.269034562968
 20
415.1216868969358
 30
0.0
 10
875.9350044071209
 20
415.3520639403901
 30
0.0
 10
875.5490633063087
 20
415.4897100959919
 30
0.0
 10
875.2614760197497
 20
415.5340409465103
 30
0.0
 10
875.1057542522768
 20
415.5367343123125
 30
0.0
 10
875.0683674527222
 20
415.5373809549046
 30
0.0
  0
SPLINE
  5
C7
330
1F
100
AcDbEntity
  8
0
  6
Continuous
 62
     7
370
    15
100
AcDbSpline
210
0.0
220
0.0
230
1.0
 70
     8
 71
     3
 72
    18
 73
    14
 74
     0
 42
0.00000001
 43
0.00000001
 40
0.0
 40
0.0
 40
0.0
 40
0.0
 40
0.039114462102795
 40
0.0780921056831308
 40
0.1389198832958475
 40
0.2382981341090543
 40
0.4914346146964769
 40
0.7614773672627647
 40
0.8314853080878912
 40
0.9019335755232336
 40
0.9480416186908522
 40
0.9875254311190177
 40
1.0
 40
1.0
 40
1.0
 40
1.0
 10
875.0683674527222
 20
415.5373809549046
 30
0.0
 10
875.1860875187456
 20
415.5497730471005
 30
0.0
 10
875.4211158776365
 20
415.5745138851788
 30
0.0
 10
875.7908013800154
 20
415.7860409350371
 30
0.0
 10
876.2037529440854
 20
416.2283396664022
 30
0.0
 10
876.7148478045087
 20
417.3806570432752
 30
0.0
 10
876.861246466891
 20
419.2614699171636
 30
0.0
 10
876.7396099467928
 20
421.0682023029095
 30
0.0
 10
876.269034241542
 20
422.2115446743085
 30
0.0
 10
875.935003225292
 20
422.6722973416193
 30
0.0
 10
875.5490645731757
 20
422.9475928251456
 30
0.0
 10
875.2614755720956
 20
423.0362520389903
 30
0.0
 10
875.1057542327702
 20
423.0416416753108
 30
0.0
 10
875.0683674527222
 20
423.0429356607629
 30
0.0
  0
SPLINE
  5
C8
330
1F
100
AcDbEntity
  8
0
  6
Continuous
 62
     7
370
    15
100
AcDbSpline
210
0.0
220
0.0
230
1.0
 70
     8
 71
     3
 72
    18
 73
    14
 74
     0
 42
0.00000001
 43
0.00000001
 40
0.0
 40
0.0
 40
0.0
 40
0.0
 40
0.0344336788959107
 40
0.072491465823574
 40
0.1306346034342966
 40
0.2236186724996012
 40
0.4104356558023305
 40
0.5001956486023499
 40
0.7376506735512144
 40
0.8568705451544993
 40
0.9094902699615509
 40
0.9625702641675137
 40
1.0
 40
1.0
 40
1.0
 40
1.0
 10
875.0683674527222
 20
423.0429356607629
 30
0.0
 10
875.1719589584125
 20
423.047732695796
 30
0.0
 10
875.3900448654414
 20
423.0578316486908
 30
0.0
 10
875.745355944503
 20
423.1501293373911
 30
0.0
 10
876.1534185060893
 20
423.3529695463736
 30
0.0
 10
876.6062840140185
 20
423.8156253187356
 30
0.0
 10
876.774596143541
 20
424.3709723417238
 30
0.0
 10
876.8264513188806
 20
425.1398478132075
 30
0.0
 10
876.7274483324793
 20
425.8147554581524
 30
0.0
 10
876.271772634873
 20
426.3990720423335
 30
0.0
 10
875.8290062837908
 20
426.6560683353309
 30
0.0
 10
875.4534199133934
 20
426.7759746859782
 30
0.0
 10
875.181017695448
 20
426.7899377458274
 30
0.0
 10
875.0683674527222
 20
426.7957120823694
 30
0.0
  0
LINE
  5
C9
330
1F
100
AcDbEntity
  8
0
  6
Continuous
 62
     7
370
    15
100
AcDbLine
 10
877.0683715058
 20
424.0581070694
 30
0.0
 11
877.0683715058
 21
424.7957108232
 31
0.0
  0
LINE
  5
CA
330
1F
100
AcDbEntity
  8
0
  6
Continuous
 62
     7
370
    15
100
AcDbLine
 10
877.0683715058
 20
413.7846039298
 30
0.0
 11
877.0683715058
 21
424.0581070694
 31
0.0
  0
LINE
  5
CB
330
1F
100
AcDbEntity
  8
0
  6
Continuous
 62
     7
370
    15
100
AcDbLine
 10
872.1683630658
 20
419.2901583078
 30
0.0
 11
872.1683630658
 21
423.0429356608
 31
0.0
  0
LINE
  5
CC
330
1F
100
AcDbEntity
  8
0
  6
Continuous
 62
     7
370
    15
100
AcDbLine
 10
875.0683674527
 20
423.0429356608
 30
0.0
 11
872.1683630658
 21
423.0429356608
 31
0.0
  0
LINE
  5
CD
330
1F
100
AcDbEntity
  8
0
  6
Continuous
 62
     7
370
    15
100
AcDbLine
 10
875.0683674527
 20
415.5373809549
 30
0.0
 11
872.1683630658
 21
415.5373809549
 31
0.0
  0
LINE
  5
CE
330
1F
100
AcDbEntity
  8
0
  6
Continuous
 62
     7
370
    15
100
AcDbLine
 10
872.1683630658
 20
415.5373809549
 30
0.0
 11
872.1683630658
 21
419.2901583078
 31
0.0
  0
LINE
  5
CF
330
1F
100
AcDbEntity
  8
0
  6
Continuous
 62
     7
370
    15
100
AcDbLine
 10
875.0683674527
 20
411.7846054646
 30
0.0
 11
872.1683630658
 21
411.7846054646
 31
0.0
  0
LINE
  5
D0
330
1F
100
AcDbEntity
  8
0
  6
Continuous
 62
     7
370
    15
100
AcDbLine
 10
872.1683630658
 20
411.7846054646
 30
0.0
 11
872.1683630658
 21
413.6609932098
 31
0.0
  0
LINE
  5
D1
330
1F
100
AcDbEntity
  8
0
  6
Continuous
 62
     7
370
    15
100
AcDbLine
 10
872.1683630658
 20
413.6609932098
 30
0.0
 11
872.1683630658
 21
415.5373809549
 31
0.0
  0
LINE
  5
D2
330
1F
100
AcDbEntity
  8
0
  6
Continuous
 62
     7
370
    15
100
AcDbLine
 10
872.1683630658
 20
424.9193234059
 30
0.0
 11
872.1683630658
 21
426.7957120824
 31
0.0
  0
LINE
  5
D3
330
1F
100
AcDbEntity
  8
0
  6
Continuous
 62
     7
370
    15
100
AcDbLine
 10
875.0683674527
 20
426.7957120824
 30
0.0
 11
872.1683630658
 21
426.7957120824
 31
0.0
  0
LINE
  5
D4
330
1F
100
AcDbEntity
  8
0
  6
Continuous
 62
     7
370
    15
100
AcDbLine
 10
872.1683630658
 20
423.0429356608
 30
0.0
 11
872.1683630658
 21
424.9193234059
 31
0.0
  0
SPLINE
  5
D5
330
1F
100
AcDbEntity
  8
0
  6
Continuous
 62
     7
370
    15
100
AcDbSpline
210
0.0
220
0.0
230
1.0
 70
     8
 71
     3
 72
    11
 73
     7
 74
     0
 42
0.00000001
 43
0.00000001
 40
0.0
 40
0.0
 40
0.0
 40
0.0
 40
0.3340922556943952
 40
0.6236912806956996
 40
0.9185145588541078
 40
1.0
 40
1.0
 40
1.0
 40
1.0
 10
924.9067911816651
 20
510.7773350241613
 30
0.0
 10
924.6941428357334
 20
510.5994166673991
 30
0.0
 10
924.2971659021129
 20
510.2672744944001
 30
0.0
 10
923.1358645911499
 20
509.9854381068434
 30
0.0
 10
922.0637956048416
 20
509.8719157286643
 30
0.0
 10
921.4124305084299
 20
509.844259864203
 30
0.0
 10
921.2713846875245
 20
509.8382712963057
 30
0.0
  0
SPLINE
  5
D6
330
1F
100
AcDbEntity
  8
0
  6
Continuous
 62
     7
370
    15
100
AcDbSpline
210
0.0
220
0.0
230
1.0
 70
     8
 71
     3
 72
    11
 73
     7
 74
     0
 42
0.00000001
 43
0.00000001
 40
0.0
 40
0.0
 40
0.0
 40
0.0
 40
0.0091388675288036
 40
0.500000049671888
 40
0.9908518866750259
 40
1.0
 40
1.0
 40
1.0
 40
1.0
 10
921.2713846875245
 20
509.8382712963057
 30
0.0
 10
921.2666118184542
 20
509.8384506695323
 30
0.0
 10
921.00548156739
 20
509.8482644262049
 30
0.0
 10
920.4796425652025
 20
509.8577593812872
 30
0.0
 10
919.9538135294331
 20
509.8482544760507
 30
0.0
 10
919.6926757289581
 20
509.8384506689994
 30
0.0
 10
919.687897892099
 20
509.8382712963057
 30
0.0
  0
SPLINE
  5
D7
330
1F
100
AcDbEntity
  8
0
  6
Continuous
 62
     7
370
    15
100
AcDbSpline
210
0.0
220
0.0
230
1.0
 70
     8
 71
     3
 72
    12
 73
     8
 74
     0
 42
0.00000001
 43
0.00000001
 40
0.0
 40
0.0
 40
0.0
 40
0.0
 40
0.1136356149160963
 40
0.3008435139845502
 40
0.4919221750331683
 40
0.6964448174274551
 40
0.9999999999999999
 40
0.9999999999999999
 40
0.9999999999999999
 40
0.9999999999999999
 10
919.687897892099
 20
509.8382712963057
 30
0.0
 10
919.4111434633814
 20
509.8516722608044
 30
0.0
 10
918.6784526172271
 20
509.8871505151662
 30
0.0
 10
917.6074604717772
 20
510.0262864320967
 30
0.0
 10
916.6403611795672
 20
510.3060985175463
 30
0.0
 10
915.8987247751478
 20
510.7888344371334
 30
0.0
 10
915.8171239980182
 20
511.3120658429622
 30
0.0
 10
915.7683709574753
 20
511.6246746542883
 30
0.0
  0
ARC
  5
D8
330
1F
100
AcDbEntity
  8
0
  6
Continuous
 62
     7
370
    15
100
AcDbCircle
 10
916.4795138524
 20
511.5653942343
 30
0.0
 40
0.7136094065718035
100
AcDbArc
 50
85.9215543062
 51
175.2348771038
  0
SPLINE
  5
D9
330
1F
100
AcDbEntity
  8
0
  6
Continuous
 62
     7
370
    15
100
AcDbSpline
210
0.0
220
0.0
230
1.0
 70
     8
 71
     3
 72
    16
 73
    12
 74
     0
 42
0.00000001
 43
0.00000001
 40
0.0
 40
0.0
 40
0.0
 40
0.0
 40
0.1632159101704946
 40
0.2700790468299054
 40
0.3688074862384682
 40
0.4654142288218832
 40
0.5626669727104767
 40
0.6630037026553707
 40
0.7707092167815263
 40
0.8765173020769947
 40
1.0
 40
1.0
 40
1.0
 40
1.0
 10
916.5302673293168
 20
512.2771965029668
 30
0.0
 10
916.5689131764211
 20
511.9528651416463
 30
0.0
 10
916.6328618045846
 20
511.416182750628
 30
0.0
 10
917.2568264747036
 20
510.9026445517314
 30
0.0
 10
918.0710459757024
 20
510.6068458855248
 30
0.0
 10
919.1083355595102
 20
510.4417877922722
 30
0.0
 10
920.2930590466897
 20
510.3793796330198
 30
0.0
 10
921.5463088180094
 20
510.4127378372311
 30
0.0
 10
922.7062527525324
 20
510.5635578457216
 30
0.0
 10
923.6850012006659
 20
510.8634608147811
 30
0.0
 10
924.013776051426
 20
511.2076958248339
 30
0.0
 10
924.1908350897843
 20
511.3930808070135
 30
0.0
  0
ARC
  5
DA
330
1F
100
AcDbEntity
  8
0
  6
Continuous
 62
     7
370
    15
100
AcDbCircle
 10
924.0976333351
 20
510.5606003003
 30
0.0
 40
0.8376815392508813
100
AcDbArc
 50
14.9948158444
 51
83.6119559343
  0
LINE
  5
DB
330
1F
100
AcDbEntity
  8
0
  6
Continuous
 62
     7
370
    15
100
AcDbLine
 10
915.7683709575
 20
511.6246746543
 30
0.0
 11
915.7683709575
 21
505.8895827892
 31
0.0
  0
SPLINE
  5
DC
330
1F
100
AcDbEntity
  8
0
  6
Continuous
 62
     7
370
    15
100
AcDbSpline
210
0.0
220
0.0
230
1.0
 70
     8
 71
     3
 72
    12
 73
     8
 74
     0
 42
0.00000001
 43
0.00000001
 40
0.0
 40
0.0
 40
0.0
 40
0.0
 40
0.2917315934193974
 40
0.5225560192853045
 40
0.761146229291173
 40
0.9714510641611681
 40
1.0
 40
1.0
 40
1.0
 40
1.0
 10
915.7683709574753
 20
505.8895827892256
 30
0.0
 10
915.8135471365641
 20
506.4510631868405
 30
0.0
 10
915.8944676979421
 20
507.4567991719129
 30
0.0
 10
916.7024486957042
 20
508.6634496603715
 30
0.0
 10
917.9139303854569
 20
509.4564947502686
 30
0.0
 10
919.0328778622977
 20
509.7584093437171
 30
0.0
 10
919.6179654480884
 20
509.8297449287538
 30
0.0
 10
919.687897892099
 20
509.8382712963057
 30
0.0
  0
ARC
  5
DD
330
1F
100
AcDbEntity
  8
0
  6
Continuous
 62
     7
370
    15
100
AcDbCircle
 10
924.0529890637
 20
507.9341509766
 30
0.0
 40
0.9484879439918414
100
AcDbArc
 50
278.3565280115
 51
334.180661294
  0
SPLINE
  5
DE
330
1F
100
AcDbEntity
  8
0
  6
Continuous
 62
     7
370
    15
100
AcDbSpline
210
0.0
220
0.0
230
1.0
 70
     8
 71
     3
 72
    16
 73
    12
 74
     0
 42
0.00000001
 43
0.00000001
 40
0.0
 40
0.0
 40
0.0
 40
0.0
 40
0.0982185518930419
 40
0.1976625521455855
 40
0.2943620791555995
 40
0.391406346404159
 40
0.4911094951001693
 40
0.5996274240376306
 40
0.7226907402071124
 40
0.8431783483620513
 40
1.0
 40
1.0
 40
1.0
 40
1.0
 10
924.1908350897843
 20
506.9957332375479
 30
0.0
 10
924.0569283674643
 20
507.2808188876461
 30
0.0
 10
923.7874442020687
 20
507.8545471303498
 30
0.0
 10
923.0194324991634
 20
508.5139839217777
 30
0.0
 10
922.0150655577877
 20
508.9576951522372
 30
0.0
 10
920.8453868605675
 20
509.1579915963993
 30
0.0
 10
919.589066127885
 20
509.106452767896
 30
0.0
 10
918.3299923180139
 20
508.7521693884914
 30
0.0
 10
917.3069675566614
 20
508.0357872331413
 30
0.0
 10
916.6296161083187
 20
506.9215691209301
 30
0.0
 10
916.5661552129045
 20
505.9958534102083
 30
0.0
 10
916.5302673293168
 20
505.4723502757979
 30
0.0
  0
LWPOLYLINE
  5
DF
330
1F
100
AcDbEntity
  8
0
  6
Continuous
 62
     7
370
    15
100
AcDbPolyline
 90
        9
 70
   128
 43
0.0
 10
916.5302673293
 20
505.4723502758
 10
916.3816282464
 20
505.4803671005
 10
916.2387112094
 20
505.5041121009
 10
916.1069849444
 20
505.5426688555
 10
915.9915307475
 20
505.5945546987
 10
915.8967742635
 20
505.6577803257
 10
915.8263662768
 20
505.729916847
 10
915.7830038978
 20
505.8081851962
 10
915.7683709575
 20
505.8895827892
  0
SPLINE
  5
E0
330
1F
100
AcDbEntity
  8
0
  6
Continuous
 62
     7
370
    15
100
AcDbSpline
210
0.0
220
0.0
230
1.0
 70
     8
 71
     3
 72
    11
 73
     7
 74
     0
 42
0.00000001
 43
0.00000001
 40
0.0
 40
0.0
 40
0.0
 40
0.0
 40
0.1990394462206548
 40
0.4636328947727585
 40
0.7350865307150081
 40
1.0
 40
1.0
 40
1.0
 40
1.0
 10
921.2713846875245
 20
509.8382712963058
 30
0.0
 10
921.6144399631586
 20
509.7842275983511
 30
0.0
 10
922.4135363911752
 20
509.658340812577
 30
0.0
 10
923.5072938760529
 20
509.1888995471758
 30
0.0
 10
924.4210448194749
 20
508.4645163679025
 30
0.0
 10
924.7461973046967
 20
507.8329727728857
 30
0.0
 10
924.9067911816651
 20
507.5210513236952
 30
0.0
  0
LINE
  5
E1
330
1F
100
AcDbEntity
  8
0
  6
Continuous
 62
     7
370
    15
100
AcDbLine
 10
924.9067911817
 20
510.7773350242
 30
0.0
 11
924.9067911817
 21
507.5210513237
 31
0.0
  0
SPLINE
  5
E2
330
1F
100
AcDbEntity
  8
0
  6
Continuous
 62
     7
370
    15
100
AcDbSpline
210
0.0
220
0.0
230
1.0
 70
     8
 71
     3
 72
    14
 73
    10
 74
     0
 42
0.00000001
 43
0.00000001
 40
0.0
 40
0.0
 40
0.0
 40
0.0
 40
0.0621969295981744
 40
0.2157647860693995
 40
0.3692821501694503
 40
0.5269932793260468
 40
0.6847106349245168
 40
0.8423239283030087
 40
1.0
 40
1.0
 40
1.0
 40
1.0
 10
924.1908350897843
 20
492.3119576337767
 30
0.0
 10
924.2774287590194
 20
492.6202309598542
 30
0.0
 10
924.5778272616168
 20
493.6896491559244
 30
0.0
 10
924.9705413375656
 20
495.5959644155481
 30
0.0
 10
925.2702256447061
 20
498.0379618644869
 30
0.0
 10
925.3434348181515
 20
500.4851975003111
 30
0.0
 10
925.1882989713362
 20
502.8539880999019
 30
0.0
 10
924.8170031845631
 20
505.0705822074239
 30
0.0
 10
924.3995854925208
 20
506.3539310502152
 30
0.0
 10
924.1908350897843
 20
506.9957332375479
 30
0.0
  0
SPLINE
  5
E3
330
1F
100
AcDbEntity
  8
0
  6
Continuous
 62
     7
370
    15
100
AcDbSpline
210
0.0
220
0.0
230
1.0
 70
     8
 71
     3
 72
    16
 73
    12
 74
     0
 42
0.00000001
 43
0.00000001
 40
0.0
 40
0.0
 40
0.0
 40
0.0
 40
0.1632156527080028
 40
0.2700789347748428
 40
0.3688073475625189
 40
0.4654141668887764
 40
0.5626669349346236
 40
0.6630036856685492
 40
0.7707092227970915
 40
0.8765173260452507
 40
1.0
 40
1.0
 40
1.0
 40
1.0
 10
916.5302673293168
 20
494.1728854241801
 30
0.0
 10
916.5689135317164
 20
493.5150103410115
 30
0.0
 10
916.6328628221428
 20
492.4264002798494
 30
0.0
 10
917.256825683161
 20
491.0964367465501
 30
0.0
 10
918.0710466833741
 20
490.2158851710858
 30
0.0
 10
919.1083351136517
 20
489.6482490562343
 30
0.0
 10
920.29305908106
 20
489.4136743489619
 30
0.0
 10
921.5463088083349
 20
489.5423003983401
 30
0.0
 10
922.706252736326
 20
490.0720897182418
 30
0.0
 10
923.6850010380897
 20
491.0084638267828
 30
0.0
 10
924.0137760138373
 20
491.8556905869146
 30
0.0
 10
924.1908350897843
 20
492.3119576337767
 30
0.0
  0
LINE
  5
E4
330
1F
100
AcDbEntity
  8
0
  6
Continuous
 62
     7
370
    15
100
AcDbLine
 10
916.5302673293
 20
505.4723502758
 30
0.0
 11
916.5302673293
 21
494.1728854242
 31
0.0
  0
SPLINE
  5
E5
330
1F
100
AcDbEntity
  8
0
  6
Continuous
 62
     7
370
    15
100
AcDbSpline
210
0.0
220
0.0
230
1.0
 70
     8
 71
     3
 72
    14
 73
    10
 74
     0
 42
0.00000001
 43
0.00000001
 40
0.0
 40
0.0
 40
0.0
 40
0.0
 40
0.0621969483418244
 40
0.2157647297079269
 40
0.3692823684433016
 40
0.526993518032903
 40
0.684710847870755
 40
0.8423237754007503
 40
1.0
 40
1.0
 40
1.0
 40
1.0
 10
924.1908350897843
 20
511.3930808070135
 30
0.0
 10
924.277428747266
 20
511.5295525523189
 30
0.0
 10
924.577827040093
 20
512.002980751348
 30
0.0
 10
924.970541954591
 20
513.0250614669706
 30
0.0
 10
925.2702253661566
 20
514.5940847882408
 30
0.0
 10
925.343434789642
 20
516.4616382182578
 30
0.0
 10
925.1882994653528
 20
518.5626343946938
 30
0.0
 10
924.8170021706059
 20
520.8223650233268
 30
0.0
 10
924.3995853834214
 20
522.3863850622498
 30
0.0
 10
924.1908350897843
 20
523.1685520770978
 30
0.0
  0
LINE
  5
E6
330
1F
100
AcDbEntity
  8
0
  6
Continuous
 62
     7
370
    15
100
AcDbLine
 10
916.5302673293
 20
521.3386596802
 30
0.0
 11
916.5302673293
 21
512.277196503
 31
0.0
  0
SPLINE
  5
E7
330
1F
100
AcDbEntity
  8
0
  6
Continuous
 62
     7
370
    15
100
AcDbSpline
210
0.0
220
0.0
230
1.0
 70
     8
 71
     3
 72
    16
 73
    12
 74
     0
 42
0.00000001
 43
0.00000001
 40
0.0
 40
0.0
 40
0.0
 40
0.0
 40
0.09821869404547
 40
0.1976625507021457
 40
0.2943620698056803
 40
0.3914063654191299
 40
0.4911095044029761
 40
0.5996272937070595
 40
0.7226904912125451
 40
0.8431780679962897
 40
0.9999999999999999
 40
0.9999999999999999
 40
0.9999999999999999
 40
0.9999999999999999
 10
924.1908350897843
 20
523.1685520770978
 30
0.0
 10
924.0569286029657
 20
523.539454334631
 30
0.0
 10
923.7874453035048
 20
524.285885418832
 30
0.0
 10
923.0194317145222
 20
525.2276645643482
 30
0.0
 10
922.0150653933167
 20
525.8934720902353
 30
0.0
 10
920.8453870534689
 20
526.2062793205902
 30
0.0
 10
919.5890670152147
 20
526.1252148839412
 30
0.0
 10
918.3299919750774
 20
525.578151319056
 30
0.0
 10
917.3069672637777
 20
524.5369539510976
 30
0.0
 10
916.6296156224732
 20
523.0391451598881
 30
0.0
 10
916.5661550578021
 20
521.9529285241588
 30
0.0
 10
916.5302673293168
 20
521.338659680171
 30
0.0
  0
SPLINE
  5
E8
330
1F
100
AcDbEntity
  8
0
  6
Continuous
 62
     7
370
    15
100
AcDbSpline
210
0.0
220
0.0
230
1.0
 70
     8
 71
     3
 72
    14
 73
    10
 74
     0
 42
0.00000001
 43
0.00000001
 40
0.0
 40
0.0
 40
0.0
 40
0.0
 40
0.1575840616786515
 40
0.3151115255063965
 40
0.4729864276697788
 40
0.6308558778646625
 40
0.7843617480185058
 40
0.9379122374478231
 40
1.0
 40
1.0
 40
1.0
 40
1.0
 10
924.9067911816651
 20
507.5210513236952
 30
0.0
 10
925.1182462572754
 20
506.8411306897742
 30
0.0
 10
925.5410804623456
 20
505.4815336220515
 30
0.0
 10
925.9163505419457
 20
503.1361987653171
 30
0.0
 10
926.073324666341
 20
500.6307129682448
 30
0.0
 10
925.9992018290433
 20
498.0421675574204
 30
0.0
 10
925.6962027324346
 20
495.4585215160624
 30
0.0
 10
925.2988335672259
 20
493.4406569552312
 30
0.0
 10
924.9944352382939
 20
492.3074035021564
 30
0.0
 10
924.9067911816651
 20
491.98111087708
 30
0.0
  0
ARC
  5
E9
330
1F
100
AcDbEntity
  8
0
  6
Continuous
 62
     7
370
    15
100
AcDbCircle
 10
923.8948284918
 20
490.7313041517
 30
0.0
 40
1.608131007224022
100
AcDbArc
 50
51.0030690504
 51
79.3931590623
  0
SPLINE
  5
EA
330
1F
100
AcDbEntity
  8
0
  6
Continuous
 62
     7
370
    15
100
AcDbSpline
210
0.0
220
0.0
230
1.0
 70
     8
 71
     3
 72
    14
 73
    10
 74
     0
 42
0.00000001
 43
0.00000001
 40
0.0
 40
0.0
 40
0.0
 40
0.0
 40
0.1575841594511691
 40
0.3151114740969549
 40
0.4729863741521029
 40
0.630855875406486
 40
0.7843616300299797
 40
0.9379121938636047
 40
1.0
 40
1.0
 40
1.0
 40
1.0
 10
924.9067911816651
 20
489.3697755101157
 30
0.0
 10
925.1182462033531
 20
489.3505063493836
 30
0.0
 10
925.5410799692685
 20
489.3119749788191
 30
0.0
 10
925.9163507859021
 20
488.7778430035623
 30
0.0
 10
926.0733245858304
 20
487.8758870474759
 30
0.0
 10
925.9992020119865
 20
486.6232992964034
 30
0.0
 10
925.6962024320774
 20
485.0618809086453
 30
0.0
 10
925.2988335197598
 20
483.6277166260099
 30
0.0
 10
924.994435238218
 20
482.716275737598
 30
0.0
 10
924.9067911816651
 20
482.4538485768271
 30
0.0
  0
LINE
  5
EB
330
1F
100
AcDbEntity
  8
0
  6
Continuous
 62
     7
370
    15
100
AcDbLine
 10
924.9067911817
 20
491.9811108771
 30
0.0
 11
924.9067911817
 21
489.3697755101
 31
0.0
  0
SPLINE
  5
EC
330
1F
100
AcDbEntity
  8
0
  6
Continuous
 62
     7
370
    15
100
AcDbSpline
210
0.0
220
0.0
230
1.0
 70
     8
 71
     3
 72
    14
 73
    10
 74
     0
 42
0.00000001
 43
0.00000001
 40
0.0
 40
0.0
 40
0.0
 40
0.0
 40
0.1575839514048435
 40
0.3151115397976713
 40
0.4729864036085669
 40
0.630855855889382
 40
0.7843617357945478
 40
0.9379123602941576
 40
1.0
 40
1.0
 40
1.0
 40
1.0
 10
924.9067911816651
 20
523.2393996479941
 30
0.0
 10
925.1182463073426
 20
522.4108226781186
 30
0.0
 10
925.5410809275963
 20
520.7539650952831
 30
0.0
 10
925.9163503061983
 20
518.3635085793728
 30
0.0
 10
926.0733247009742
 20
516.1411760345585
 30
0.0
 10
925.9992018955057
 20
514.165903069066
 30
0.0
 10
925.6962023333007
 20
512.5055613718649
 30
0.0
 10
925.2988343236342
 20
511.4234871463421
 30
0.0
 10
924.9944352688926
 20
510.9217870165471
 30
0.0
 10
924.9067911816651
 20
510.7773350241613
 30
0.0
  0
LINE
  5
ED
330
1F
100
AcDbEntity
  8
0
  6
Continuous
 62
     7
370
    15
100
AcDbLine
 10
924.9067911817
 20
524.6885822776
 30
0.0
 11
924.9067911817
 21
523.239399648
 31
0.0
  0
ARC
  5
EE
330
1F
100
AcDbEntity
  8
0
  6
Continuous
 62
     7
370
    15
100
AcDbCircle
 10
924.683562099
 20
521.8422588704
 30
0.0
 40
1.414861680778523
100
AcDbArc
 50
80.9222566986
 51
110.380376325
  0
LINE
  5
EF
330
1F
100
AcDbEntity
  8
0
  6
Continuous
 62
     7
370
    15
100
AcDbLine
 10
915.7683709575
 20
494.0735729101
 30
0.0
 11
915.7683709575
 21
505.8895827892
 31
0.0
  0
ARC
  5
F0
330
1F
100
AcDbEntity
  8
0
  6
Continuous
 62
     7
370
    15
100
AcDbCircle
 10
916.3430286941
 20
492.6371465195
 30
0.0
 40
1.547110949391444
100
AcDbArc
 50
83.0487555171
 51
111.8044072048
  0
SPLINE
  5
F1
330
1F
100
AcDbEntity
  8
0
  6
Continuous
 62
     7
370
    15
100
AcDbSpline
210
0.0
220
0.0
230
1.0
 70
     8
 71
     3
 72
    11
 73
     7
 74
     0
 42
0.00000001
 43
0.00000001
 40
0.0
 40
0.0
 40
0.0
 40
0.0
 40
0.3340922718784299
 40
0.6236912387502914
 40
0.9185146534046477
 40
1.0
 40
1.0
 40
1.0
 40
1.0
 10
924.9067911816651
 20
491.98111087708
 30
0.0
 10
924.6941429242554
 20
491.4562451739168
 30
0.0
 10
924.2971662018182
 20
490.4764136479051
 30
0.0
 10
923.1358637746598
 20
489.3936959385418
 30
0.0
 10
922.0637965892191
 20
488.8986343237095
 30
0.0
 10
921.4124305361917
 20
488.7720917644535
 30
0.0
 10
921.2713846875245
 20
488.7446904244853
 30
0.0
  0
SPLINE
  5
F2
330
1F
100
AcDbEntity
  8
0
  6
Continuous
 62
     7
370
    15
100
AcDbSpline
210
0.0
220
0.0
230
1.0
 70
     8
 71
     3
 72
    11
 73
     7
 74
     0
 42
0.00000001
 43
0.00000001
 40
0.0
 40
0.0
 40
0.0
 40
0.0
 40
0.0091388782092148
 40
0.5000000496774032
 40
0.9908518760025061
 40
0.9999999999999999
 40
0.9999999999999999
 40
0.9999999999999999
 40
0.9999999999999999
 10
921.2713846875245
 20
488.7446904244853
 30
0.0
 10
921.2666118185072
 20
488.7441859204886
 30
0.0
 10
921.00548187552
 20
488.7165838431224
 30
0.0
 10
920.4796425649562
 20
488.6901763715251
 30
0.0
 10
919.9538132218253
 20
488.7166118268813
 30
0.0
 10
919.692675728905
 20
488.7441859219534
 30
0.0
 10
919.687897892099
 20
488.7446904244853
 30
0.0
  0
SPLINE
  5
F3
330
1F
100
AcDbEntity
  8
0
  6
Continuous
 62
     7
370
    15
100
AcDbSpline
210
0.0
220
0.0
230
1.0
 70
     8
 71
     3
 72
    12
 73
     8
 74
     0
 42
0.00000001
 43
0.00000001
 40
0.0
 40
0.0
 40
0.0
 40
0.0
 40
0.1136356199733175
 40
0.300843619735246
 40
0.4919219116585641
 40
0.6964444010058679
 40
1.0
 40
1.0
 40
1.0
 40
1.0
 10
919.687897892099
 20
488.7446904244853
 30
0.0
 10
919.411143411986
 20
488.8057600855578
 30
0.0
 10
918.6784522048217
 20
488.9674384210775
 30
0.0
 10
917.6074622640349
 20
489.5624804885021
 30
0.0
 10
916.6403603058612
 20
490.5791390377507
 30
0.0
 10
915.8987243554222
 20
492.0916409537179
 30
0.0
 10
915.8171238670848
 20
493.3323191258302
 30
0.0
 10
915.7683709574753
 20
494.0735729101134
 30
0.0
  0
SPLINE
  5
F4
330
1F
100
AcDbEntity
  8
0
  6
Continuous
 62
     7
370
    15
100
AcDbSpline
210
0.0
220
0.0
230
1.0
 70
     8
 71
     3
 72
    12
 73
     8
 74
     0
 42
0.00000001
 43
0.00000001
 40
0.0
 40
0.0
 40
0.0
 40
0.0
 40
0.291731622068609
 40
0.5225561438647313
 40
0.7611462844464133
 40
0.9714509781262469
 40
1.0
 40
1.0
 40
1.0
 40
1.0
 10
915.7683709574753
 20
489.4743853869868
 30
0.0
 10
915.813547163971
 20
489.4545653742408
 30
0.0
 10
915.8944677857858
 20
489.4190633283588
 30
0.0
 10
916.7024485467599
 20
489.1578451025526
 30
0.0
 10
917.9139292115484
 20
488.9025132761763
 30
0.0
 10
919.0328799169861
 20
488.7780041504752
 30
0.0
 10
919.6179654647832
 20
488.7482471356137
 30
0.0
 10
919.687897892099
 20
488.7446904244853
 30
0.0
  0
LINE
  5
F5
330
1F
100
AcDbEntity
  8
0
  6
Continuous
 62
     7
370
    15
100
AcDbLine
 10
915.7683709575
 20
494.0735729101
 30
0.0
 11
915.7683709575
 21
489.474385387
 31
0.0
  0
ARC
  5
F6
330
1F
100
AcDbEntity
  8
0
  6
Continuous
 62
     7
370
    15
100
AcDbCircle
 10
924.1862314332
 20
489.5220123584
 30
0.0
 40
0.7364661629009439
100
AcDbArc
 50
270.3581587652
 51
348.0702275489
  0
ARC
  5
F7
330
1F
100
AcDbEntity
  8
0
  6
Continuous
 62
     7
370
    15
100
AcDbCircle
 10
916.5286091262
 20
489.4760613576
 30
0.0
 40
0.760240016072434
100
AcDbArc
 50
180.1263102708
 51
270.1249712123
  0
SPLINE
  5
F8
330
1F
100
AcDbEntity
  8
0
  6
Continuous
 62
     7
370
    15
100
AcDbSpline
210
0.0
220
0.0
230
1.0
 70
     8
 71
     3
 72
    11
 73
     7
 74
     0
 42
0.00000001
 43
0.00000001
 40
0.0
 40
0.0
 40
0.0
 40
0.0
 40
0.1990396499973586
 40
0.4636327019769881
 40
0.7350872920701149
 40
1.0
 40
1.0
 40
1.0
 40
1.0
 10
921.2713846875245
 20
488.7446904244853
 30
0.0
 10
921.6144397140928
 20
488.7672806707144
 30
0.0
 10
922.4135344115398
 20
488.8199012259539
 30
0.0
 10
923.5072976668821
 20
488.9935102444428
 30
0.0
 10
924.4210416511585
 20
489.2094286520229
 30
0.0
 10
924.7461966048054
 20
489.3167629301563
 30
0.0
 10
924.9067911816651
 20
489.3697755101157
 30
0.0
  0
LWPOLYLINE
  5
F9
330
1F
100
AcDbEntity
  8
0
  6
Continuous
 62
     7
370
    15
100
AcDbPolyline
 90
        9
 70
   128
 43
0.0
 10
916.5302673293
 20
521.3386596802
 10
916.3816282464
 20
521.3340850237
 10
916.2387112094
 20
521.320524967
 10
916.1069849444
 20
521.2985010508
 10
915.9915307475
 20
521.2688700917
 10
915.8967742635
 20
521.2327645781
 10
915.8263662768
 20
521.191570318
 10
915.7830038978
 20
521.1468668344
 10
915.7683709575
 20
521.1003826621
  0
LINE
  5
FA
330
1F
100
AcDbEntity
  8
0
  6
Continuous
 62
     7
370
    15
100
AcDbLine
 10
915.7683709575
 20
511.6246746543
 30
0.0
 11
915.7683709575
 21
521.1003826621
 31
0.0
  0
LINE
  5
FB
330
1F
100
AcDbEntity
  8
0
  6
Continuous
 62
     7
370
    15
100
AcDbLine
 10
924.2709437324
 20
488.7676382127
 30
0.0
 11
924.1908350898
 21
488.7855605843
 31
0.0
  0
SPLINE
  5
FC
330
1F
100
AcDbEntity
  8
0
  6
Continuous
 62
     7
370
    15
100
AcDbSpline
210
0.0
220
0.0
230
1.0
 70
     8
 71
     3
 72
    16
 73
    12
 74
     0
 42
0.00000001
 43
0.00000001
 40
0.0
 40
0.0
 40
0.0
 40
0.0
 40
0.1632156982378317
 40
0.2700791037389225
 40
0.3688074135662278
 40
0.465414178926101
 40
0.5626669380135638
 40
0.663003666762527
 40
0.7707092376220015
 40
0.8765173779017916
 40
1.0
 40
1.0
 40
1.0
 40
1.0
 10
916.5302673293168
 20
483.6870873036814
 30
0.0
 10
916.5689137058142
 20
483.1910593183004
 30
0.0
 10
916.6328633064956
 20
482.370263309292
 30
0.0
 10
917.2568247316406
 20
481.2253737352889
 30
0.0
 10
918.0710469825149
 20
480.4231360756023
 30
0.0
 10
919.108335407024
 20
479.8803738321668
 30
0.0
 10
920.2930589205345
 20
479.6502701319241
 30
0.0
 10
921.5463092254819
 20
479.7772976323458
 30
0.0
 10
922.706252718855
 20
480.2871206611457
 30
0.0
 10
923.6850007010473
 20
481.1548500261619
 30
0.0
 10
924.0137759367492
 20
481.8670918935017
 30
0.0
 10
924.1908350897843
 20
482.2506637933684
 30
0.0
  0
LINE
  5
FD
330
1F
100
AcDbEntity
  8
0
  6
Continuous
 62
     7
370
    15
100
AcDbLine
 10
916.5302673293
 20
488.71582315
 30
0.0
 11
916.5302673293
 21
483.6870873037
 31
0.0
  0
ARC
  5
FE
330
1F
100
AcDbEntity
  8
0
  6
Continuous
 62
     7
370
    15
100
AcDbCircle
 10
924.4165277439
 20
482.8183862294
 30
0.0
 40
0.6109385717860454
100
AcDbArc
 50
248.3201759208
 51
323.3671814101
  0
ARC
  5
FF
330
1F
100
AcDbEntity
  8
0
  6
Continuous
 62
     7
370
    15
100
AcDbCircle
 10
916.4315141416
 20
484.3581063104
 30
0.0
 40
0.6782467836435466
100
AcDbArc
 50
192.1141578192
 51
278.3720643336
  0
LINE
  5
100
330
1F
100
AcDbEntity
  8
0
  6
Continuous
 62
     7
370
    15
100
AcDbLine
 10
915.7683709575
 20
484.215769327
 30
0.0
 11
915.7683709575
 21
489.474385387
 31
0.0
  0
SPLINE
  5
101
330
1F
100
AcDbEntity
  8
0
  6
Continuous
 62
     7
370
    15
100
AcDbSpline
210
0.0
220
0.0
230
1.0
 70
     8
 71
     3
 72
    11
 73
     7
 74
     0
 42
0.00000001
 43
0.00000001
 40
0.0
 40
0.0
 40
0.0
 40
0.0
 40
0.1990396022549023
 40
0.4636327430448393
 40
0.735087006530643
 40
1.0
 40
1.0
 40
1.0
 40
1.0
 10
921.2713846875245
 20
526.7540098789167
 30
0.0
 10
921.614439777581
 20
526.6640254297572
 30
0.0
 10
922.4135348853714
 20
526.4544202229413
 30
0.0
 10
923.5072965172815
 20
525.6954458004998
 30
0.0
 10
924.4210427509046
 20
524.5762183064614
 30
0.0
 10
924.7461968442936
 20
523.6813681507155
 30
0.0
 10
924.9067911816651
 20
523.239399647994
 30
0.0
  0
SPLINE
  5
102
330
1F
100
AcDbEntity
  8
0
  6
Continuous
 62
     7
370
    15
100
AcDbSpline
210
0.0
220
0.0
230
1.0
 70
     8
 71
     3
 72
    12
 73
     8
 74
     0
 42
0.00000001
 43
0.00000001
 40
0.0
 40
0.0
 40
0.0
 40
0.0
 40
0.2917317801072279
 40
0.522556101618799
 40
0.7611462372403631
 40
0.9714510020703523
 40
1.0
 40
1.0
 40
1.0
 40
1.0
 10
915.7683709574753
 20
521.1003826621007
 30
0.0
 10
915.8135470056487
 20
521.8203572321124
 30
0.0
 10
915.8944672934948
 20
523.1099908278476
 30
0.0
 10
916.7024489436492
 20
524.8758753779655
 30
0.0
 10
917.9139297665358
 20
526.1201341169416
 30
0.0
 10
919.0328792595703
 20
526.6210891596514
 30
0.0
 10
919.6179654593309
 20
526.7398187264795
 30
0.0
 10
919.687897892099
 20
526.7540098789168
 30
0.0
  0
SPLINE
  5
103
330
1F
100
AcDbEntity
  8
0
  6
Continuous
 62
     7
370
    15
100
AcDbSpline
210
0.0
220
0.0
230
1.0
 70
     8
 71
     3
 72
    11
 73
     7
 74
     0
 42
0.00000001
 43
0.00000001
 40
0.0
 40
0.0
 40
0.0
 40
0.0
 40
0.0091483254061713
 40
0.499999950218859
 40
0.990860920166521
 40
1.0
 40
1.0
 40
1.0
 40
1.0
 10
919.687897892099
 20
526.7540098789167
 30
0.0
 10
919.6926757279041
 20
526.7547398586677
 30
0.0
 10
919.9538074168895
 20
526.7946367603334
 30
0.0
 10
920.4796425592979
 20
526.8327421318637
 30
0.0
 10
921.0054876922532
 20
526.7946772472417
 30
0.0
 10
921.2666118195087
 20
526.7547398607707
 30
0.0
 10
921.2713846875245
 20
526.7540098789167
 30
0.0
  0
SPLINE
  5
104
330
1F
100
AcDbEntity
  8
0
  6
Continuous
 62
     7
370
    15
100
AcDbSpline
210
0.0
220
0.0
230
1.0
 70
     8
 71
     3
 72
    12
 73
     8
 74
     0
 42
0.00000001
 43
0.00000001
 40
0.0
 40
0.0
 40
0.0
 40
0.0
 40
0.1136355179096347
 40
0.3008434375786587
 40
0.4919219570760481
 40
0.6964446162286667
 40
1.0
 40
1.0
 40
1.0
 40
1.0
 10
919.687897892099
 20
526.7540098789167
 30
0.0
 10
919.4111434050789
 20
526.7096512758066
 30
0.0
 10
918.6784519651835
 20
526.5922144489119
 30
0.0
 10
917.6074612083596
 20
526.1706759004946
 30
0.0
 10
916.6403606415668
 20
525.5029271020319
 30
0.0
 10
915.8987247403411
 20
524.5923812350909
 30
0.0
 10
915.8171239921364
 20
524.0041681989138
 30
0.0
 10
915.7683709574753
 20
523.6527355077695
 30
0.0
  0
LINE
  5
105
330
1F
100
AcDbEntity
  8
0
  6
Continuous
 62
     7
370
    15
100
AcDbLine
 10
915.7683709575
 20
523.6527355078
 30
0.0
 11
915.7683709575
 21
521.1003826621
 31
0.0
  0
SPLINE
  5
106
330
1F
100
AcDbEntity
  8
0
  6
Continuous
 62
     7
370
    15
100
AcDbSpline
210
0.0
220
0.0
230
1.0
 70
     8
 71
     3
 72
    11
 73
     7
 74
     0
 42
0.00000001
 43
0.00000001
 40
0.0
 40
0.0
 40
0.0
 40
0.0
 40
0.334092297208581
 40
0.6236915173625225
 40
0.9185145592816366
 40
1.0
 40
1.0
 40
1.0
 40
1.0
 10
924.9067911816651
 20
524.6885822775793
 30
0.0
 10
924.6941426898634
 20
524.9915887530607
 30
0.0
 10
924.2971653826197
 20
525.5572485124823
 30
0.0
 10
923.1358659132171
 20
526.2885238450523
 30
0.0
 10
922.0637951003297
 20
526.6420075979498
 30
0.0
 10
921.4124304909374
 20
526.7340739322814
 30
0.0
 10
921.2713846875245
 20
526.7540098789168
 30
0.0
  0
LWPOLYLINE
  5
107
330
1F
100
AcDbEntity
  8
0
  6
Continuous
 62
     7
370
    15
100
AcDbPolyline
 90
        3
 70
   128
 43
0.0
 10
924.9067911817
 20
524.6885822776
 10
924.8687932206
 20
524.7921527985
 10
924.8269060565
 20
524.8648630145
  0
LINE
  5
108
330
1F
100
AcDbEntity
  8
0
  6
Continuous
 62
     7
370
    15
100
AcDbLine
 10
896.7683622552
 20
514.790158129
 30
0.0
 11
896.7683622552
 21
493.7901565495
 31
0.0
  0
LINE
  5
109
330
1F
100
AcDbEntity
  8
0
  6
Continuous
 62
     7
370
    15
100
AcDbLine
 10
896.2995568229
 20
508.4781603578
 30
0.0
 11
896.2995568229
 21
500.1021580461
 31
0.0
  0
LINE
  5
10A
330
1F
100
AcDbEntity
  8
0
  6
Continuous
 62
     7
370
    15
100
AcDbLine
 10
895.9300527288
 20
508.4781603578
 30
0.0
 11
895.9300527288
 21
500.1021580461
 31
0.0
  0
LINE
  5
10B
330
1F
100
AcDbEntity
  8
0
  6
Continuous
 62
     7
370
    15
100
AcDbLine
 10
895.4612472964
 20
509.2901618841
 30
0.0
 11
895.4612472964
 21
499.2901565197
 31
0.0
  0
LINE
  5
10C
330
1F
100
AcDbEntity
  8
0
  6
Continuous
 62
     7
370
    15
100
AcDbLine
 10
894.7683731032
 20
509.2901618841
 30
0.0
 11
894.7683731032
 21
499.2901565197
 31
0.0
  0
LINE
  5
10D
330
1F
100
AcDbEntity
  8
0
  6
Continuous
 62
     7
370
    15
100
AcDbLine
 10
891.9300595237
 20
508.4781603578
 30
0.0
 11
891.9300595237
 21
500.1021580461
 31
0.0
  0
LINE
  5
10E
330
1F
100
AcDbEntity
  8
0
  6
Continuous
 62
     7
370
    15
100
AcDbLine
 10
891.4612540914
 20
509.2901618841
 30
0.0
 11
891.4612540914
 21
499.2901565197
 31
0.0
  0
LINE
  5
10F
330
1F
100
AcDbEntity
  8
0
  6
Continuous
 62
     7
370
    15
100
AcDbLine
 10
892.7683690501
 20
509.2901618841
 30
0.0
 11
892.7683690501
 21
499.2901565197
 31
0.0
  0
LINE
  5
110
330
1F
100
AcDbEntity
  8
0
  6
Continuous
 62
     7
370
    15
100
AcDbLine
 10
893.4612432433
 20
509.2901618841
 30
0.0
 11
893.4612432433
 21
499.2901565197
 31
0.0
  0
LINE
  5
111
330
1F
100
AcDbEntity
  8
0
  6
Continuous
 62
     7
370
    15
100
AcDbLine
 10
888.7683609439
 20
509.2901618841
 30
0.0
 11
888.7683609439
 21
499.2901565197
 31
0.0
  0
LINE
  5
112
330
1F
100
AcDbEntity
  8
0
  6
Continuous
 62
     7
370
    15
100
AcDbLine
 10
889.4612500382
 20
509.2901618841
 30
0.0
 11
889.4612500382
 21
499.2901565197
 31
0.0
  0
LINE
  5
113
330
1F
100
AcDbEntity
  8
0
  6
Continuous
 62
     7
370
    15
100
AcDbLine
 10
889.9300554706
 20
508.4781603578
 30
0.0
 11
889.9300554706
 21
500.1021580461
 31
0.0
  0
LINE
  5
114
330
1F
100
AcDbEntity
  8
0
  6
Continuous
 62
     7
370
    15
100
AcDbLine
 10
893.9300486756
 20
508.4781603578
 30
0.0
 11
893.9300486756
 21
500.1021580461
 31
0.0
  0
LINE
  5
115
330
1F
100
AcDbEntity
  8
0
  6
Continuous
 62
     7
370
    15
100
AcDbLine
 10
892.2995636178
 20
508.4781603578
 30
0.0
 11
892.2995636178
 21
500.1021580461
 31
0.0
  0
LINE
  5
116
330
1F
100
AcDbEntity
  8
0
  6
Continuous
 62
     7
370
    15
100
AcDbLine
 10
894.2995527698
 20
508.4781603578
 30
0.0
 11
894.2995527698
 21
500.1021580461
 31
0.0
  0
LINE
  5
117
330
1F
100
AcDbEntity
  8
0
  6
Continuous
 62
     7
370
    15
100
AcDbLine
 10
890.768364997
 20
509.2901618841
 30
0.0
 11
890.768364997
 21
499.2901565197
 31
0.0
  0
LINE
  5
118
330
1F
100
AcDbEntity
  8
0
  6
Continuous
 62
     7
370
    15
100
AcDbLine
 10
888.2995555116
 20
508.4781603578
 30
0.0
 11
888.2995555116
 21
500.1021580461
 31
0.0
  0
LINE
  5
119
330
1F
100
AcDbEntity
  8
0
  6
Continuous
 62
     7
370
    15
100
AcDbLine
 10
890.2995595647
 20
508.4781603578
 30
0.0
 11
890.2995595647
 21
500.1021580461
 31
0.0
  0
LINE
  5
11A
330
1F
100
AcDbEntity
  8
0
  6
Continuous
 62
     7
370
    15
100
AcDbLine
 10
876.7683664275
 20
509.2901618841
 30
0.0
 11
876.7683664275
 21
499.2901565197
 31
0.0
  0
LINE
  5
11B
330
1F
100
AcDbEntity
  8
0
  6
Continuous
 62
     7
370
    15
100
AcDbLine
 10
877.4612406207
 20
509.2901618841
 30
0.0
 11
877.4612406207
 21
499.2901565197
 31
0.0
  0
LINE
  5
11C
330
1F
100
AcDbEntity
  8
0
  6
Continuous
 62
     7
370
    15
100
AcDbLine
 10
876.2995609952
 20
508.4781603578
 30
0.0
 11
876.2995609952
 21
500.1021580461
 31
0.0
  0
LINE
  5
11D
330
1F
100
AcDbEntity
  8
0
  6
Continuous
 62
     7
370
    15
100
AcDbLine
 10
877.9300609542
 20
508.4781603578
 30
0.0
 11
877.9300609542
 21
500.1021580461
 31
0.0
  0
LINE
  5
11E
330
1F
100
AcDbEntity
  8
0
  6
Continuous
 62
     7
370
    15
100
AcDbLine
 10
875.5736658288
 20
509.0954484108
 30
0.0
 11
875.5736658288
 21
499.4848662677
 31
0.0
  0
LINE
  5
11F
330
1F
100
AcDbEntity
  8
0
  6
Continuous
 62
     7
370
    15
100
AcDbLine
 10
875.9300569011
 20
508.4781603578
 30
0.0
 11
875.9300569011
 21
500.1021580461
 31
0.0
  0
SPLINE
  5
120
330
1F
100
AcDbEntity
  8
0
  6
Continuous
 62
     7
370
    15
100
AcDbSpline
210
0.0
220
0.0
230
1.0
 70
     8
 71
     3
 72
    11
 73
     7
 74
     0
 42
0.00000001
 43
0.00000001
 40
0.0
 40
0.0
 40
0.0
 40
0.0
 40
0.334092202409664
 40
0.623691224309362
 40
0.9185146210415582
 40
1.0
 40
1.0
 40
1.0
 40
1.0
 10
924.9067911816651
 20
482.4538485768271
 30
0.0
 10
924.6941428556061
 20
481.9772694546824
 30
0.0
 10
924.2971659316596
 20
481.0875802789791
 30
0.0
 10
923.135864065667
 20
480.0192933530089
 30
0.0
 10
922.0637963097623
 20
479.5154898892617
 30
0.0
 10
921.4124305280478
 20
479.3853451287727
 30
0.0
 10
921.2713846875245
 20
479.3571637633277
 30
0.0
  0
SPLINE
  5
121
330
1F
100
AcDbEntity
  8
0
  6
Continuous
 62
     7
370
    15
100
AcDbSpline
210
0.0
220
0.0
230
1.0
 70
     8
 71
     3
 72
    11
 73
     7
 74
     0
 42
0.00000001
 43
0.00000001
 40
0.0
 40
0.0
 40
0.0
 40
0.0
 40
0.0091389973422818
 40
0.5000000497386878
 40
0.9908517569988098
 40
1.0
 40
1.0
 40
1.0
 40
1.0
 10
921.2713846875245
 20
479.3571637633277
 30
0.0
 10
921.266611819099
 20
479.3563540610342
 30
0.0
 10
921.005485312465
 20
479.31205476081
 30
0.0
 10
920.4796425615833
 20
479.2697523288662
 30
0.0
 10
919.9538097919082
 20
479.3120996709746
 30
0.0
 10
919.6926757283136
 20
479.356354063376
 30
0.0
 10
919.687897892099
 20
479.3571637633277
 30
0.0
  0
SPLINE
  5
122
330
1F
100
AcDbEntity
  8
0
  6
Continuous
 62
     7
370
    15
100
AcDbSpline
210
0.0
220
0.0
230
1.0
 70
     8
 71
     3
 72
    12
 73
     8
 74
     0
 42
0.00000001
 43
0.00000001
 40
0.0
 40
0.0
 40
0.0
 40
0.0
 40
0.1136354924957691
 40
0.3008435289551689
 40
0.4919219698896261
 40
0.6964444685016451
 40
1.0
 40
1.0
 40
1.0
 40
1.0
 10
919.687897892099
 20
479.3571637633277
 30
0.0
 10
919.4111433526626
 20
479.4199150389477
 30
0.0
 10
918.6784513875923
 20
479.5860454863051
 30
0.0
 10
917.6074620056307
 20
480.1889140319415
 30
0.0
 10
916.6403606872801
 20
481.1768613822034
 30
0.0
 10
915.8987243465098
 20
482.5801867462182
 30
0.0
 10
915.8171238604633
 20
483.6040522133672
 30
0.0
 10
915.7683709574753
 20
484.2157693269683
 30
0.0
  0
LINE
  5
123
330
1F
100
AcDbEntity
  8
0
  6
Continuous
 62
     7
370
    15
100
AcDbLine
 10
915.7683709575
 20
484.215769327
 30
0.0
 11
915.7683709575
 21
484.0014347496
 31
0.0
  0
LINE
  5
124
330
1F
100
AcDbEntity
  8
0
  6
Continuous
 62
     7
370
    15
100
AcDbLine
 10
916.7131045772
 20
488.7638197902
 30
0.0
 11
916.7361268712
 21
488.769862211
 31
0.0
  0
LINE
  5
125
330
1F
100
AcDbEntity
  8
0
  6
Continuous
 62
     7
370
    15
100
AcDbLine
 10
868.7683651162
 20
410.4078052255
 30
0.0
 11
871.7683711959
 21
410.4078052255
 31
0.0
  0
LINE
  5
126
330
1F
100
AcDbEntity
  8
0
  6
Continuous
 62
     7
370
    15
100
AcDbLine
 10
868.7683651162
 20
511.2901584866
 30
0.0
 11
868.7683651162
 21
410.4078052255
 31
0.0
  0
LINE
  5
127
330
1F
100
AcDbEntity
  8
0
  6
Continuous
 62
     7
370
    15
100
AcDbLine
 10
871.7683711959
 20
511.2901584866
 30
0.0
 11
871.7683711959
 21
410.4078052255
 31
0.0
  0
LINE
  5
128
330
1F
100
AcDbEntity
  8
0
  6
Continuous
 62
     7
370
    15
100
AcDbLine
 10
871.7683711959
 20
409.2901566687
 30
0.0
 11
868.7683651162
 21
409.2901566687
 31
0.0
  0
LINE
  5
129
330
1F
100
AcDbEntity
  8
0
  6
Continuous
 62
     7
370
    15
100
AcDbLine
 10
868.7683651162
 20
409.2901566687
 30
0.0
 11
868.7683651162
 21
410.4078052255
 31
0.0
  0
LINE
  5
12A
330
1F
100
AcDbEntity
  8
0
  6
Continuous
 62
     7
370
    15
100
AcDbLine
 10
871.7683711959
 20
410.4078052255
 30
0.0
 11
871.7683711959
 21
409.2901566687
 31
0.0
  0
LINE
  5
12B
330
1F
100
AcDbEntity
  8
0
  6
Continuous
 62
     7
370
    15
100
AcDbLine
 10
515.818373294
 20
421.8901576164
 30
0.0
 11
515.818373294
 21
460.6901587608
 31
0.0
  0
LINE
  5
12C
330
1F
100
AcDbEntity
  8
0
  6
Continuous
 62
     7
370
    15
100
AcDbLine
 10
512.3183736516
 20
460.6901587608
 30
0.0
 11
512.3183736516
 21
421.8901576164
 31
0.0
  0
LINE
  5
12D
330
1F
100
AcDbEntity
  8
0
  6
Continuous
 62
     7
370
    15
100
AcDbLine
 10
508.3183655454
 20
425.8901582721
 30
0.0
 11
508.3183655454
 21
456.6901581052
 31
0.0
  0
LINE
  5
12E
330
1F
100
AcDbEntity
  8
0
  6
Continuous
 62
     7
370
    15
100
AcDbLine
 10
517.8183624459
 20
455.1901578593
 30
0.0
 11
517.8183624459
 21
427.3901585179
 31
0.0
  0
LINE
  5
12F
330
1F
100
AcDbEntity
  8
0
  6
Continuous
 62
     7
370
    15
100
AcDbLine
 10
876.2183645679
 20
616.2901552084
 30
0.0
 11
879.2183706475
 21
616.2901552084
 31
0.0
  0
LINE
  5
130
330
1F
100
AcDbEntity
  8
0
  6
Continuous
 62
     7
370
    15
100
AcDbLine
 10
887.2183719588
 20
616.2901552084
 30
0.0
 11
890.2183631373
 21
616.2901552084
 31
0.0
  0
LINE
  5
131
330
1F
100
AcDbEntity
  8
0
  6
Continuous
 62
     7
370
    15
100
AcDbLine
 10
879.2183706475
 20
616.2901552084
 30
0.0
 11
887.2183719588
 21
616.2901552084
 31
0.0
  0
LINE
  5
132
330
1F
100
AcDbEntity
  8
0
  6
Continuous
 62
     7
370
    15
100
AcDbLine
 10
870.3560093356
 20
736.2901450756
 30
0.0
 11
896.0807183696
 21
736.2901450756
 31
0.0
  0
SPLINE
  5
133
330
1F
100
AcDbEntity
  8
0
  6
Continuous
 62
     7
370
    15
100
AcDbSpline
210
0.0
220
0.0
230
1.0
 70
     8
 71
     3
 72
    16
 73
    12
 74
     0
 42
0.00000001
 43
0.00000001
 40
0.0
 40
0.0
 40
0.0
 40
0.0
 40
0.1250000000000001
 40
0.1250000000000001
 40
0.2500000000000002
 40
0.2500000000000002
 40
0.5000000000000001
 40
0.5000000000000001
 40
0.75
 40
0.75
 40
1.0
 40
1.0
 40
1.0
 40
1.0
 10
569.9248659041614
 20
453.5616481041972
 30
0.0
 10
569.9195010025034
 20
453.5075056801869
 30
0.0
 10
569.9398494937897
 20
453.4445894771129
 30
0.0
 10
570.0209379969061
 20
453.3021351413951
 30
0.0
 10
570.0822819065017
 20
453.2220663683419
 30
0.0
 10
570.3136794493876
 20
452.9615203377558
 30
0.0
 10
570.5270725129955
 20
452.7636377525369
 30
0.0
 10
571.0243928647068
 20
452.3260021319517
 30
0.0
 10
571.3097254021975
 20
452.0856725218446
 30
0.0
 10
571.908725450941
 20
451.5740250688584
 30
0.0
 10
572.225334934724
 20
451.3003728569045
 30
0.0
 10
572.5431789383415
 20
451.0088480231014
 30
0.0
  0
LINE
  5
134
330
1F
100
AcDbEntity
  8
0
  6
Continuous
 62
     7
370
    15
100
AcDbLine
 10
591.3183698369
 20
451.0088482562
 30
0.0
 11
572.5431824041
 21
451.0088482562
 31
0.0
  0
SPLINE
  5
135
330
1F
100
AcDbEntity
  8
0
  6
Continuous
 62
     7
370
    15
100
AcDbSpline
210
0.0
220
0.0
230
1.0
 70
     8
 71
     3
 72
     8
 73
     4
 74
     0
 42
0.00000001
 43
0.00000001
 40
0.0
 40
0.0
 40
0.0
 40
0.0
 40
0.0000226150302116
 40
0.0000226150302116
 40
0.0000226150302116
 40
0.0000226150302116
 10
591.3197455066921
 20
450.9946131509146
 30
0.0
 10
591.3197606423406
 20
450.9993645152609
 30
0.0
 10
591.3199243172087
 20
451.0041113269131
 30
0.0
 10
591.3202371605752
 20
451.0088480231014
 30
0.0
  0
SPLINE
  5
136
330
1F
100
AcDbEntity
  8
0
  6
Continuous
 62
     7
370
    15
100
AcDbSpline
210
0.0
220
0.0
230
1.0
 70
    24
 71
     3
 72
    22
 73
    18
 74
     0
 42
0.00000001
 43
0.00000001
 40
0.0
 40
0.0
 40
0.0
 40
0.0
 40
0.125
 40
0.125
 40
0.2500000000000001
 40
0.2500000000000001
 40
0.3750000000000001
 40
0.3750000000000001
 40
0.5000000000000001
 40
0.5000000000000001
 40
0.6250000000000001
 40
0.6250000000000001
 40
0.7500000000000002
 40
0.7500000000000002
 40
0.8750000000000001
 40
0.8750000000000001
 40
1.0
 40
1.0
 40
1.0
 40
1.0
 10
591.3183680964523
 20
431.5857014821007
 30
0.0
 10
591.3183680964524
 20
432.1692910128996
 30
0.0
 10
591.3183680964523
 20
432.8330516025896
 30
0.0
 10
591.3183680964523
 20
434.2883793803751
 30
0.0
 10
591.3183680964523
 20
435.0798875632489
 30
0.0
 10
591.3183680964523
 20
436.7517952002436
 30
0.0
 10
591.3183680964523
 20
437.6321268680679
 30
0.0
 10
591.3183680964524
 20
439.4383947293693
 30
0.0
 10
591.3183680964523
 20
440.3642576890109
 30
0.0
 10
591.3183680964523
 20
442.216058688238
 30
0.0
 10
591.3183680964523
 20
443.1419216478795
 30
0.0
 10
591.3183680964523
 20
444.948189509181
 30
0.0
 10
591.3183680964524
 20
445.8285211770052
 30
0.0
 10
591.3183680964523
 20
447.500428814
 30
0.0
 10
591.3183680964523
 20
448.2919369968737
 30
0.0
 10
591.3183680964523
 20
449.7472647746592
 30
0.0
 10
591.3183680964523
 20
450.4110253643493
 30
0.0
 10
591.3183680964523
 20
450.9946148951482
 30
0.0
  0
SPLINE
  5
137
330
1F
100
AcDbEntity
  8
0
  6
Continuous
 62
     7
370
    15
100
AcDbSpline
210
0.0
220
0.0
230
1.0
 70
     8
 71
     3
 72
     8
 73
     4
 74
     0
 42
0.00000001
 43
0.00000001
 40
0.0
 40
0.0
 40
0.0
 40
0.0
 40
0.0000226150302117
 40
0.0000226150302117
 40
0.0000226150302117
 40
0.0000226150302117
 10
591.3202371605752
 20
431.5714683541475
 30
0.0
 10
591.3199243172087
 20
431.5762050503358
 30
0.0
 10
591.3197606423406
 20
431.580951861988
 30
0.0
 10
591.3197455066921
 20
431.5857032263344
 30
0.0
  0
LINE
  5
138
330
1F
100
AcDbEntity
  8
0
  6
Continuous
 62
     7
370
    15
100
AcDbLine
 10
572.5431824041
 20
431.5714681211
 30
0.0
 11
591.3183698369
 21
431.5714681211
 31
0.0
  0
SPLINE
  5
139
330
1F
100
AcDbEntity
  8
0
  6
Continuous
 62
     7
370
    15
100
AcDbSpline
210
0.0
220
0.0
230
1.0
 70
     8
 71
     3
 72
    16
 73
    12
 74
     0
 42
0.00000001
 43
0.00000001
 40
0.0
 40
0.0
 40
0.0
 40
0.0
 40
0.125
 40
0.125
 40
0.25
 40
0.25
 40
0.5
 40
0.5
 40
0.75
 40
0.75
 40
1.0
 40
1.0
 40
1.0
 40
1.0
 10
569.9248659041614
 20
429.0186682730517
 30
0.0
 10
569.9195010025034
 20
429.072810697062
 30
0.0
 10
569.9398494937897
 20
429.1357269001361
 30
0.0
 10
570.020937996906
 20
429.2781812358538
 30
0.0
 10
570.0822819065019
 20
429.358250008907
 30
0.0
 10
570.3136794493876
 20
429.6187960394931
 30
0.0
 10
570.5270725129955
 20
429.816678624712
 30
0.0
 10
571.0243928647068
 20
430.2543142452973
 30
0.0
 10
571.3097254021975
 20
430.4946438554043
 30
0.0
 10
571.908725450941
 20
431.0062913083905
 30
0.0
 10
572.2253349347176
 20
431.2799435203472
 30
0.0
 10
572.5431789383415
 20
431.5714683541475
 30
0.0
  0
LINE
  5
13A
330
1F
100
AcDbEntity
  8
0
  6
Continuous
 62
     7
370
    15
100
AcDbLine
 10
569.3183699561
 20
453.0032913822
 30
0.0
 11
569.3183699561
 21
429.5770249951
 31
0.0
  0
SPLINE
  5
13B
330
1F
100
AcDbEntity
  8
0
  6
Continuous
 62
     7
370
    15
100
AcDbSpline
210
0.0
220
0.0
230
1.0
 70
     8
 71
     3
 72
     8
 73
     4
 74
     0
 42
0.00000001
 43
0.00000001
 40
0.0
 40
0.0
 40
0.0
 40
0.0
 40
0.0000226150302117
 40
0.0000226150302117
 40
0.0000226150302117
 40
0.0000226150302117
 10
796.2169906862127
 20
431.5857032263344
 30
0.0
 10
796.2169755505641
 20
431.580951861988
 30
0.0
 10
796.2168118756961
 20
431.5762050503358
 30
0.0
 10
796.2164990323296
 20
431.5714683541475
 30
0.0
  0
SPLINE
  5
13C
330
1F
100
AcDbEntity
  8
0
  6
Continuous
 62
     7
370
    15
100
AcDbSpline
210
0.0
220
0.0
230
1.0
 70
    24
 71
     3
 72
    14
 73
    10
 74
     0
 42
0.00000001
 43
0.00000001
 40
0.1393700509402428
 40
0.1393700509402428
 40
0.1393700509402428
 40
0.1393700509402428
 40
0.2500000000000002
 40
0.3750000000000001
 40
0.5000000000000003
 40
0.5000000000000003
 40
0.6250000000000002
 40
0.7500000000000002
 40
0.8606299490597575
 40
0.8606299490597575
 40
0.8606299490597575
 40
0.8606299490597575
 10
796.2183680964523
 20
450.9947250625077
 30
0.0
 10
796.2183680964523
 20
450.2784851601193
 30
0.0
 10
796.2183680964523
 20
448.495816752959
 30
0.0
 10
796.2183680964524
 20
445.1411723350114
 30
0.0
 10
796.2183680964524
 20
442.5738803421222
 30
0.0
 10
796.2183680964524
 20
440.0064360351267
 30
0.0
 10
796.2183680964524
 20
437.4391440422375
 30
0.0
 10
796.2183680964523
 20
434.0844996242898
 30
0.0
 10
796.2183680964523
 20
432.3018312171296
 30
0.0
 10
796.2183680964523
 20
431.5855913147412
 30
0.0
  0
SPLINE
  5
13D
330
1F
100
AcDbEntity
  8
0
  6
Continuous
 62
     7
370
    15
100
AcDbSpline
210
0.0
220
0.0
230
1.0
 70
     8
 71
     3
 72
     8
 73
     4
 74
     0
 42
0.00000001
 43
0.00000001
 40
0.0
 40
0.0
 40
0.0
 40
0.0
 40
0.0000226150302117
 40
0.0000226150302117
 40
0.0000226150302117
 40
0.0000226150302117
 10
796.2164990323296
 20
451.0088480231014
 30
0.0
 10
796.216811875696
 20
451.0041113269131
 30
0.0
 10
796.216975550564
 20
450.9993645152609
 30
0.0
 10
796.2169906862126
 20
450.9946131509146
 30
0.0
  0
LINE
  5
13E
330
1F
100
AcDbEntity
  8
0
  6
Continuous
 62
     7
370
    15
100
AcDbLine
 10
814.9935537888
 20
451.0088482562
 30
0.0
 11
796.218366356
 21
451.0088482562
 31
0.0
  0
SPLINE
  5
13F
330
1F
100
AcDbEntity
  8
0
  6
Continuous
 62
     7
370
    15
100
AcDbSpline
210
0.0
220
0.0
230
1.0
 70
     8
 71
     3
 72
    16
 73
    12
 74
     0
 42
0.00000001
 43
0.00000001
 40
0.0
 40
0.0
 40
0.0
 40
0.0
 40
0.1249999999999999
 40
0.1249999999999999
 40
0.2499999999999998
 40
0.2499999999999998
 40
0.4999999999999999
 40
0.4999999999999999
 40
0.7499999999999999
 40
0.7499999999999999
 40
1.0
 40
1.0
 40
1.0
 40
1.0
 10
817.6118702887434
 20
453.5616481041972
 30
0.0
 10
817.6172351904014
 20
453.5075056801869
 30
0.0
 10
817.5968866991151
 20
453.4445894771129
 30
0.0
 10
817.5157981959987
 20
453.3021351413951
 30
0.0
 10
817.454454286403
 20
453.2220663683418
 30
0.0
 10
817.2230567435172
 20
452.9615203377558
 30
0.0
 10
817.0096636799092
 20
452.7636377525369
 30
0.0
 10
816.512343328198
 20
452.3260021319516
 30
0.0
 10
816.2270107907073
 20
452.0856725218446
 30
0.0
 10
815.6280107419637
 20
451.5740250688584
 30
0.0
 10
815.3114012581876
 20
451.3003728569016
 30
0.0
 10
814.9935572545633
 20
451.0088480231014
 30
0.0
  0
SPLINE
  5
140
330
1F
100
AcDbEntity
  8
0
  6
Continuous
 62
     7
370
    15
100
AcDbSpline
210
0.0
220
0.0
230
1.0
 70
     8
 71
     3
 72
    16
 73
    12
 74
     0
 42
0.00000001
 43
0.00000001
 40
0.0
 40
0.0
 40
0.0
 40
0.0
 40
0.1249999999999999
 40
0.1249999999999999
 40
0.2499999999999998
 40
0.2499999999999998
 40
0.4999999999999999
 40
0.4999999999999999
 40
0.7499999999999999
 40
0.7499999999999999
 40
1.0
 40
1.0
 40
1.0
 40
1.0
 10
817.6118702887434
 20
429.0186682730517
 30
0.0
 10
817.6172351904014
 20
429.072810697062
 30
0.0
 10
817.5968866991151
 20
429.1357269001361
 30
0.0
 10
817.5157981959987
 20
429.2781812358538
 30
0.0
 10
817.454454286403
 20
429.358250008907
 30
0.0
 10
817.2230567435172
 20
429.6187960394931
 30
0.0
 10
817.0096636799092
 20
429.816678624712
 30
0.0
 10
816.512343328198
 20
430.2543142452973
 30
0.0
 10
816.2270107907073
 20
430.4946438554043
 30
0.0
 10
815.6280107419637
 20
431.0062913083905
 30
0.0
 10
815.3114012581939
 20
431.27994352035
 30
0.0
 10
814.9935572545633
 20
431.5714683541475
 30
0.0
  0
LINE
  5
141
330
1F
100
AcDbEntity
  8
0
  6
Continuous
 62
     7
370
    15
100
AcDbLine
 10
796.218366356
 20
431.5714681211
 30
0.0
 11
814.9935537888
 21
431.5714681211
 31
0.0
  0
LINE
  5
142
330
1F
100
AcDbEntity
  8
0
  6
Continuous
 62
     7
370
    15
100
AcDbLine
 10
818.2183662368
 20
453.0032913822
 30
0.0
 11
818.2183662368
 21
429.5770249951
 31
0.0
  0
SPLINE
  5
143
330
1F
100
AcDbEntity
  8
0
  6
Continuous
 62
     7
370
    15
100
AcDbSpline
210
0.0
220
0.0
230
1.0
 70
     8
 71
     3
 72
    44
 73
    40
 74
     0
 42
0.00000001
 43
0.00000001
 40
0.0
 40
0.0
 40
0.0
 40
0.0
 40
0.0624999999999985
 40
0.0624999999999985
 40
0.124999999999997
 40
0.124999999999997
 40
0.1874999999999956
 40
0.1874999999999956
 40
0.2499999999999941
 40
0.2499999999999941
 40
0.2812499999999939
 40
0.2812499999999939
 40
0.3124999999999937
 40
0.3124999999999937
 40
0.3749999999999942
 40
0.3749999999999942
 40
0.4062499999999944
 40
0.4062499999999944
 40
0.4374999999999946
 40
0.4374999999999946
 40
0.499999999999995
 40
0.499999999999995
 40
0.5624999999999956
 40
0.5624999999999956
 40
0.624999999999996
 40
0.624999999999996
 40
0.6874999999999966
 40
0.6874999999999966
 40
0.7187499999999972
 40
0.7187499999999972
 40
0.7499999999999979
 40
0.7499999999999979
 40
0.8124999999999984
 40
0.8124999999999984
 40
0.874999999999999
 40
0.874999999999999
 40
0.9374999999999994
 40
0.9374999999999994
 40
1.0
 40
1.0
 40
1.0
 40
1.0
 10
796.2183680964523
 20
450.9947250698329
 30
0.0
 10
795.5922999156244
 20
450.9227365902601
 30
0.0
 10
794.9694582681278
 20
450.8047725976785
 30
0.0
 10
793.7563393226396
 20
450.4842400204245
 30
0.0
 10
793.1654443317871
 20
450.2813813553093
 30
0.0
 10
792.0178574369485
 20
449.7822981829501
 30
0.0
 10
791.4565937713865
 20
449.4824700000449
 30
0.0
 10
790.4106438228004
 20
448.8001433106154
 30
0.0
 10
789.9236657076948
 20
448.4158675739067
 30
0.0
 10
789.2480793303773
 20
447.7737165296289
 30
0.0
 10
789.0320652522857
 20
447.5486684401899
 30
0.0
 10
788.6192298819342
 20
447.0755806675604
 30
0.0
 10
788.4218979887736
 20
446.8265473479211
 30
0.0
 10
787.8736358458227
 20
446.0616110627353
 30
0.0
 10
787.5610079758898
 20
445.5231902321138
 30
0.0
 10
787.1753705493151
 20
444.6707014378612
 30
0.0
 10
787.0606743260606
 20
444.3790792036199
 30
0.0
 10
786.8603024324306
 20
443.7801879873058
 30
0.0
 10
786.7755902435778
 20
443.4753347547422
 30
0.0
 10
786.5713291054296
 20
442.556778136501
 30
0.0
 10
786.49906584267
 20
441.9343057818729
 30
0.0
 10
786.4974775603257
 20
440.6667589980298
 30
0.0
 10
786.56830211336
 20
440.0447396488891
 30
0.0
 10
786.8366839609743
 20
438.8229323030727
 30
0.0
 10
787.0379163680362
 20
438.2172300086913
 30
0.0
 10
787.551410323466
 20
437.074716093869
 30
0.0
 10
787.8640663053322
 20
436.5338550645078
 30
0.0
 10
788.412642323199
 20
435.7658174374905
 30
0.0
 10
788.6094490046421
 20
435.5167067444903
 30
0.0
 10
789.0214274346655
 20
435.0431125117905
 30
0.0
 10
789.2374882865131
 20
434.8172657393844
 30
0.0
 10
789.9149613093932
 20
434.1715631551157
 30
0.0
 10
790.4055255801304
 20
433.7833671125215
 30
0.0
 10
791.4651740671845
 20
433.0923943308994
 30
0.0
 10
792.0173310777465
 20
432.7984097811067
 30
0.0
 10
793.1608243376788
 20
432.3007823039913
 30
0.0
 10
793.7521934881162
 20
432.0972185229463
 30
0.0
 10
794.9718092306565
 20
431.7748759266573
 30
0.0
 10
795.5922999161247
 20
431.6575797911321
 30
0.0
 10
796.2183680964524
 20
431.5855913074155
 30
0.0
  0
SPLINE
  5
144
330
1F
100
AcDbEntity
  8
0
  6
Continuous
 62
     7
370
    15
100
AcDbSpline
210
0.0
220
0.0
230
1.0
 70
     8
 71
     3
 72
    44
 73
    40
 74
     0
 42
0.00000001
 43
0.00000001
 40
0.0
 40
0.0
 40
0.0
 40
0.0
 40
0.0624999999999991
 40
0.0624999999999991
 40
0.1249999999999982
 40
0.1249999999999982
 40
0.1874999999999973
 40
0.1874999999999973
 40
0.2499999999999965
 40
0.2499999999999965
 40
0.2812499999999966
 40
0.2812499999999966
 40
0.3124999999999967
 40
0.3124999999999967
 40
0.3749999999999969
 40
0.3749999999999969
 40
0.4374999999999971
 40
0.4374999999999971
 40
0.4999999999999972
 40
0.4999999999999972
 40
0.5624999999999973
 40
0.5624999999999973
 40
0.5937499999999972
 40
0.5937499999999972
 40
0.6249999999999971
 40
0.6249999999999971
 40
0.687499999999997
 40
0.687499999999997
 40
0.7187499999999973
 40
0.7187499999999973
 40
0.7499999999999977
 40
0.7499999999999977
 40
0.8124999999999983
 40
0.8124999999999983
 40
0.8749999999999989
 40
0.8749999999999989
 40
0.9374999999999994
 40
0.9374999999999994
 40
1.0
 40
1.0
 40
1.0
 40
1.0
 10
591.3183680964523
 20
431.5855913074155
 30
0.0
 10
591.9440220993671
 20
431.6575321672511
 30
0.0
 10
592.564926926342
 20
431.7748759189174
 30
0.0
 10
593.78454267345
 20
432.0972185129134
 30
0.0
 10
594.3759118260821
 20
432.3007822930132
 30
0.0
 10
595.5194050902608
 20
432.798409768567
 30
0.0
 10
596.0715621028716
 20
433.0923943177489
 30
0.0
 10
597.13121059389
 20
433.783367098459
 30
0.0
 10
597.6217748672731
 20
434.1715631413165
 30
0.0
 10
598.2992478931654
 20
434.8172657259395
 30
0.0
 10
598.5153087459694
 20
435.0431124985157
 30
0.0
 10
598.9272871778168
 20
435.5167067316518
 30
0.0
 10
599.1240938601601
 20
435.7658174249486
 30
0.0
 10
599.6726698807371
 20
436.5338550532924
 30
0.0
 10
599.9853258641319
 20
437.0747160836889
 30
0.0
 10
600.4988198220856
 20
438.2172300008714
 30
0.0
 10
600.7000522301821
 20
438.8229322967138
 30
0.0
 10
600.9684340791787
 20
440.0447396456219
 30
0.0
 10
601.039258632581
 20
440.6667589963644
 30
0.0
 10
601.0376703502327
 20
441.9343057835353
 30
0.0
 10
600.9654070871018
 20
442.5567781397695
 30
0.0
 10
600.7611459479048
 20
443.4753347603429
 30
0.0
 10
600.6764337585987
 20
443.7801879937209
 30
0.0
 10
600.4760618639841
 20
444.3790792113585
 30
0.0
 10
600.3613656401692
 20
444.6707014462251
 30
0.0
 10
599.9757282117065
 20
445.5231902422433
 30
0.0
 10
599.6631003402492
 20
446.0616110738999
 30
0.0
 10
599.1148381945918
 20
446.8265473604146
 30
0.0
 10
598.9175063004841
 20
447.0755806804063
 30
0.0
 10
598.5046709283424
 20
447.5486684534293
 30
0.0
 10
598.2886568493157
 20
447.7737165430175
 30
0.0
 10
597.613070469065
 20
448.415867587591
 30
0.0
 10
597.1260923518032
 20
448.8001433242584
 30
0.0
 10
596.0801423986267
 20
449.4824700132739
 30
0.0
 10
595.5188787308869
 20
449.782298195569
 30
0.0
 10
594.3712918319517
 20
450.2813813662773
 30
0.0
 10
593.7803968389952
 20
450.484240030418
 30
0.0
 10
592.5672778891603
 20
450.8047726053578
 30
0.0
 10
591.9440220999244
 20
450.9227842146119
 30
0.0
 10
591.3183680964524
 20
450.9947250698329
 30
0.0
  0
LINE
  5
145
330
1F
100
AcDbEntity
  8
0
  6
Continuous
 62
     7
370
    15
100
AcDbLine
 10
878.218368621
 20
441.2901581886
 30
0.0
 11
878.218368621
 21
428.7901580024
 31
0.0
  0
LINE
  5
146
330
1F
100
AcDbEntity
  8
0
  6
Continuous
 62
     7
370
    15
100
AcDbLine
 10
878.218368621
 20
441.2901581886
 30
0.0
 11
888.2183739854
 21
441.2901581886
 31
0.0
  0
LINE
  5
147
330
1F
100
AcDbEntity
  8
0
  6
Continuous
 62
     7
370
    15
100
AcDbLine
 10
888.2183739854
 20
441.2901581886
 30
0.0
 11
888.2183739854
 21
428.7901580024
 31
0.0
  0
LINE
  5
148
330
1F
100
AcDbEntity
  8
0
  6
Continuous
 62
     7
370
    15
100
AcDbLine
 10
888.2183739854
 20
616.2901552084
 30
0.0
 11
888.2183739854
 21
441.2901581886
 31
0.0
  0
LINE
  5
149
330
1F
100
AcDbEntity
  8
0
  6
Continuous
 62
     7
370
    15
100
AcDbLine
 10
878.218368621
 20
616.2901552084
 30
0.0
 11
878.218368621
 21
441.2901581886
 31
0.0
  0
SPLINE
  5
14A
330
1F
100
AcDbEntity
  8
0
  6
Continuous
 62
     7
370
    15
100
AcDbSpline
210
0.0
220
0.0
230
1.0
 70
     8
 71
     3
 72
    18
 73
    14
 74
     0
 42
0.00000001
 43
0.00000001
 40
0.0
 40
0.0
 40
0.0
 40
0.0
 40
0.2499999999999998
 40
0.2499999999999998
 40
0.4999999999999996
 40
0.4999999999999996
 40
0.7499999999999993
 40
0.7499999999999993
 40
0.8749999999999994
 40
0.8749999999999994
 40
0.9374999999999997
 40
0.9374999999999997
 40
1.0
 40
1.0
 40
1.0
 40
1.0
 10
796.2164990323296
 20
431.5714683541475
 30
0.0
 10
796.1853873789971
 20
431.1004132972787
 30
0.0
 10
796.1504808317534
 20
430.573772199715
 30
0.0
 10
796.073156147793
 20
429.4137031989688
 30
0.0
 10
796.0302153862572
 20
428.772562103345
 30
0.0
 10
795.940288183073
 20
427.4387227639482
 30
0.0
 10
795.893007789546
 20
426.7415285839149
 30
0.0
 10
795.8183570363013
 20
425.6488466853536
 30
0.0
 10
795.7931274666718
 20
425.2808520151219
 30
0.0
 10
795.7549785901348
 20
424.7264949468176
 30
0.0
 10
795.7421996810638
 20
424.5411414860876
 30
0.0
 10
795.7165145308651
 20
424.169294176952
 30
0.0
 10
795.7034691828304
 20
423.9808291798944
 30
0.0
 10
795.6906915604782
 20
423.796516486567
 30
0.0
  0
SPLINE
  5
14B
330
1F
100
AcDbEntity
  8
0
  6
Continuous
 62
     7
370
    15
100
AcDbSpline
210
0.0
220
0.0
230
1.0
 70
     8
 71
     3
 72
    58
 73
    54
 74
     0
 42
0.00000001
 43
0.00000001
 40
0.0
 40
0.0
 40
0.0
 40
0.0
 40
0.0156249999999999
 40
0.0156249999999999
 40
0.0312499999999998
 40
0.0312499999999998
 40
0.0625000000000004
 40
0.0625000000000004
 40
0.1250000000000009
 40
0.1250000000000009
 40
0.1562500000000008
 40
0.1562500000000008
 40
0.1875000000000007
 40
0.1875000000000007
 40
0.2500000000000005
 40
0.2500000000000005
 40
0.2812500000000003
 40
0.2812500000000003
 40
0.3125000000000002
 40
0.3125000000000002
 40
0.3750000000000003
 40
0.3750000000000003
 40
0.4062500000000002
 40
0.4062500000000002
 40
0.4375000000000001
 40
0.4375000000000001
 40
0.4999999999999999
 40
0.4999999999999999
 40
0.5624999999999997
 40
0.5624999999999997
 40
0.5937499999999997
 40
0.5937499999999997
 40
0.6249999999999996
 40
0.6249999999999996
 40
0.6874999999999991
 40
0.6874999999999991
 40
0.7187499999999989
 40
0.7187499999999989
 40
0.7499999999999987
 40
0.7499999999999987
 40
0.8124999999999989
 40
0.8124999999999989
 40
0.8437499999999993
 40
0.8437499999999993
 40
0.8749999999999998
 40
0.8749999999999998
 40
0.9375000000000007
 40
0.9375000000000007
 40
0.9687500000000007
 40
0.9687500000000007
 40
0.9843750000000003
 40
0.9843750000000003
 40
1.0
 40
1.0
 40
1.0
 40
1.0
 10
795.6906915604782
 20
423.796516486566
 30
0.0
 10
795.4138783326068
 20
423.8350896201213
 30
0.0
 10
795.1363484539816
 20
423.8698222387923
 30
0.0
 10
794.5838867105211
 20
423.9525841138675
 30
0.0
 10
794.3087849588765
 20
423.9996555184072
 30
0.0
 10
793.4867963897442
 20
424.1575849524513
 30
0.0
 10
792.943213595501
 20
424.2850943864343
 30
0.0
 10
791.3256677912478
 20
424.7341601967831
 30
0.0
 10
790.2828264406986
 20
425.1168289183619
 30
0.0
 10
788.7765518529584
 20
425.814017210978
 30
0.0
 10
788.2839274181574
 20
426.0671720508995
 30
0.0
 10
787.31836045622
 20
426.6166387577641
 30
0.0
 10
786.8435549824185
 20
426.9142751698335
 30
0.0
 10
785.4645079863878
 20
427.8662846878518
 30
0.0
 10
784.6116013795099
 20
428.5737296111587
 30
0.0
 10
783.4333023015793
 20
429.7455591226696
 30
0.0
 10
783.0574723700421
 20
430.1547144345732
 30
0.0
 10
782.341242811861
 20
431.0118214228197
 30
0.0
 10
782.0019933080881
 20
431.4588737856686
 30
0.0
 10
781.0587310101713
 20
432.8327430635544
 30
0.0
 10
780.5217366770065
 20
433.8001442109212
 30
0.0
 10
779.8595981979264
 20
435.3316076934485
 30
0.0
 10
779.662063372286
 20
435.8585876805281
 30
0.0
 10
779.3238951693876
 20
436.9210799770743
 30
0.0
 10
779.1825894577078
 20
437.4572410422685
 30
0.0
 10
778.8414319636571
 20
439.080367158596
 30
0.0
 10
778.7233045243743
 20
440.1821340988124
 30
0.0
 10
778.7253278405842
 20
442.4264543567418
 30
0.0
 10
778.8453489870013
 20
443.5291665907385
 30
0.0
 10
779.1907169598148
 20
445.1562165742741
 30
0.0
 10
779.333650563971
 20
445.6940218524346
 30
0.0
 10
779.6757930914772
 20
446.7604361966511
 30
0.0
 10
779.8732813113868
 20
447.2831273429133
 30
0.0
 10
780.5357180722959
 20
448.8066995200014
 30
0.0
 10
781.0722609740561
 20
449.7697705394621
 30
0.0
 10
782.014392354973
 20
451.1382181171405
 30
0.0
 10
782.3525046810772
 20
451.5828915175838
 30
0.0
 10
783.0708851153769
 20
452.4407011622223
 30
0.0
 10
783.4470828945372
 20
452.8492458934206
 30
0.0
 10
784.623872856807
 20
454.0171829478323
 30
0.0
 10
785.472316084401
 20
454.7192918329283
 30
0.0
 10
786.8373795384587
 20
455.6618429415934
 30
0.0
 10
787.3079098970979
 20
455.9574602636339
 30
0.0
 10
788.2802112973277
 20
456.5112960641184
 30
0.0
 10
788.7763243214447
 20
456.7662478007797
 30
0.0
 10
790.2881096434011
 20
457.4658246646245
 30
0.0
 10
791.3291861566014
 20
457.8470553598142
 30
0.0
 10
792.9394431171119
 20
458.2942139491682
 30
0.0
 10
793.4853821834897
 20
458.4224392967469
 30
0.0
 10
794.308407572728
 20
458.5805985387639
 30
0.0
 10
794.5837316479967
 20
458.6277081639159
 30
0.0
 10
795.1363806589538
 20
458.7104998329767
 30
0.0
 10
795.4138729581251
 20
458.7452260082089
 30
0.0
 10
795.6906915604782
 20
458.783799890683
 30
0.0
  0
SPLINE
  5
14C
330
1F
100
AcDbEntity
  8
0
  6
Continuous
 62
     7
370
    15
100
AcDbSpline
210
0.0
220
0.0
230
1.0
 70
     8
 71
     3
 72
    18
 73
    14
 74
     0
 42
0.00000001
 43
0.00000001
 40
0.0
 40
0.0
 40
0.0
 40
0.0
 40
0.2500000000000002
 40
0.2500000000000002
 40
0.5000000000000004
 40
0.5000000000000004
 40
0.7500000000000007
 40
0.7500000000000007
 40
0.8750000000000002
 40
0.8750000000000002
 40
0.9375000000000001
 40
0.9375000000000001
 40
1.0
 40
1.0
 40
1.0
 40
1.0
 10
796.2164990323296
 20
451.0088480231014
 30
0.0
 10
796.1853872806537
 20
451.4799045689671
 30
0.0
 10
796.1504807506886
 20
452.0065453862407
 30
0.0
 10
796.073156519266
 20
453.1666076126999
 30
0.0
 10
796.0302156153111
 20
453.807750872434
 30
0.0
 10
795.9402880862609
 20
455.1415950532905
 30
0.0
 10
795.8930080877436
 20
455.8387833270167
 30
0.0
 10
795.8183590862258
 20
456.9314397373843
 30
0.0
 10
795.7931282722358
 20
457.299452637733
 30
0.0
 10
795.7549789638202
 20
457.8538160097637
 30
0.0
 10
795.7421999369485
 20
458.0391711836126
 30
0.0
 10
795.7165146053806
 20
458.4110211244299
 30
0.0
 10
795.7034691378758
 20
458.5994878444715
 30
0.0
 10
795.6906915604781
 20
458.7837998906828
 30
0.0
  0
SPLINE
  5
14D
330
1F
100
AcDbEntity
  8
0
  6
Continuous
 62
     7
370
    15
100
AcDbSpline
210
0.0
220
0.0
230
1.0
 70
     8
 71
     3
 72
    18
 73
    14
 74
     0
 42
0.00000001
 43
0.00000001
 40
0.0
 40
0.0
 40
0.0
 40
0.0
 40
0.25
 40
0.25
 40
0.5
 40
0.5
 40
0.75
 40
0.75
 40
0.8749999999999994
 40
0.8749999999999994
 40
0.9374999999999998
 40
0.9374999999999998
 40
1.0
 40
1.0
 40
1.0
 40
1.0
 10
591.3202371605752
 20
451.0088480231014
 30
0.0
 10
591.3513488139076
 20
451.4799030799703
 30
0.0
 10
591.3862553611514
 20
452.0065441775343
 30
0.0
 10
591.4635800451118
 20
453.1666131782809
 30
0.0
 10
591.5065208066478
 20
453.8077542739049
 30
0.0
 10
591.5964480098321
 20
455.1415936133022
 30
0.0
 10
591.6437284033585
 20
455.8387877933359
 30
0.0
 10
591.7183791566031
 20
456.9314696918976
 30
0.0
 10
591.7436087262226
 20
457.29946436213
 30
0.0
 10
591.7817576027555
 20
457.8538214304348
 30
0.0
 10
591.7945365118449
 20
458.0391748911637
 30
0.0
 10
591.8202216620472
 20
458.4110222002992
 30
0.0
 10
591.8332670102759
 20
458.5994871973434
 30
0.0
 10
591.8460446324264
 20
458.7837998906848
 30
0.0
  0
SPLINE
  5
14E
330
1F
100
AcDbEntity
  8
0
  6
Continuous
 62
     7
370
    15
100
AcDbSpline
210
0.0
220
0.0
230
1.0
 70
     8
 71
     3
 72
    58
 73
    54
 74
     0
 42
0.00000001
 43
0.00000001
 40
0.0
 40
0.0
 40
0.0
 40
0.0
 40
0.0156249999999997
 40
0.0156249999999997
 40
0.0312499999999993
 40
0.0312499999999993
 40
0.0624999999999994
 40
0.0624999999999994
 40
0.1249999999999996
 40
0.1249999999999996
 40
0.1562499999999997
 40
0.1562499999999997
 40
0.1874999999999998
 40
0.1874999999999998
 40
0.2500000000000001
 40
0.2500000000000001
 40
0.28125
 40
0.28125
 40
0.3124999999999998
 40
0.3124999999999998
 40
0.3749999999999995
 40
0.3749999999999995
 40
0.4062499999999995
 40
0.4062499999999995
 40
0.4374999999999994
 40
0.4374999999999994
 40
0.4999999999999994
 40
0.4999999999999994
 40
0.5624999999999993
 40
0.5624999999999993
 40
0.5937499999999993
 40
0.5937499999999993
 40
0.6249999999999992
 40
0.6249999999999992
 40
0.6874999999999994
 40
0.6874999999999994
 40
0.7187499999999997
 40
0.7187499999999997
 40
0.7499999999999999
 40
0.7499999999999999
 40
0.8125000000000002
 40
0.8125000000000002
 40
0.8437500000000004
 40
0.8437500000000004
 40
0.8750000000000006
 40
0.8750000000000006
 40
0.9375000000000002
 40
0.9375000000000002
 40
0.9687500000000001
 40
0.9687500000000001
 40
0.984375
 40
0.984375
 40
1.0
 40
1.0
 40
1.0
 40
1.0
 10
591.8460446324265
 20
458.783799890683
 30
0.0
 10
592.1228660090123
 20
458.7452256216275
 30
0.0
 10
592.4003610925907
 20
458.7104991179226
 30
0.0
 10
592.9530156019538
 20
458.627706389791
 30
0.0
 10
593.2283424066557
 20
458.580596122192
 30
0.0
 10
594.0513759258449
 20
458.4224346195871
 30
0.0
 10
594.5973203005406
 20
458.2942073223305
 30
0.0
 10
596.2075924132416
 20
457.8470417252923
 30
0.0
 10
597.2486783971092
 20
457.4658047413653
 30
0.0
 10
598.7604768528543
 20
456.7662156959536
 30
0.0
 10
599.2565946732776
 20
456.5112590879355
 30
0.0
 10
600.2289026816571
 20
455.9574139826988
 30
0.0
 10
600.6994360434
 20
455.6617916479841
 30
0.0
 10
602.0645075782423
 20
454.7192243897408
 30
0.0
 10
602.9129549881949
 20
454.0171032959342
 30
0.0
 10
604.0897489951171
 20
452.8491452602173
 30
0.0
 10
604.465947746842
 20
452.4405930855501
 30
0.0
 10
605.1843292280842
 20
451.5827674787371
 30
0.0
 10
605.522439727872
 20
451.1380881063261
 30
0.0
 10
606.4645666936938
 20
449.7696191288953
 30
0.0
 10
607.0011048603056
 20
448.8065328491913
 30
0.0
 10
607.6635310091942
 20
447.2829358354097
 30
0.0
 10
607.8610156009781
 20
446.7602343365064
 30
0.0
 10
608.2031468535688
 20
445.6938069020303
 30
0.0
 10
608.3460743604079
 20
445.1559950035922
 30
0.0
 10
608.691422317731
 20
443.5289248775738
 30
0.0
 10
608.8114278950501
 20
442.4261988515869
 30
0.0
 10
608.8134126078128
 20
440.1818497897477
 30
0.0
 10
608.6952649233043
 20
439.080081671084
 30
0.0
 10
608.354074070384
 20
437.4569445853895
 30
0.0
 10
608.2127567341755
 20
436.9207799530747
 30
0.0
 10
607.8745639269696
 20
435.8582807620747
 30
0.0
 10
607.6770171380123
 20
435.3313004391471
 30
0.0
 10
607.0148430702138
 20
433.7998378391185
 30
0.0
 10
606.4778239026133
 20
432.8324379015637
 30
0.0
 10
605.5345215633088
 20
431.4585720022828
 30
0.0
 10
605.1952575154716
 20
431.0115204078962
 30
0.0
 10
604.4790044048534
 20
430.1544227600143
 30
0.0
 10
604.1031625826838
 20
429.7452722435765
 30
0.0
 10
602.9248271933146
 20
428.5734578187647
 30
0.0
 10
602.0718955331288
 20
427.8660238792835
 30
0.0
 10
600.6928085389069
 20
426.9140334849773
 30
0.0
 10
600.2179940014187
 20
426.6164067923714
 30
0.0
 10
599.252406688007
 20
426.0669579855561
 30
0.0
 10
598.7597720163874
 20
425.8138122295936
 30
0.0
 10
597.2534663580971
 20
425.1166519784442
 30
0.0
 10
596.2105893918099
 20
424.7339989894172
 30
0.0
 10
594.5930331836965
 20
424.2849726360315
 30
0.0
 10
594.0494884289737
 20
424.1574878130891
 30
0.0
 10
593.2276222493552
 20
423.9995975237563
 30
0.0
 10
592.9525722124835
 20
423.9525395468555
 30
0.0
 10
592.4002367217336
 20
423.8698026483413
 30
0.0
 10
592.1227640850387
 20
423.8350765528065
 30
0.0
 10
591.8460446324265
 20
423.796516486566
 30
0.0
  0
SPLINE
  5
14F
330
1F
100
AcDbEntity
  8
0
  6
Continuous
 62
     7
370
    15
100
AcDbSpline
210
0.0
220
0.0
230
1.0
 70
     8
 71
     3
 72
    18
 73
    14
 74
     0
 42
0.00000001
 43
0.00000001
 40
0.0
 40
0.0
 40
0.0
 40
0.0
 40
0.2500000000000003
 40
0.2500000000000003
 40
0.5000000000000007
 40
0.5000000000000007
 40
0.750000000000001
 40
0.750000000000001
 40
0.8750000000000007
 40
0.8750000000000007
 40
0.9375000000000003
 40
0.9375000000000003
 40
1.0
 40
1.0
 40
1.0
 40
1.0
 10
591.3202371605752
 20
431.5714683541475
 30
0.0
 10
591.351348912251
 20
431.1004118082818
 30
0.0
 10
591.386255442216
 20
430.5737709910082
 30
0.0
 10
591.4635796736385
 20
429.413708764549
 30
0.0
 10
591.5065205775934
 20
428.7725655048148
 30
0.0
 10
591.5964481066436
 20
427.4387213239583
 30
0.0
 10
591.6437281051599
 20
426.741533050232
 30
0.0
 10
591.718377106677
 20
425.6488766398644
 30
0.0
 10
591.7436079206784
 20
425.2808637395166
 30
0.0
 10
591.7817572290967
 20
424.7265003674866
 30
0.0
 10
591.7945362559578
 20
424.5411451936373
 30
0.0
 10
591.8202215875276
 20
424.1692952528205
 30
0.0
 10
591.833267054856
 20
423.9808285327647
 30
0.0
 10
591.8460446324267
 20
423.7965164865655
 30
0.0
  0
SPLINE
  5
150
330
1F
100
AcDbEntity
  8
0
  6
Continuous
 62
     7
370
    15
100
AcDbSpline
210
0.0
220
0.0
230
1.0
 70
     8
 71
     3
 72
    12
 73
     8
 74
     0
 42
0.00000001
 43
0.00000001
 40
0.0
 40
0.0
 40
0.0
 40
0.0
 40
0.2499999999999996
 40
0.2499999999999996
 40
0.4999999999999991
 40
0.4999999999999991
 40
1.0
 40
1.0
 40
1.0
 40
1.0
 10
569.9248659041614
 20
453.5616481041972
 30
0.0
 10
569.9691092994613
 20
454.0081511010225
 30
0.0
 10
570.0168478130001
 20
454.4652174988922
 30
0.0
 10
570.1193007215172
 20
455.3943808755897
 30
0.0
 10
570.1736208289288
 20
455.8629911824645
 30
0.0
 10
570.3462338932828
 20
457.2803221368866
 30
0.0
 10
570.4741524466317
 20
458.2403997359166
 30
0.0
 10
570.6161469153699
 20
459.215919488099
 30
0.0
  0
LWPOLYLINE
  5
151
330
1F
100
AcDbEntity
  8
0
  6
Continuous
 62
     7
370
    15
100
AcDbPolyline
 90
        9
 70
   128
 43
0.0
 10
570.6161493374
 20
459.2159198287
 10
570.6731909824
 20
459.2076161566
 10
570.8421254469
 20
459.1830255154
 10
571.1164632751
 20
459.1430941287
 10
571.4856618954
 20
459.0893549535
 10
571.9355354024
 20
459.0238718006
 10
572.448783548
 20
458.9491648289
 10
573.0056920959
 20
458.868102512
 10
573.5848629786
 20
458.7837991926
  0
SPLINE
  5
152
330
1F
100
AcDbEntity
  8
0
  6
Continuous
 62
     7
370
    15
100
AcDbSpline
210
0.0
220
0.0
230
1.0
 70
     8
 71
     3
 72
    16
 73
    12
 74
     0
 42
0.00000001
 43
0.00000001
 40
0.0
 40
0.0
 40
0.0
 40
0.0
 40
0.2500000000000004
 40
0.2500000000000004
 40
0.3750000000000004
 40
0.3750000000000004
 40
0.5000000000000003
 40
0.5000000000000003
 40
0.7500000000000002
 40
0.7500000000000002
 40
1.0
 40
1.0
 40
1.0
 40
1.0
 10
573.5848625726077
 20
458.783799890683
 30
0.0
 10
573.4446844655882
 20
458.0429990290712
 30
0.0
 10
573.3185109656037
 20
457.3137787570064
 30
0.0
 10
573.1484482962857
 20
456.2371746822053
 30
0.0
 10
573.0949672035154
 20
455.8812066143532
 30
0.0
 10
572.9941767707048
 20
455.1754158344929
 30
0.0
 10
572.9476189659553
 20
454.8308025610783
 30
0.0
 10
572.8190533027374
 20
453.8280519958545
 30
0.0
 10
572.747666230327
 20
453.1975877482938
 30
0.0
 10
572.6276794151371
 20
452.0167525473619
 30
0.0
 10
572.5806998529241
 20
451.482546097846
 30
0.0
 10
572.5431789383415
 20
451.0088480231014
 30
0.0
  0
SPLINE
  5
153
330
1F
100
AcDbEntity
  8
0
  6
Continuous
 62
     7
370
    15
100
AcDbSpline
210
0.0
220
0.0
230
1.0
 70
     8
 71
     3
 72
    16
 73
    12
 74
     0
 42
0.00000001
 43
0.00000001
 40
0.0
 40
0.0
 40
0.0
 40
0.0
 40
0.2500000000000008
 40
0.2500000000000008
 40
0.3750000000000009
 40
0.3750000000000009
 40
0.500000000000001
 40
0.500000000000001
 40
0.7500000000000006
 40
0.7500000000000006
 40
1.0
 40
1.0
 40
1.0
 40
1.0
 10
813.9518736202971
 20
423.796516486566
 30
0.0
 10
814.0920517273165
 20
424.5373173481777
 30
0.0
 10
814.218225227301
 20
425.2665376202424
 30
0.0
 10
814.3882878966191
 20
426.3431416950436
 30
0.0
 10
814.4417689893894
 20
426.6991097628958
 30
0.0
 10
814.5425594221999
 20
427.404900542756
 30
0.0
 10
814.5891172269496
 20
427.7495138161706
 30
0.0
 10
814.7176828901673
 20
428.7522643813944
 30
0.0
 10
814.7890699625776
 20
429.3827286289551
 30
0.0
 10
814.9090567777675
 20
430.5635638298869
 30
0.0
 10
814.9560363399806
 20
431.097770279403
 30
0.0
 10
814.9935572545633
 20
431.5714683541475
 30
0.0
  0
LINE
  5
154
330
1F
100
AcDbEntity
  8
0
  6
Continuous
 62
     7
370
    15
100
AcDbLine
 10
813.9518732143
 20
423.7965171847
 30
0.0
 11
795.6906938864
 21
423.7965171847
 31
0.0
  0
SPLINE
  5
155
330
1F
100
AcDbEntity
  8
0
  6
Continuous
 62
     7
370
    15
100
AcDbSpline
210
0.0
220
0.0
230
1.0
 70
     8
 71
     3
 72
    12
 73
     8
 74
     0
 42
0.00000001
 43
0.00000001
 40
0.0
 40
0.0
 40
0.0
 40
0.0
 40
0.2500000000000006
 40
0.2500000000000006
 40
0.5000000000000012
 40
0.5000000000000012
 40
1.0
 40
1.0
 40
1.0
 40
1.0
 10
817.6118702887434
 20
429.0186682730517
 30
0.0
 10
817.5676268934435
 20
428.5721652762264
 30
0.0
 10
817.5198883799046
 20
428.1150988783568
 30
0.0
 10
817.4174354713875
 20
427.1859355016592
 30
0.0
 10
817.3631153639759
 20
426.7173251947845
 30
0.0
 10
817.1905022996218
 20
425.2999942403623
 30
0.0
 10
817.062583746273
 20
424.3399166413323
 30
0.0
 10
816.9205892775349
 20
423.3643968891499
 30
0.0
  0
LWPOLYLINE
  5
156
330
1F
100
AcDbEntity
  8
0
  6
Continuous
 62
     7
370
    15
100
AcDbPolyline
 90
        9
 70
   128
 43
0.0
 10
816.9205868555
 20
423.3643965486
 10
816.8635452105
 20
423.3727002206
 10
816.694610746
 20
423.3972908619
 10
816.4202729178
 20
423.4372222486
 10
816.0510742975
 20
423.4909614238
 10
815.6012007905
 20
423.5564445767
 10
815.0879526449
 20
423.6311515483
 10
814.531044097
 20
423.7122138652
 10
813.9518732143
 20
423.7965171847
  0
LINE
  5
157
330
1F
100
AcDbEntity
  8
0
  6
Continuous
 62
     7
370
    15
100
AcDbLine
 10
573.5848629786
 20
458.7837991926
 30
0.0
 11
591.8460423065
 21
458.7837991926
 31
0.0
  0
LINE
  5
158
330
1F
100
AcDbEntity
  8
0
  6
Continuous
 62
     7
370
    15
100
AcDbLine
 10
591.8460423065
 20
423.7965171847
 30
0.0
 11
573.5848629786
 21
423.7965171847
 31
0.0
  0
SPLINE
  5
159
330
1F
100
AcDbEntity
  8
0
  6
Continuous
 62
     7
370
    15
100
AcDbSpline
210
0.0
220
0.0
230
1.0
 70
     8
 71
     3
 72
    16
 73
    12
 74
     0
 42
0.00000001
 43
0.00000001
 40
0.0
 40
0.0
 40
0.0
 40
0.0
 40
0.25
 40
0.25
 40
0.5
 40
0.5
 40
0.6249999999999999
 40
0.6249999999999999
 40
0.7499999999999998
 40
0.7499999999999998
 40
1.0
 40
1.0
 40
1.0
 40
1.0
 10
572.5431789383415
 20
431.5714683541475
 30
0.0
 10
572.5807003506018
 20
431.0977639962693
 30
0.0
 10
572.6276929456244
 20
430.5634242458506
 30
0.0
 10
572.7476687057801
 20
429.3827106933938
 30
0.0
 10
572.8190432892659
 20
428.752363756142
 30
0.0
 10
572.9475683899476
 20
427.7498976544575
 30
0.0
 10
572.9940777703289
 20
427.4056145104251
 30
0.0
 10
573.0948974476881
 20
426.6995775548455
 30
0.0
 10
573.1483923274697
 20
426.3435049954307
 30
0.0
 10
573.3184912676987
 20
425.2666443659538
 30
0.0
 10
573.4446824071634
 20
424.5373282263593
 30
0.0
 10
573.5848625726077
 20
423.796516486566
 30
0.0
  0
SPLINE
  5
15A
330
1F
100
AcDbEntity
  8
0
  6
Continuous
 62
     7
370
    15
100
AcDbSpline
210
0.0
220
0.0
230
1.0
 70
     8
 71
     3
 72
    10
 73
     6
 74
     0
 42
0.00000001
 43
0.00000001
 40
0.0
 40
0.0
 40
0.0
 40
0.0
 40
0.5000000000000004
 40
0.5000000000000004
 40
1.0
 40
1.0
 40
1.0
 40
1.0
 10
570.6161469153699
 20
423.3643968891499
 30
0.0
 10
570.4741689822788
 20
424.339803039369
 30
0.0
 10
570.3462483833894
 20
425.2998767876638
 30
0.0
 10
570.1160744819663
 20
427.1898384183315
 30
0.0
 10
570.0133420901665
 20
428.1257693006468
 30
0.0
 10
569.9248659041614
 20
429.0186682730517
 30
0.0
  0
LWPOLYLINE
  5
15B
330
1F
100
AcDbEntity
  8
0
  6
Continuous
 62
     7
370
    15
100
AcDbPolyline
 90
        9
 70
   128
 43
0.0
 10
570.6161493374
 20
423.3643965486
 10
570.6731909824
 20
423.3727002206
 10
570.8421254469
 20
423.3972908619
 10
571.1164632751
 20
423.4372222486
 10
571.4856618954
 20
423.4909614238
 10
571.9355354024
 20
423.5564445767
 10
572.448783548
 20
423.6311515483
 10
573.0056920959
 20
423.7122138652
 10
573.5848629786
 20
423.7965171847
  0
LINE
  5
15C
330
1F
100
AcDbEntity
  8
0
  6
Continuous
 62
     7
370
    15
100
AcDbLine
 10
795.6906938864
 20
458.7837991926
 30
0.0
 11
813.9518732143
 21
458.7837991926
 31
0.0
  0
SPLINE
  5
15D
330
1F
100
AcDbEntity
  8
0
  6
Continuous
 62
     7
370
    15
100
AcDbSpline
210
0.0
220
0.0
230
1.0
 70
     8
 71
     3
 72
    16
 73
    12
 74
     0
 42
0.00000001
 43
0.00000001
 40
0.0
 40
0.0
 40
0.0
 40
0.0
 40
0.2500000000000005
 40
0.2500000000000005
 40
0.500000000000001
 40
0.500000000000001
 40
0.6250000000000006
 40
0.6250000000000006
 40
0.7500000000000001
 40
0.7500000000000001
 40
1.0
 40
1.0
 40
1.0
 40
1.0
 10
814.9935572545633
 20
451.0088480231014
 30
0.0
 10
814.9560358423029
 20
451.4825523809796
 30
0.0
 10
814.9090432472804
 20
452.0168921313982
 30
0.0
 10
814.7890674871245
 20
453.197605683855
 30
0.0
 10
814.7176929036389
 20
453.8279526211069
 30
0.0
 10
814.589167802957
 20
454.8304187227914
 30
0.0
 10
814.5426584225759
 20
455.1747018668239
 30
0.0
 10
814.4418387452166
 20
455.8807388224034
 30
0.0
 10
814.388343865435
 20
456.2368113818182
 30
0.0
 10
814.218244925206
 20
457.313672011295
 30
0.0
 10
814.0920537857413
 20
458.0429881508896
 30
0.0
 10
813.9518736202971
 20
458.783799890683
 30
0.0
  0
SPLINE
  5
15E
330
1F
100
AcDbEntity
  8
0
  6
Continuous
 62
     7
370
    15
100
AcDbSpline
210
0.0
220
0.0
230
1.0
 70
     8
 71
     3
 72
    10
 73
     6
 74
     0
 42
0.00000001
 43
0.00000001
 40
0.0
 40
0.0
 40
0.0
 40
0.0
 40
0.5
 40
0.5
 40
1.0
 40
1.0
 40
1.0
 40
1.0
 10
816.9205892775349
 20
459.215919488099
 30
0.0
 10
817.062567210626
 20
458.2405133378799
 30
0.0
 10
817.1904878095154
 20
457.2804395895851
 30
0.0
 10
817.4206617109384
 20
455.3904779589174
 30
0.0
 10
817.5233941027383
 20
454.4545470766021
 30
0.0
 10
817.6118702887434
 20
453.5616481041972
 30
0.0
  0
LWPOLYLINE
  5
15F
330
1F
100
AcDbEntity
  8
0
  6
Continuous
 62
     7
370
    15
100
AcDbPolyline
 90
        9
 70
   128
 43
0.0
 10
816.9205868555
 20
459.2159198287
 10
816.8635452105
 20
459.2076161566
 10
816.694610746
 20
459.1830255154
 10
816.4202729178
 20
459.1430941287
 10
816.0510742975
 20
459.0893549535
 10
815.6012007905
 20
459.0238718006
 10
815.0879526449
 20
458.9491648289
 10
814.531044097
 20
458.868102512
 10
813.9518732143
 20
458.7837991926
  0
ARC
  5
160
330
1F
100
AcDbEntity
  8
0
  6
Continuous
 62
     7
370
    15
100
AcDbCircle
 10
693.7683680965
 20
441.2901581886
 30
0.0
 40
121.45
100
AcDbArc
 50
8.281683904
 51
171.718316096
  0
ARC
  5
161
330
1F
100
AcDbEntity
  8
0
  6
Continuous
 62
     7
370
    15
100
AcDbCircle
 10
693.7683680965
 20
441.2901581886
 30
0.0
 40
121.45
100
AcDbArc
 50
188.281683904
 51
351.718316096
  0
ARC
  5
162
330
1F
100
AcDbEntity
  8
0
  6
Continuous
 62
     7
370
    15
100
AcDbCircle
 10
693.7683680965
 20
441.2901581886
 30
0.0
 40
124.45
100
AcDbArc
 50
188.281683904
 51
351.718316096
  0
ARC
  5
163
330
1F
100
AcDbEntity
  8
0
  6
Continuous
 62
     7
370
    15
100
AcDbCircle
 10
693.7683680965
 20
441.2901581886
 30
0.0
 40
124.45
100
AcDbArc
 50
8.281683904
 51
171.718316096
  0
LINE
  5
164
330
1F
100
AcDbEntity
  8
0
  6
Continuous
 62
     7
370
    15
100
AcDbLine
 10
865.7183656407
 20
493.2901592615
 30
0.0
 11
861.7183724357
 21
493.2901592615
 31
0.0
  0
LINE
  5
165
330
1F
100
AcDbEntity
  8
0
  6
Continuous
 62
     7
370
    15
100
AcDbLine
 10
859.7183683826
 20
495.2901595893
 30
0.0
 11
867.7183696939
 21
495.2901595893
 31
0.0
  0
CIRCLE
  5
166
330
1F
100
AcDbEntity
  8
0
  6
Continuous
 62
     7
370
    15
100
AcDbCircle
 10
693.7683680965
 20
596.2901581886
 30
0.0
 40
5.499999999999886
  0
CIRCLE
  5
167
330
1F
100
AcDbEntity
  8
0
  6
Continuous
 62
     7
370
    15
100
AcDbCircle
 10
828.002305683
 20
518.7901581886
 30
0.0
 40
5.499999999999886
  0
CIRCLE
  5
168
330
1F
100
AcDbEntity
  8
0
  6
Continuous
 62
     7
370
    15
100
AcDbCircle
 10
693.7683680965
 20
286.2901581886
 30
0.0
 40
5.499999999999886
  0
CIRCLE
  5
169
330
1F
100
AcDbEntity
  8
0
  6
Continuous
 62
     7
370
    15
100
AcDbCircle
 10
559.5344305099
 20
518.7901581886
 30
0.0
 40
5.5
  0
CIRCLE
  5
16A
330
1F
100
AcDbEntity
  8
0
  6
Continuous
 62
     7
370
    15
100
AcDbCircle
 10
559.5344305099
 20
363.7901581886
 30
0.0
 40
5.500000000000114
  0
CIRCLE
  5
16B
330
1F
100
AcDbEntity
  8
0
  6
Continuous
 62
     7
370
    15
100
AcDbCircle
 10
828.002305683
 20
363.7901581886
 30
0.0
 40
5.5
  0
CIRCLE
  5
16C
330
1F
100
AcDbEntity
  8
0
  6
Continuous
 62
     7
370
    15
100
AcDbCircle
 10
693.7683680965
 20
441.2901581886
 30
0.0
 40
125.5000000000003
  0
CIRCLE
  5
16D
330
1F
100
AcDbEntity
  8
0
  6
Continuous
 62
     7
370
    15
100
AcDbCircle
 10
693.7683680965
 20
441.2901581886
 30
0.0
 40
165.0
  0
CIRCLE
  5
16E
330
1F
100
AcDbEntity
  8
0
  6
Continuous
 62
     7
370
    15
100
AcDbCircle
 10
693.7683680965
 20
441.2901581886
 30
0.0
 40
125.0
  0
ARC
  5
16F
330
1F
100
AcDbEntity
  8
0
  6
Continuous
 62
     7
370
    15
100
AcDbCircle
 10
520.3209697303
 20
481.2901581886
 30
0.0
 40
8.000000000000064
100
AcDbArc
 50
270.0
 51
347.0136391459
  0
ARC
  5
170
330
1F
100
AcDbEntity
  8
0
  6
Continuous
 62
     7
370
    15
100
AcDbCircle
 10
653.7683680965
 20
614.7375565548
 30
0.0
 40
8.0
100
AcDbArc
 50
282.9863608541
 51
0.0
  0
LINE
  5
171
330
1F
100
AcDbEntity
  8
0
  6
Continuous
 62
     7
370
    15
100
AcDbLine
 10
725.7683696164
 20
614.7375585201
 30
0.0
 11
725.7683696164
 21
616.2901552084
 31
0.0
  0
ARC
  5
172
330
1F
100
AcDbEntity
  8
0
  6
Continuous
 62
     7
370
    15
100
AcDbCircle
 10
733.7683680965
 20
614.7375565548
 30
0.0
 40
8.000000000000089
100
AcDbArc
 50
180.0
 51
257.0136391459
  0
ARC
  5
173
330
1F
100
AcDbEntity
  8
0
  6
Continuous
 62
     7
370
    15
100
AcDbCircle
 10
867.2157664626
 20
481.2901581886
 30
0.0
 40
8.000000000000057
100
AcDbArc
 50
192.9863608541
 51
270.0
  0
LINE
  5
174
330
1F
100
AcDbEntity
  8
0
  6
Continuous
 62
     7
370
    15
100
AcDbLine
 10
868.7683651162
 20
473.2901597085
 30
0.0
 11
867.2157684279
 21
473.2901597085
 31
0.0
  0
LINE
  5
175
330
1F
100
AcDbEntity
  8
0
  6
Continuous
 62
     7
370
    15
100
AcDbLine
 10
867.2157684279
 20
409.2901566687
 30
0.0
 11
868.7683651162
 21
409.2901566687
 31
0.0
  0
ARC
  5
176
330
1F
100
AcDbEntity
  8
0
  6
Continuous
 62
     7
370
    15
100
AcDbCircle
 10
867.2157664626
 20
401.2901581886
 30
0.0
 40
7.999999999999953
100
AcDbArc
 50
90.0
 51
167.0136391459
  0
ARC
  5
177
330
1F
100
AcDbEntity
  8
0
  6
Continuous
 62
     7
370
    15
100
AcDbCircle
 10
693.7683680965
 20
441.2901581886
 30
0.0
 40
170.0000000000001
100
AcDbArc
 50
282.9863608541
 51
347.0136391459
  0
ARC
  5
178
330
1F
100
AcDbEntity
  8
0
  6
Continuous
 62
     7
370
    15
100
AcDbCircle
 10
733.7683680965
 20
267.8427598224
 30
0.0
 40
8.000000000000009
100
AcDbArc
 50
102.9863608541
 51
180.0
  0
LINE
  5
179
330
1F
100
AcDbEntity
  8
0
  6
Continuous
 62
     7
370
    15
100
AcDbLine
 10
661.7683665765
 20
266.2901611689
 30
0.0
 11
725.7683696164
 21
266.2901611689
 31
0.0
  0
ARC
  5
17A
330
1F
100
AcDbEntity
  8
0
  6
Continuous
 62
     7
370
    15
100
AcDbCircle
 10
653.7683680965
 20
267.8427598224
 30
0.0
 40
8.0
100
AcDbArc
 50
0.0
 51
77.0136391459
  0
ARC
  5
17B
330
1F
100
AcDbEntity
  8
0
  6
Continuous
 62
     7
370
    15
100
AcDbCircle
 10
693.7683680965
 20
441.2901581886
 30
0.0
 40
170.0000000000001
100
AcDbArc
 50
192.9863608541
 51
257.0136391459
  0
ARC
  5
17C
330
1F
100
AcDbEntity
  8
0
  6
Continuous
 62
     7
370
    15
100
AcDbCircle
 10
520.3209697303
 20
401.2901581886
 30
0.0
 40
8.000000000000064
100
AcDbArc
 50
12.9863608541
 51
90.0
  0
LINE
  5
17D
330
1F
100
AcDbEntity
  8
0
  6
Continuous
 62
     7
370
    15
100
AcDbLine
 10
518.7683710767
 20
409.2901566687
 30
0.0
 11
520.320967765
 21
409.2901566687
 31
0.0
  0
CIRCLE
  5
17E
330
1F
100
AcDbEntity
  8
0
  6
Continuous
 62
     7
370
    15
100
AcDbCircle
 10
828.002305683
 20
518.7901581886
 30
0.0
 40
5.000000000000114
  0
CIRCLE
  5
17F
330
1F
100
AcDbEntity
  8
0
  6
Continuous
 62
     7
370
    15
100
AcDbCircle
 10
828.002305683
 20
363.7901581886
 30
0.0
 40
5.000000000000114
  0
CIRCLE
  5
180
330
1F
100
AcDbEntity
  8
0
  6
Continuous
 62
     7
370
    15
100
AcDbCircle
 10
693.7683680965
 20
596.2901581886
 30
0.0
 40
5.0
  0
CIRCLE
  5
181
330
1F
100
AcDbEntity
  8
0
  6
Continuous
 62
     7
370
    15
100
AcDbCircle
 10
559.5344305099
 20
518.7901581886
 30
0.0
 40
4.999999999999886
  0
LINE
  5
182
330
1F
100
AcDbEntity
  8
0
  6
Continuous
 62
     7
370
    15
100
AcDbLine
 10
518.7683710767
 20
473.2901597085
 30
0.0
 11
518.7683710767
 21
409.2901566687
 31
0.0
  0
LINE
  5
183
330
1F
100
AcDbEntity
  8
0
  6
Continuous
 62
     7
370
    15
100
AcDbLine
 10
520.320967765
 20
473.2901597085
 30
0.0
 11
518.7683710767
 21
473.2901597085
 31
0.0
  0
LINE
  5
184
330
1F
100
AcDbEntity
  8
0
  6
Continuous
 62
     7
370
    15
100
AcDbLine
 10
725.7683696164
 20
266.2901611689
 30
0.0
 11
725.7683696164
 21
267.8427578571
 31
0.0
  0
ARC
  5
185
330
1F
100
AcDbEntity
  8
0
  6
Continuous
 62
     7
370
    15
100
AcDbCircle
 10
693.7683680965
 20
441.2901581886
 30
0.0
 40
170.0000000000001
100
AcDbArc
 50
102.9863608541
 51
167.0136391459
  0
LINE
  5
186
330
1F
100
AcDbEntity
  8
0
  6
Continuous
 62
     7
370
    15
100
AcDbLine
 10
661.7683665765
 20
267.8427578571
 30
0.0
 11
661.7683665765
 21
266.2901611689
 31
0.0
  0
LINE
  5
187
330
1F
100
AcDbEntity
  8
0
  6
Continuous
 62
     7
370
    15
100
AcDbLine
 10
725.7683696164
 20
616.2901552084
 30
0.0
 11
661.7683665765
 21
616.2901552084
 31
0.0
  0
ARC
  5
188
330
1F
100
AcDbEntity
  8
0
  6
Continuous
 62
     7
370
    15
100
AcDbCircle
 10
693.7683680965
 20
441.2901581886
 30
0.0
 40
170.0000000000001
100
AcDbArc
 50
12.9863608541
 51
77.0136391459
  0
CIRCLE
  5
189
330
1F
100
AcDbEntity
  8
0
  6
Continuous
 62
     7
370
    15
100
AcDbCircle
 10
693.7683680965
 20
286.2901581886
 30
0.0
 40
4.999999999999886
  0
LINE
  5
18A
330
1F
100
AcDbEntity
  8
0
  6
Continuous
 62
     7
370
    15
100
AcDbLine
 10
661.7683665765
 20
616.2901552084
 30
0.0
 11
661.7683665765
 21
614.7375585201
 31
0.0
  0
CIRCLE
  5
18B
330
1F
100
AcDbEntity
  8
0
  6
Continuous
 62
     7
370
    15
100
AcDbCircle
 10
559.5344305099
 20
363.7901581886
 30
0.0
 40
4.999999999999886
  0
SPLINE
  5
18C
330
1F
100
AcDbEntity
  8
0
  6
Continuous
 62
     8
370
    15
100
AcDbSpline
210
0.0
220
0.0
230
1.0
 70
     8
 71
     3
 72
    11
 73
     7
 74
     0
 42
0.00000001
 43
0.00000001
 40
0.0
 40
0.0
 40
0.0
 40
0.0
 40
0.2616478131442984
 40
0.564563586979564
 40
0.875819377776679
 40
1.0
 40
1.0
 40
1.0
 40
1.0
 10
926.0210702134186
 20
522.8159011962842
 30
0.0
 10
926.0129884169994
 20
522.8296378561956
 30
0.0
 10
925.995550136431
 20
522.8592777675689
 30
0.0
 10
925.6952464665378
 20
523.3676638398797
 30
0.0
 10
925.3019914441464
 20
524.0295337109276
 30
0.0
 10
924.994487251311
 20
524.5423375138785
 30
0.0
 10
924.9067911816651
 20
524.6885822775793
 30
0.0
  0
LINE
  5
18D
330
1F
100
AcDbEntity
  8
0
  6
Continuous
 62
     8
370
    15
100
AcDbLine
 10
924.9067911817
 20
482.4538485768
 30
0.0
 11
924.9067911817
 21
482.3900827828
 31
0.0
  0
LINE
  5
18E
330
1F
100
AcDbEntity
  8
0
  6
Continuous
 62
     8
370
    15
100
AcDbLine
 10
916.7089024497
 20
488.768334842
 30
0.0
 11
916.5302673293
 21
488.71582315
 31
0.0
  0
SPLINE
  5
18F
330
1F
100
AcDbEntity
  8
0
  6
Continuous
 62
     8
370
    15
100
AcDbSpline
210
0.0
220
0.0
230
1.0
 70
     8
 71
     3
 72
    14
 73
    10
 74
     0
 42
0.00000001
 43
0.00000001
 40
0.0
 40
0.0
 40
0.0
 40
0.0
 40
0.0635703458445336
 40
0.2183890352093986
 40
0.3774526254930154
 40
0.536161485354242
 40
0.699868950594021
 40
0.8587114713846724
 40
0.9999999999999999
 40
0.9999999999999999
 40
0.9999999999999999
 40
0.9999999999999999
 10
924.1908350897843
 20
482.2506637933684
 30
0.0
 10
924.2774022390153
 20
482.4985695165659
 30
0.0
 10
924.5747943005215
 20
483.3502227676649
 30
0.0
 10
924.9701689075416
 20
484.7083432184472
 30
0.0
 10
925.2674046293723
 20
486.1754597154944
 30
0.0
 10
925.3458271951147
 20
487.3721319868999
 30
0.0
 10
925.1891691638201
 20
488.2171496512344
 30
0.0
 10
924.8407171006619
 20
488.7144490009713
 30
0.0
 10
924.4533154368801
 20
488.7506135363367
 30
0.0
 10
924.2709437323624
 20
488.7676382127238
 30
0.0
  0
LWPOLYLINE
  5
190
330
1F
100
AcDbEntity
  8
0
  6
Continuous
 62
     8
370
    15
100
AcDbPolyline
 90
       21
 70
   128
 43
0.0
 10
898.0756262256
 20
734.1571332577
 10
898.0762967778
 20
734.1571034553
 10
897.7567711783
 20
734.1623784664
 10
897.0461646033
 20
734.1740013721
 10
895.9141829921
 20
734.1920913818
 10
894.5085564567
 20
734.2139066818
 10
892.7577147199
 20
734.2399539116
 10
890.7388457967
 20
734.2682065132
 10
888.4383300258
 20
734.292495406
 10
886.0192159129
 20
734.2861475113
 10
883.4469625665
 20
734.2818559769
 10
881.0709873153
 20
734.2843295696
 10
878.6891857101
 20
734.2927636269
 10
876.3708481504
 20
734.2775942448
 10
874.1898545934
 20
734.2472554806
 10
872.3448375178
 20
734.2202247742
 10
870.767415495
 20
734.1959656837
 10
869.5873627378
 20
734.1771604183
 10
868.7739232493
 20
734.1639281872
 10
868.3604458285
 20
734.1571034553
 10
868.3604458285
 20
734.1571034553
  0
LINE
  5
191
330
1F
100
AcDbEntity
  8
0
  6
Continuous
 62
     8
370
    15
100
AcDbLine
 10
873.718366952
 20
517.2901557448
 30
0.0
 11
873.718366952
 21
525.2901570561
 31
0.0
  0
LINE
  5
192
330
1F
100
AcDbEntity
  8
0
  6
Continuous
 62
     8
370
    15
100
AcDbLine
 10
867.7183696939
 20
511.2901584866
 30
0.0
 11
859.7183683826
 21
511.2901584866
 31
0.0
  0
SPLINE
  5
193
330
1F
100
AcDbEntity
  8
0
  6
Continuous
 62
     7
370
    15
100
AcDbSpline
210
0.0
220
0.0
230
1.0
 70
     8
 71
     3
 72
    17
 73
    13
 74
     0
 42
0.00000001
 43
0.00000001
 40
0.0
 40
0.0
 40
0.0
 40
0.0
 40
0.0494761237664154
 40
0.1321330504458962
 40
0.1578044001455348
 40
0.1719066327172931
 40
0.1844638557458808
 40
0.2066199631212627
 40
0.3520174811013145
 40
0.5246234400358369
 40
0.7255851946891667
 40
1.0
 40
1.0
 40
1.0
 40
1.0
 10
381.5932371259014
 20
509.123864925189
 30
0.0
 10
381.5943270609459
 20
509.1247784963504
 30
0.0
 10
381.5972378880532
 20
509.1272183185346
 30
0.0
 10
381.5992154818166
 20
509.1288722450997
 30
0.0
 10
381.6044957083761
 20
509.1333773262189
 30
0.0
 10
381.6097218164642
 20
509.1378944269089
 30
0.0
 10
381.6183755763399
 20
509.1455254982395
 30
0.0
 10
381.66008727817
 20
509.1837746506631
 30
0.0
 10
381.733052475766
 20
509.266231130495
 30
0.0
 10
381.8153274451275
 20
509.4106525070807
 30
0.0
 10
381.8790961428406
 20
509.6119316578792
 30
0.0
 10
381.8625861541263
 20
509.7646874932551
 30
0.0
 10
381.8530556351225
 20
509.852866983695
 30
0.0
  0
SPLINE
  5
194
330
1F
100
AcDbEntity
  8
0
  6
Continuous
 62
     7
370
    15
100
AcDbSpline
210
0.0
220
0.0
230
1.0
 70
     8
 71
     3
 72
    20
 73
    16
 74
     0
 42
0.00000001
 43
0.00000001
 40
0.0
 40
0.0
 40
0.0
 40
0.0
 40
0.0906171440270317
 40
0.2623170497126111
 40
0.4073557665785021
 40
0.5265143585079664
 40
0.6184190874400336
 40
0.6811022440103031
 40
0.7060088815437318
 40
0.7174762072200426
 40
0.725807491401592
 40
0.7373348233065469
 40
0.7595053656975711
 40
0.823541882820309
 40
1.0
 40
1.0
 40
1.0
 40
1.0
 10
381.8487138092796
 20
509.8509521844816
 30
0.0
 10
381.8420257309421
 20
509.8837231349047
 30
0.0
 10
381.8226651894398
 20
509.97858795462
 30
0.0
 10
381.7405328326249
 20
510.1080333849879
 30
0.0
 10
381.6326538540571
 20
510.226800392179
 30
0.0
 10
381.5262293272044
 20
510.3043021544592
 30
0.0
 10
381.4365454392907
 20
510.3508216478951
 30
0.0
 10
381.3753470782296
 20
510.3743769444812
 30
0.0
 10
381.3403054103284
 20
510.3853154974713
 30
0.0
 10
381.3275671721129
 20
510.3889589161871
 30
0.0
 10
381.3219286380387
 20
510.3905158898552
 30
0.0
 10
381.3174497012124
 20
510.3917363401902
 30
0.0
 10
381.3124504660349
 20
510.3930343710716
 30
0.0
 10
381.3076369637486
 20
510.3943226913825
 30
0.0
 10
381.2963298056072
 20
510.3971892700426
 30
0.0
 10
381.2880334049742
 20
510.3992925646734
 30
0.0
  0
SPLINE
  5
195
330
1F
100
AcDbEntity
  8
0
  6
Continuous
 62
     7
370
    15
100
AcDbSpline
210
0.0
220
0.0
230
1.0
 70
     8
 71
     3
 72
    20
 73
    16
 74
     0
 42
0.00000001
 43
0.00000001
 40
0.0
 40
0.0
 40
0.0
 40
0.0
 40
0.0906120979012308
 40
0.2623193540685894
 40
0.4073573536112431
 40
0.5265145730316497
 40
0.6184183818876638
 40
0.6811014581342902
 40
0.7060081070625456
 40
0.717476401770779
 40
0.7258076154965751
 40
0.7373347812526646
 40
0.7595052078672443
 40
0.823541786170731
 40
1.0
 40
1.0
 40
1.0
 40
1.0
 10
377.0229690313618
 20
488.7085998120738
 30
0.0
 10
377.0444189491099
 20
488.7342599057541
 30
0.0
 10
377.1065158290943
 20
488.8085451210341
 30
0.0
 10
377.1565111618494
 20
488.9534665233344
 30
0.0
 10
377.1821133608332
 20
489.1118615559293
 30
0.0
 10
377.176337638703
 20
489.2433871696845
 30
0.0
 10
377.156800543794
 20
489.3425093401181
 30
0.0
 10
377.137059587112
 20
489.4050431498407
 30
0.0
 10
377.1237614955145
 20
489.4392582849963
 30
0.0
 10
377.1186680657599
 20
489.4514907399465
 30
0.0
 10
377.1163714189634
 20
489.4568704845256
 30
0.0
 10
377.1145261628382
 20
489.4611293492644
 30
0.0
 10
377.1124404016948
 20
489.4658529446376
 30
0.0
 10
377.1104168199792
 20
489.4704084052499
 30
0.0
 10
377.1056174794638
 20
489.4810393047678
 30
0.0
 10
377.1020960599462
 20
489.4888395133448
 30
0.0
  0
SPLINE
  5
196
330
1F
100
AcDbEntity
  8
0
  6
Continuous
 62
     7
370
    15
100
AcDbSpline
210
0.0
220
0.0
230
1.0
 70
     8
 71
     3
 72
    17
 73
    13
 74
     0
 42
0.00000001
 43
0.00000001
 40
0.0
 40
0.0
 40
0.0
 40
0.0
 40
0.0494757933971639
 40
0.1321327063042984
 40
0.1578037263007582
 40
0.1719069904299114
 40
0.1844644924865818
 40
0.2066191508879215
 40
0.3520156816695986
 40
0.5246242635485665
 40
0.7255844714589431
 40
1.0
 40
1.0
 40
1.0
 40
1.0
 10
376.2952223956863
 20
488.4550081255866
 30
0.0
 10
376.2966144977858
 20
488.4547243785399
 30
0.0
 10
376.3003323202847
 20
488.4539665884651
 30
0.0
 10
376.302866328885
 20
488.4534583324872
 30
0.0
 10
376.3096735769132
 20
488.4521332131998
 30
0.0
 10
376.3164677967242
 20
488.4508647921512
 30
0.0
 10
376.3278294855145
 20
488.4488595398212
 30
0.0
 10
376.3837377573666
 20
488.440083267159
 30
0.0
 10
376.4937007369874
 20
488.4344649157868
 30
0.0
 10
376.6579106506641
 20
488.460177355118
 30
0.0
 10
376.8550368207052
 20
488.5358202788946
 30
0.0
 10
376.9641730257079
 20
488.6439684959477
 30
0.0
 10
377.0271730214636
 20
488.7063981655074
 30
0.0
  0
SPLINE
  5
197
330
1F
100
AcDbEntity
  8
0
  6
Continuous
 62
     7
370
    15
100
AcDbSpline
210
0.0
220
0.0
230
1.0
 70
     8
 71
     3
 72
    17
 73
    13
 74
     0
 42
0.00000001
 43
0.00000001
 40
0.0
 40
0.0
 40
0.0
 40
0.0
 40
0.0494753399093021
 40
0.1321316351477544
 40
0.1578026503314394
 40
0.1719056429629078
 40
0.1844623153521824
 40
0.2066199709653525
 40
0.3520180830585302
 40
0.5246244940591239
 40
0.7255828111154867
 40
1.0
 40
1.0
 40
1.0
 40
1.0
 10
368.7369296863953
 20
526.1528448822928
 30
0.0
 10
368.7368968583401
 20
526.1542646492586
 30
0.0
 10
368.7368091858829
 20
526.1580563590492
 30
0.0
 10
368.7367421351616
 20
526.1606380331904
 30
0.0
 10
368.7365190510042
 20
526.1675714008782
 30
0.0
 10
368.7362429397518
 20
526.1744768646228
 30
0.0
 10
368.7356693835837
 20
526.1859995620051
 30
0.0
 10
368.7317849065266
 20
526.2424632871736
 30
0.0
 10
368.7127982664187
 20
526.3509191253712
 30
0.0
 10
368.6511825618663
 20
526.5052891446337
 30
0.0
 10
368.5335757774087
 20
526.6806429443781
 30
0.0
 10
368.4038528635638
 20
526.7629783576331
 30
0.0
 10
368.3289684891979
 20
526.8105076315832
 30
0.0
  0
SPLINE
  5
198
330
1F
100
AcDbEntity
  8
0
  6
Continuous
 62
     7
370
    15
100
AcDbSpline
210
0.0
220
0.0
230
1.0
 70
     8
 71
     3
 72
    20
 73
    16
 74
     0
 42
0.00000001
 43
0.00000001
 40
0.0
 40
0.0
 40
0.0
 40
0.0
 40
0.0906122456920828
 40
0.2623178610437478
 40
0.4073560308770919
 40
0.5265121625350044
 40
0.6184170197420176
 40
0.6811027403520592
 40
0.7060080138264064
 40
0.7174754294830226
 40
0.7258080545698667
 40
0.7373346549844365
 40
0.7595050064358282
 40
0.8235416330132863
 40
1.0
 40
1.0
 40
1.0
 40
1.0
 10
368.3277596324961
 20
526.8059180739355
 30
0.0
 10
368.2979691155726
 20
526.8211187377716
 30
0.0
 10
368.2117270782072
 20
526.8651238895418
 30
0.0
 10
368.0593165201144
 20
526.8816224599727
 30
0.0
 10
367.8991959358319
 20
526.8713349749064
 30
0.0
 10
367.7722548763257
 20
526.8364364091096
 30
0.0
 10
367.6799592945335
 20
526.7953390342142
 30
0.0
 10
367.6233946501563
 20
526.7621661006916
 30
0.0
 10
367.5929882777482
 20
526.7415958012249
 30
0.0
 10
367.5821997451225
 20
526.73390854003
 30
0.0
 10
367.5774649930189
 20
526.7304653719623
 30
0.0
 10
367.573725615302
 20
526.7277242359513
 30
0.0
 10
367.5695792385332
 20
526.724642695441
 30
0.0
 10
367.5655933053911
 20
526.7216546675328
 30
0.0
 10
367.5562962816131
 20
526.714609647565
 30
0.0
 10
367.5494747773091
 20
526.7094405057859
 30
0.0
  0
SPLINE
  5
199
330
1F
100
AcDbEntity
  8
0
  6
Continuous
 62
     7
370
    15
100
AcDbSpline
210
0.0
220
0.0
230
1.0
 70
     8
 71
     3
 72
    20
 73
    16
 74
     0
 42
0.00000001
 43
0.00000001
 40
0.0
 40
0.0
 40
0.0
 40
0.0
 40
0.0906134378858955
 40
0.2623188450098641
 40
0.4073579728932108
 40
0.5265139843192033
 40
0.6184190905031219
 40
0.6811030807506252
 40
0.7060087043246065
 40
0.7174758841334573
 40
0.7258074682751947
 40
0.737334930030935
 40
0.7595052479546848
 40
0.8235419503179586
 40
1.0
 40
1.0
 40
1.0
 40
1.0
 10
357.484407867364
 20
479.299477643056
 30
0.0
 10
357.5178439523996
 20
479.2987067047493
 30
0.0
 10
357.6146388143189
 20
479.2964748983982
 30
0.0
 10
357.7591167608602
 20
479.3477376068334
 30
0.0
 10
357.8989139007482
 20
479.4264843534286
 30
0.0
 10
357.9981456557269
 20
479.5130021361456
 30
0.0
 10
358.0634617748704
 20
479.5900798906169
 30
0.0
 10
358.1000404690611
 20
479.6445046463157
 30
0.0
 10
358.1185064478748
 20
479.6762313311285
 30
0.0
 10
358.1248899183719
 20
479.6878402772857
 30
0.0
 10
358.1276655336836
 20
479.6929902665127
 30
0.0
 10
358.1298427332497
 20
479.6970910499115
 30
0.0
 10
358.1322408102681
 20
479.7016607209338
 30
0.0
 10
358.1345343001263
 20
479.7060930436539
 30
0.0
 10
358.139854813175
 20
479.7164692091687
 30
0.0
 10
358.1437586295697
 20
479.7240825059844
 30
0.0
  0
SPLINE
  5
19A
330
1F
100
AcDbEntity
  8
0
  6
Continuous
 62
     7
370
    15
100
AcDbSpline
210
0.0
220
0.0
230
1.0
 70
     8
 71
     3
 72
    17
 73
    13
 74
     0
 42
0.00000001
 43
0.00000001
 40
0.0
 40
0.0
 40
0.0
 40
0.0
 40
0.0494756941252774
 40
0.1321325511522364
 40
0.1578033906542906
 40
0.1719074343024574
 40
0.1844632011534754
 40
0.206616679718827
 40
0.3520145954531983
 40
0.5246255486787018
 40
0.7255827526990704
 40
0.9999999999999999
 40
0.9999999999999999
 40
0.9999999999999999
 40
0.9999999999999999
 10
356.8324010890256
 20
479.7103399100733
 30
0.0
 10
356.833047213617
 20
479.7090750828154
 30
0.0
 10
356.8347727900264
 20
479.7056971645202
 30
0.0
 10
356.8359535317929
 20
479.7033947256389
 30
0.0
 10
356.8391626199444
 20
479.6972515160792
 30
0.0
 10
356.8424070082583
 20
479.6911450440652
 30
0.0
 10
356.8479227653643
 20
479.6810155079809
 30
0.0
 10
356.8759246273278
 20
479.6318331768782
 30
0.0
 10
356.9400835833981
 20
479.5423539235526
 30
0.0
 10
357.0625751652228
 20
479.430002920626
 30
0.0
 10
357.244620431895
 20
479.323046205425
 30
0.0
 10
357.3972192578618
 20
479.3051488372271
 30
0.0
 10
357.4853092880408
 20
479.2948173048926
 30
0.0
  0
SPLINE
  5
19B
330
1F
100
AcDbEntity
  8
0
  6
Continuous
 62
     7
370
    15
100
AcDbSpline
210
0.0
220
0.0
230
1.0
 70
     8
 71
     3
 72
    20
 73
    16
 74
     0
 42
0.00000001
 43
0.00000001
 40
0.0
 40
0.0
 40
0.0
 40
0.0
 40
0.090612462294299
 40
0.2623189220218899
 40
0.4073584957442352
 40
0.5265130527290501
 40
0.6184209645428199
 40
0.6811041830115359
 40
0.70600825898415
 40
0.7174777553748212
 40
0.7258072724246446
 40
0.7373341394714081
 40
0.7595055638414682
 40
0.8235417812637078
 40
1.0
 40
1.0
 40
1.0
 40
1.0
 10
346.6416592315118
 20
526.8060521843862
 30
0.0
 10
346.611199981336
 20
526.7922398999157
 30
0.0
 10
346.5230218492184
 20
526.7522539699313
 30
0.0
 10
346.415095267659
 20
526.6433789226772
 30
0.0
 10
346.3233082221977
 20
526.5117760112089
 30
0.0
 10
346.2714417941272
 20
526.3907697038698
 30
0.0
 10
346.2460372575897
 20
526.292986792029
 30
0.0
 10
346.2366944697251
 20
526.2280772934313
 30
0.0
 10
346.2338233252395
 20
526.1914850486146
 30
0.0
 10
346.2331101512561
 20
526.1782511171095
 30
0.0
 10
346.2328432107072
 20
526.1724127384778
 30
0.0
 10
346.2326598801392
 20
526.1677759855286
 30
0.0
 10
346.2324840846721
 20
526.162600278433
 30
0.0
 10
346.2323382361949
 20
526.1576440999003
 30
0.0
 10
346.2320476614992
 20
526.1459759863134
 30
0.0
 10
346.2318344578425
 20
526.1374147298766
 30
0.0
  0
SPLINE
  5
19C
330
1F
100
AcDbEntity
  8
0
  6
Continuous
 62
     7
370
    15
100
AcDbSpline
210
0.0
220
0.0
230
1.0
 70
     8
 71
     3
 72
    17
 73
    13
 74
     0
 42
0.00000001
 43
0.00000001
 40
0.0
 40
0.0
 40
0.0
 40
0.0
 40
0.0494759328897579
 40
0.1321328125076958
 40
0.1578037104361989
 40
0.1719069063746902
 40
0.1844637407155293
 40
0.2066193591111554
 40
0.3520149428988009
 40
0.5246240435904325
 40
0.7255822513979717
 40
1.0
 40
1.0
 40
1.0
 40
1.0
 10
347.4073647126834
 20
526.7187686326934
 30
0.0
 10
347.4062335563748
 20
526.7196297554049
 30
0.0
 10
347.4032126357837
 20
526.7219295112488
 30
0.0
 10
347.4011494474082
 20
526.7234871369542
 30
0.0
 10
347.3955923194144
 20
526.7276344831622
 30
0.0
 10
347.3900203982154
 20
526.7317240000838
 30
0.0
 10
347.3806552837203
 20
526.7384609143623
 30
0.0
 10
347.3340909861244
 20
526.7706274935477
 30
0.0
 10
347.2374557951277
 20
526.8233995258881
 30
0.0
 10
347.0783500199273
 20
526.8714741464289
 30
0.0
 10
346.8679259039047
 20
526.8888663266698
 30
0.0
 10
346.7226740066657
 20
526.8387752438732
 30
0.0
 10
346.6388252169172
 20
526.8098594310712
 30
0.0
  0
SPLINE
  5
19D
330
1F
100
AcDbEntity
  8
0
  6
Continuous
 62
     7
370
    15
100
AcDbSpline
210
0.0
220
0.0
230
1.0
 70
     8
 71
     3
 72
    20
 73
    16
 74
     0
 42
0.00000001
 43
0.00000001
 40
0.0
 40
0.0
 40
0.0
 40
0.0
 40
0.0906111673477342
 40
0.2623179399031321
 40
0.407357063544874
 40
0.5265137394212687
 40
0.6184184142791902
 40
0.6811017476522062
 40
0.7060098135309549
 40
0.7174758876465969
 40
0.725807698097095
 40
0.7373344550764298
 40
0.7595051409270468
 40
0.8235418412757071
 40
1.0
 40
1.0
 40
1.0
 40
1.0
 10
337.9459664762298
 20
488.7088456812335
 30
0.0
 10
337.9662111389356
 20
488.6822250308351
 30
0.0
 10
338.0248191270067
 20
488.6051586561733
 30
0.0
 10
338.154975670538
 20
488.5241609065366
 30
0.0
 10
338.3037042895018
 20
488.4639579047846
 30
0.0
 10
338.4332172213144
 20
488.4403191190626
 30
0.0
 10
338.5342029417851
 20
488.4373166189755
 30
0.0
 10
338.5995604251329
 20
488.4426425688857
 30
0.0
 10
338.6358796929435
 20
488.4479959965572
 30
0.0
 10
338.6489351178679
 20
488.4502392224869
 30
0.0
 10
338.6546929667061
 20
488.4512825337348
 30
0.0
 10
338.6592529390443
 20
488.4521290305032
 30
0.0
 10
338.6643269869874
 20
488.4531184037206
 30
0.0
 10
338.6692161257941
 20
488.454067291232
 30
0.0
 10
338.6806476125243
 20
488.4563847947848
 30
0.0
 10
338.6890352309028
 20
488.4580852153731
 30
0.0
  0
SPLINE
  5
19E
330
1F
100
AcDbEntity
  8
0
  6
Continuous
 62
     7
370
    15
100
AcDbSpline
210
0.0
220
0.0
230
1.0
 70
     8
 71
     3
 72
    17
 73
    13
 74
     0
 42
0.00000001
 43
0.00000001
 40
0.0
 40
0.0
 40
0.0
 40
0.0
 40
0.0494755872376119
 40
0.1321322693950226
 40
0.1578037933118061
 40
0.1719060472325433
 40
0.184463152853893
 40
0.206618891423848
 40
0.3520130992722835
 40
0.5246235023507385
 40
0.7255828354691695
 40
1.0
 40
1.0
 40
1.0
 40
1.0
 10
337.8606740922014
 20
489.4747765424681
 30
0.0
 10
337.8600873067625
 20
489.4734826863081
 30
0.0
 10
337.8585202047629
 20
489.4700272417091
 30
0.0
 10
337.8574591494963
 20
489.4676759042651
 30
0.0
 10
337.8546534577435
 20
489.46132459391
 30
0.0
 10
337.8519049445829
 20
489.4549870917033
 30
0.0
 10
337.8474209968273
 20
489.444356419816
 30
0.0
 10
337.8264346718939
 20
489.3917986388689
 30
0.0
 10
337.7964714440702
 20
489.2858484753382
 30
0.0
 10
337.7850099648456
 20
489.1200312351954
 30
0.0
 10
337.8148842756374
 20
488.9110141358558
 30
0.0
 10
337.8960384029792
 20
488.7805487106282
 30
0.0
 10
337.942885661153
 20
488.7052358749343
 30
0.0
  0
SPLINE
  5
19F
330
1F
100
AcDbEntity
  8
0
  6
Continuous
 62
     7
370
    15
100
AcDbSpline
210
0.0
220
0.0
230
1.0
 70
     8
 71
     3
 72
    17
 73
    13
 74
     0
 42
0.00000001
 43
0.00000001
 40
0.0
 40
0.0
 40
0.0
 40
0.0
 40
0.0494756108268723
 40
0.1321325801749834
 40
0.1578036884303309
 40
0.1719067313241487
 40
0.1844653897254592
 40
0.2066176391039634
 40
0.3520153640196499
 40
0.5246271479394782
 40
0.7255860696467642
 40
1.0
 40
1.0
 40
1.0
 40
1.0
 10
333.6661369145195
 20
510.3954927685691
 30
0.0
 10
333.6647598051844
 20
510.3951468591155
 30
0.0
 10
333.661082013105
 20
510.3942230522568
 30
0.0
 10
333.6585776136341
 20
510.3935818891953
 30
0.0
 10
333.6518686325305
 20
510.3918196423325
 30
0.0
 10
333.6451976948992
 20
510.3900155600027
 30
0.0
 10
333.6340921331913
 20
510.386884068461
 30
0.0
 10
333.5799094340377
 20
510.3705563431315
 30
0.0
 10
333.4784009476549
 20
510.3278830829456
 30
0.0
 10
333.3416095098468
 20
510.2334753438344
 30
0.0
 10
333.1968239719132
 20
510.0797919144804
 30
0.0
 10
333.1454195182983
 20
509.9350026703588
 30
0.0
 10
333.1157457620184
 20
509.8514215710592
 30
0.0
  0
SPLINE
  5
1A0
330
1F
100
AcDbEntity
  8
0
  6
Continuous
 62
     7
370
    15
100
AcDbSpline
210
0.0
220
0.0
230
1.0
 70
     8
 71
     3
 72
    20
 73
    16
 74
     0
 42
0.00000001
 43
0.00000001
 40
0.0
 40
0.0
 40
0.0
 40
0.0
 40
0.0906167161883788
 40
0.2623228936324342
 40
0.4073598577853513
 40
0.5265149314275409
 40
0.618420576578436
 40
0.6811042073020883
 40
0.7060087790025134
 40
0.717476061215611
 40
0.7258090501150095
 40
0.7373351724844794
 40
0.7595058885545551
 40
0.8235421257165597
 40
1.0
 40
1.0
 40
1.0
 40
1.0
 10
333.1204899192135
 20
509.8512651088667
 30
0.0
 10
333.112298143624
 20
509.8188374771299
 30
0.0
 10
333.0885840832716
 20
509.7249639563415
 30
0.0
 10
333.106413871133
 20
509.5727006499873
 30
0.0
 10
333.1520737491576
 20
509.418884777495
 30
0.0
 10
333.2143409803097
 20
509.3028884506555
 30
0.0
 10
333.2749570865018
 20
509.2220628173374
 30
0.0
 10
333.3198681364537
 20
509.1742823673225
 30
0.0
 10
333.346700010023
 20
509.1492280871591
 30
0.0
 10
333.3565938436504
 20
509.1404205897424
 30
0.0
 10
333.3609987710382
 20
509.136561869965
 30
0.0
 10
333.3645096601113
 20
509.1335389531055
 30
0.0
 10
333.3684382439224
 20
509.1301699379438
 30
0.0
 10
333.3722386967796
 20
509.1269695674832
 30
0.0
 10
333.3811745563127
 20
509.1194632600224
 30
0.0
 10
333.3877310693542
 20
509.1139556529951
 30
0.0
  0
SPLINE
  5
1A1
330
1F
100
AcDbEntity
  8
0
  6
Continuous
 62
     7
370
    15
100
AcDbSpline
210
0.0
220
0.0
230
1.0
 70
     8
 71
     3
 72
    25
 73
    21
 74
     0
 42
0.00000001
 43
0.00000001
 40
0.0
 40
0.0
 40
0.0
 40
0.0
 40
0.1107404581839615
 40
0.2180856329226472
 40
0.3158854042995139
 40
0.4041396344316343
 40
0.4828486198180406
 40
0.5520127302140759
 40
0.611632085006875
 40
0.6617073845631254
 40
0.6984688046591946
 40
0.7288512870535918
 40
0.7592704457734389
 40
0.7906084947573828
 40
0.8228655638924637
 40
0.848855299322608
 40
0.8768972090674838
 40
0.9112983689670057
 40
0.9523325189677372
 40
1.0
 40
1.0
 40
1.0
 40
1.0
 10
342.4929403305332
 20
734.2820347907973
 30
0.0
 10
342.5112443499698
 20
729.9259190289997
 30
0.0
 10
342.5472911907479
 20
721.3472452671683
 30
0.0
 10
342.6014630549576
 20
708.9216564495213
 30
0.0
 10
342.6525810780304
 20
697.3807297739808
 30
0.0
 10
342.6992678478289
 20
686.9664014953551
 30
0.0
 10
342.7411278797276
 20
677.6786654666939
 30
0.0
 10
342.7779613198824
 20
669.5175207916371
 30
0.0
 10
342.8096702747011
 20
662.4829442130683
 30
0.0
 10
342.8356390283715
 20
656.7232563668
 30
0.0
 10
342.8564661935999
 20
652.1138791546126
 30
0.0
 10
342.8742302734284
 20
648.2785166147777
 30
0.0
 10
342.8901376382101
 20
644.6559619321955
 30
0.0
 10
342.9055387049692
 20
640.9594717532768
 30
0.0
 10
342.9193255227095
 20
637.4369019009036
 30
0.0
 10
342.9318346382938
 20
634.0437980904121
 30
0.0
 10
342.9438328066703
 20
630.5661415160803
 30
0.0
 10
342.9566118052713
 20
626.4962672494225
 30
0.0
 10
342.9706751414165
 20
621.6542472962891
 30
0.0
 10
342.9797110649253
 20
618.1651601415679
 30
0.0
 10
342.9845668912212
 20
616.2901552083921
 30
0.0
  0
SPLINE
  5
1A2
330
1F
100
AcDbEntity
  8
0
  6
Continuous
 62
     7
370
    15
100
AcDbSpline
210
0.0
220
0.0
230
1.0
 70
     8
 71
     3
 72
    24
 73
    20
 74
     0
 42
0.00000001
 43
0.00000001
 40
0.0
 40
0.0
 40
0.0
 40
0.0
 40
0.0595163123888558
 40
0.1082878232474323
 40
0.1463580775431218
 40
0.1794686770606575
 40
0.2116600166782569
 40
0.2423820367593504
 40
0.2722175660271462
 40
0.3021198336336842
 40
0.3382919861064932
 40
0.3883671995966658
 40
0.4479864491534303
 40
0.5171504431188042
 40
0.5958592910229682
 40
0.6841133694696169
 40
0.7819129727547734
 40
0.8892579629957478
 40
1.0
 40
1.0
 40
1.0
 40
1.0
 10
371.9845660567562
 20
616.2901552083921
 30
0.0
 10
371.9906696376798
 20
618.6312310830388
 30
0.0
 10
372.0017748870764
 20
622.8907357523842
 30
0.0
 10
372.0190261658224
 20
628.6474131222077
 30
0.0
 10
372.0347734233677
 20
633.36486697403
 30
0.0
 10
372.0497537009689
 20
637.4297138397081
 30
0.0
 10
372.064592040674
 20
641.2054750578556
 30
0.0
 10
372.0798418092252
 20
644.8522023321748
 30
0.0
 10
372.0954986323118
 20
648.4086992878006
 30
0.0
 10
372.11296469849
 20
652.1790962446053
 30
0.0
 10
372.1335970836728
 20
656.7464288037482
 30
0.0
 10
372.1594631519088
 20
662.4829437299416
 30
0.0
 10
372.191171468386
 20
669.5175213319707
 30
0.0
 10
372.2280051191569
 20
677.6786650039074
 30
0.0
 10
372.2698650845632
 20
686.9664017540109
 30
0.0
 10
372.3165518741628
 20
697.3807297221679
 30
0.0
 10
372.3676698951634
 20
708.9216564562383
 30
0.0
 10
372.4218420455583
 20
721.347314895394
 30
0.0
 10
372.4578892173255
 20
729.9260581192509
 30
0.0
 10
372.4761935487668
 20
734.2822434070539
 30
0.0
  0
ARC
  5
1A3
330
1F
100
AcDbEntity
  8
0
  6
Continuous
 62
     7
370
    15
100
AcDbCircle
 10
370.476271646
 20
734.2901613651
 30
0.0
 40
1.999983710580172
100
AcDbArc
 50
359.935383663
 51
90.0005658503
  0
ARC
  5
1A4
330
1F
100
AcDbEntity
  8
0
  6
Continuous
 62
     7
370
    15
100
AcDbCircle
 10
344.4928755682
 20
734.2901581886
 30
0.0
 40
2.000000000000053
100
AcDbArc
 50
90.0000189072
 51
180.1699205162
  0
LINE
  5
1A5
330
1F
100
AcDbEntity
  8
0
  6
Continuous
 62
     7
370
    15
100
AcDbLine
 10
387.4845658034
 20
606.2901647451
 30
0.0
 11
382.4845668465
 21
606.2901647451
 31
0.0
  0
LINE
  5
1A6
330
1F
100
AcDbEntity
  8
0
  6
Continuous
 62
     7
370
    15
100
AcDbLine
 10
382.4845668465
 20
276.2901516321
 30
0.0
 11
387.4845658034
 21
276.2901516321
 31
0.0
  0
LINE
  5
1A7
330
1F
100
AcDbEntity
  8
0
  6
Continuous
 62
     7
370
    15
100
AcDbLine
 10
332.4845661015
 20
606.2901647451
 30
0.0
 11
327.4845671445
 21
606.2901647451
 31
0.0
  0
LINE
  5
1A8
330
1F
100
AcDbEntity
  8
0
  6
Continuous
 62
     7
370
    15
100
AcDbLine
 10
327.4845671445
 20
276.2901516321
 30
0.0
 11
332.4845661015
 21
276.2901516321
 31
0.0
  0
SPLINE
  5
1A9
330
1F
100
AcDbEntity
  8
0
  6
Continuous
 62
     7
370
    15
100
AcDbSpline
210
0.0
220
0.0
230
1.0
 70
     8
 71
     3
 72
    11
 73
     7
 74
     0
 42
0.00000001
 43
0.00000001
 40
0.0
 40
0.0
 40
0.0
 40
0.0
 40
0.2999230119097631
 40
0.5572970481627415
 40
0.8169230075021701
 40
1.0
 40
1.0
 40
1.0
 40
1.0
 10
369.9845666602532
 20
470.2183616968823
 30
0.0
 10
370.1360206960729
 20
470.3058038661426
 30
0.0
 10
370.4174425401561
 20
470.4682831054095
 30
0.0
 10
370.7413517395252
 20
470.6552906077555
 30
0.0
 10
370.9506052824763
 20
470.7761058803512
 30
0.0
 10
370.9746311000038
 20
470.7899753016046
 30
0.0
 10
370.984566824166
 20
470.7957109126282
 30
0.0
  0
SPLINE
  5
1AA
330
1F
100
AcDbEntity
  8
0
  6
Continuous
 62
     7
370
    15
100
AcDbSpline
210
0.0
220
0.0
230
1.0
 70
    24
 71
     3
 72
    18
 73
    14
 74
     0
 42
0.00000001
 43
0.00000001
 40
0.0
 40
0.0
 40
0.0
 40
0.0
 40
0.039114462102795
 40
0.0780921056831308
 40
0.1389198832958475
 40
0.2382981341090543
 40
0.4914346146964769
 40
0.7614773672627647
 40
0.8314853080878912
 40
0.9019335755232336
 40
0.9480416186908522
 40
0.9875254311190177
 40
1.0
 40
1.0
 40
1.0
 40
1.0
 10
377.4845660269539
 20
467.0429354223443
 30
0.0
 10
377.4845660269539
 20
467.0305433301483
 30
0.0
 10
377.4845660269539
 20
467.0058024920701
 30
0.0
 10
377.4845660269539
 20
466.7942754422117
 30
0.0
 10
377.4845660269539
 20
466.3519767108467
 30
0.0
 10
377.4845660269539
 20
465.1996593339737
 30
0.0
 10
377.4845660269539
 20
463.3188464600852
 30
0.0
 10
377.4845660269539
 20
461.5121140743394
 30
0.0
 10
377.4845660269539
 20
460.3687717029403
 30
0.0
 10
377.4845660269539
 20
459.9080190356295
 30
0.0
 10
377.4845660269539
 20
459.6327235521032
 30
0.0
 10
377.4845660269539
 20
459.5440643382586
 30
0.0
 10
377.4845660269539
 20
459.538674701938
 30
0.0
 10
377.4845660269539
 20
459.537380716486
 30
0.0
  0
SPLINE
  5
1AB
330
1F
100
AcDbEntity
  8
0
  6
Continuous
 62
     7
370
    15
100
AcDbSpline
210
0.0
220
0.0
230
1.0
 70
     8
 71
     3
 72
    18
 73
    14
 74
     0
 42
0.00000001
 43
0.00000001
 40
0.0
 40
0.0
 40
0.0
 40
0.0
 40
0.0344336788959107
 40
0.072491465823574
 40
0.1306346034342966
 40
0.2236186724996012
 40
0.4104356558023305
 40
0.5001956486023499
 40
0.7376506735512144
 40
0.8568705451544993
 40
0.9094902699615509
 40
0.9625702641675137
 40
1.0
 40
1.0
 40
1.0
 40
1.0
 10
377.4845660269539
 20
459.537380716486
 30
0.0
 10
377.4762574299917
 20
459.5325836814528
 30
0.0
 10
377.4587657650857
 20
459.5224847285581
 30
0.0
 10
377.2989017546902
 20
459.4301870398577
 30
0.0
 10
376.9475709188092
 20
459.2273468308753
 30
0.0
 10
376.1462282770079
 20
458.7646910585133
 30
0.0
 10
375.1843339097956
 20
458.209344035525
 30
0.0
 10
373.852610263766
 20
457.4404685640413
 30
0.0
 10
372.6836312684726
 20
456.7655609190965
 30
0.0
 10
371.6715664707179
 20
456.1812443349153
 30
0.0
 10
371.2264356484769
 20
455.924248041918
 30
0.0
 10
371.0187514205638
 20
455.8043416912707
 30
0.0
 10
370.994567807084
 20
455.7903786314214
 30
0.0
 10
370.984566824166
 20
455.7846042948795
 30
0.0
  0
SPLINE
  5
1AC
330
1F
100
AcDbEntity
  8
0
  6
Continuous
 62
     7
370
    15
100
AcDbSpline
210
0.0
220
0.0
230
1.0
 70
     8
 71
     3
 72
    11
 73
     7
 74
     0
 42
0.00000001
 43
0.00000001
 40
0.0
 40
0.0
 40
0.0
 40
0.0
 40
0.1905148694760285
 40
0.3803632156556863
 40
0.67663695493004
 40
1.0
 40
1.0
 40
1.0
 40
1.0
 10
370.984566824166
 20
455.7846042948795
 30
0.0
 10
370.9738797583738
 20
455.7907743626642
 30
0.0
 10
370.952543015883
 20
455.8030929120239
 30
0.0
 10
370.7685588186487
 20
455.9093167161921
 30
0.0
 10
370.4538657760456
 20
456.0910049455362
 30
0.0
 10
370.1454935092278
 20
456.2690440570198
 30
0.0
 10
369.9845666602532
 20
456.3619553732706
 30
0.0
  0
SPLINE
  5
1AD
330
1F
100
AcDbEntity
  8
0
  6
Continuous
 62
     7
370
    15
100
AcDbSpline
210
0.0
220
0.0
230
1.0
 70
     8
 71
     3
 72
    18
 73
    14
 74
     0
 42
0.00000001
 43
0.00000001
 40
0.0
 40
0.0
 40
0.0
 40
0.0
 40
0.0391144520033593
 40
0.078092027267024
 40
0.1389198720023904
 40
0.2382981652206404
 40
0.4914347175272529
 40
0.7614772251805237
 40
0.8314854030829116
 40
0.9019336872484554
 40
0.9480415734075327
 40
0.9875254480364718
 40
1.0
 40
1.0
 40
1.0
 40
1.0
 10
370.984566824166
 20
470.7957109126282
 30
0.0
 10
370.9952984699712
 20
470.7895146762871
 30
0.0
 10
371.0167242073628
 20
470.7771438866549
 30
0.0
 10
371.1999118652788
 20
470.6713837767635
 30
0.0
 10
371.5829541762306
 20
470.4502316936262
 30
0.0
 10
372.5808898084463
 20
469.874072844303
 30
0.0
 10
374.2097222119493
 20
468.9336671684613
 30
0.0
 10
375.7743980887257
 20
468.0303002431422
 30
0.0
 10
376.7645616176987
 20
467.458629480313
 30
0.0
 10
377.1635879649176
 20
467.2282524368588
 30
0.0
 10
377.4019945366243
 20
467.090606281257
 30
0.0
 10
377.4787830224729
 20
467.0462754307385
 30
0.0
 10
377.4834464079091
 20
467.0435820649364
 30
0.0
 10
377.4845660269539
 20
467.0429354223443
 30
0.0
  0
SPLINE
  5
1AE
330
1F
100
AcDbEntity
  8
0
  6
Continuous
 62
     7
370
    15
100
AcDbSpline
210
0.0
220
0.0
230
1.0
 70
     8
 71
     3
 72
    18
 73
    14
 74
     0
 42
0.00000001
 43
0.00000001
 40
0.0
 40
0.0
 40
0.0
 40
0.0
 40
0.0344336919930901
 40
0.0724914586391419
 40
0.1306345332058386
 40
0.2236186401965475
 40
0.4104357218335176
 40
0.5001956991791514
 40
0.7376506308272652
 40
0.856870629700423
 40
0.9094902477810577
 40
0.9625702671301385
 40
1.0
 40
1.0
 40
1.0
 40
1.0
 10
350.4845662579219
 20
415.5373809549046
 30
0.0
 10
350.4762572495193
 20
415.5325839235407
 30
0.0
 10
350.4587647268159
 20
415.5224849832127
 30
0.0
 10
350.2989017837986
 20
415.4301873407674
 30
0.0
 10
349.9475716684871
 20
415.2273467496906
 30
0.0
 10
349.1462277777406
 20
414.7646919011107
 30
0.0
 10
348.184335397657
 20
414.2093410182454
 30
0.0
 10
346.8526085994218
 20
413.4404707497752
 30
0.0
 10
345.6836313670593
 20
412.7655614103425
 30
0.0
 10
344.6715660678082
 20
412.1812430573107
 30
0.0
 10
344.226435622975
 20
411.9242488807882
 30
0.0
 10
344.0187520442921
 20
411.8043400444822
 30
0.0
 10
343.9945674918067
 20
411.7903789758396
 30
0.0
 10
343.9845661238114
 20
411.7846054646207
 30
0.0
  0
SPLINE
  5
1AF
330
1F
100
AcDbEntity
  8
0
  6
Continuous
 62
     7
370
    15
100
AcDbSpline
210
0.0
220
0.0
230
1.0
 70
     8
 71
     3
 72
    18
 73
    14
 74
     0
 42
0.00000001
 43
0.00000001
 40
0.0
 40
0.0
 40
0.0
 40
0.0
 40
0.0391144520033593
 40
0.078092027267024
 40
0.1389198720023904
 40
0.2382981652206404
 40
0.4914347175272529
 40
0.7614772251805237
 40
0.8314854030829116
 40
0.9019336872484554
 40
0.9480415734075327
 40
0.9875254480364718
 40
1.0
 40
1.0
 40
1.0
 40
1.0
 10
343.9845661238114
 20
411.7846054646207
 30
0.0
 10
343.9738344780062
 20
411.7908017009618
 30
0.0
 10
343.9524087406146
 20
411.803172490594
 30
0.0
 10
343.7692210826987
 20
411.9089326004853
 30
0.0
 10
343.3861787717468
 20
412.1300846836227
 30
0.0
 10
342.3882431395311
 20
412.7062435329459
 30
0.0
 10
340.7594107360281
 20
413.6466492087875
 30
0.0
 10
339.1947348592517
 20
414.5500161341066
 30
0.0
 10
338.2045713302787
 20
415.1216868969358
 30
0.0
 10
337.8055449830598
 20
415.3520639403901
 30
0.0
 10
337.5671384113531
 20
415.4897100959919
 30
0.0
 10
337.4903499255045
 20
415.5340409465103
 30
0.0
 10
337.4856865400683
 20
415.5367343123125
 30
0.0
 10
337.4845669210235
 20
415.5373809549046
 30
0.0
  0
SPLINE
  5
1B0
330
1F
100
AcDbEntity
  8
0
  6
Continuous
 62
     7
370
    15
100
AcDbSpline
210
0.0
220
0.0
230
1.0
 70
    24
 71
     3
 72
    18
 73
    14
 74
     0
 42
0.00000001
 43
0.00000001
 40
0.0
 40
0.0
 40
0.0
 40
0.0
 40
0.039114462102795
 40
0.0780921056831308
 40
0.1389198832958475
 40
0.2382981341090543
 40
0.4914346146964769
 40
0.7614773672627647
 40
0.8314853080878912
 40
0.9019335755232336
 40
0.9480416186908522
 40
0.9875254311190177
 40
1.0
 40
1.0
 40
1.0
 40
1.0
 10
337.4845669210235
 20
415.5373809549046
 30
0.0
 10
337.4845669210235
 20
415.5497730471005
 30
0.0
 10
337.4845669210235
 20
415.5745138851788
 30
0.0
 10
337.4845669210235
 20
415.7860409350371
 30
0.0
 10
337.4845669210235
 20
416.2283396664022
 30
0.0
 10
337.4845669210235
 20
417.3806570432752
 30
0.0
 10
337.4845669210235
 20
419.2614699171636
 30
0.0
 10
337.4845669210236
 20
421.0682023029095
 30
0.0
 10
337.4845669210235
 20
422.2115446743085
 30
0.0
 10
337.4845669210235
 20
422.6722973416193
 30
0.0
 10
337.4845669210235
 20
422.9475928251456
 30
0.0
 10
337.4845669210235
 20
423.0362520389903
 30
0.0
 10
337.4845669210235
 20
423.0416416753108
 30
0.0
 10
337.4845669210235
 20
423.0429356607629
 30
0.0
  0
SPLINE
  5
1B1
330
1F
100
AcDbEntity
  8
0
  6
Continuous
 62
     7
370
    15
100
AcDbSpline
210
0.0
220
0.0
230
1.0
 70
     8
 71
     3
 72
    18
 73
    14
 74
     0
 42
0.00000001
 43
0.00000001
 40
0.0
 40
0.0
 40
0.0
 40
0.0
 40
0.0344336788959107
 40
0.072491465823574
 40
0.1306346034342966
 40
0.2236186724996012
 40
0.4104356558023305
 40
0.5001956486023499
 40
0.7376506735512144
 40
0.8568705451544993
 40
0.9094902699615509
 40
0.9625702641675137
 40
1.0
 40
1.0
 40
1.0
 40
1.0
 10
337.4845669210235
 20
423.0429356607629
 30
0.0
 10
337.4928755179857
 20
423.047732695796
 30
0.0
 10
337.5103671828917
 20
423.0578316486908
 30
0.0
 10
337.6702311932872
 20
423.1501293373911
 30
0.0
 10
338.0215620291682
 20
423.3529695463736
 30
0.0
 10
338.8229046709695
 20
423.8156253187356
 30
0.0
 10
339.7847990381819
 20
424.3709723417238
 30
0.0
 10
341.1165226842114
 20
425.1398478132075
 30
0.0
 10
342.2855016795048
 20
425.8147554581524
 30
0.0
 10
343.2975664772595
 20
426.3990720423335
 30
0.0
 10
343.7426972995006
 20
426.6560683353309
 30
0.0
 10
343.9503815274136
 20
426.7759746859782
 30
0.0
 10
343.9745651408934
 20
426.7899377458274
 30
0.0
 10
343.9845661238114
 20
426.7957120823694
 30
0.0
  0
SPLINE
  5
1B2
330
1F
100
AcDbEntity
  8
0
  6
Continuous
 62
     7
370
    15
100
AcDbSpline
210
0.0
220
0.0
230
1.0
 70
     8
 71
     3
 72
    18
 73
    14
 74
     0
 42
0.00000001
 43
0.00000001
 40
0.0
 40
0.0
 40
0.0
 40
0.0
 40
0.0391144676347483
 40
0.0780920918620744
 40
0.1389198352174596
 40
0.238298162806542
 40
0.4914346783036921
 40
0.7614772757724181
 40
0.8314853715292031
 40
0.9019336559074237
 40
0.948041593188339
 40
0.9875254429773228
 40
1.0
 40
1.0
 40
1.0
 40
1.0
 10
343.9845661238114
 20
426.7957120823694
 30
0.0
 10
343.995298174583
 20
426.7895160405085
 30
0.0
 10
344.0167247296507
 20
426.7771456338676
 30
0.0
 10
344.1999117553734
 20
426.6713821120847
 30
0.0
 10
344.5829534939774
 20
426.4502324617998
 30
0.0
 10
345.5808908376378
 20
425.8740746015364
 30
0.0
 10
347.2097209994735
 20
424.9336662454493
 30
0.0
 10
348.7743982105712
 20
424.0303012971107
 30
0.0
 10
349.7645612243347
 20
423.4586295189785
 30
0.0
 10
350.1635865906739
 20
423.2282525580468
 30
0.0
 10
350.4019957022148
 20
423.0906066181475
 30
0.0
 10
350.4787813556916
 20
423.0462756588399
 30
0.0
 10
350.4834462707531
 20
423.0435823017675
 30
0.0
 10
350.4845662579219
 20
423.0429356607629
 30
0.0
  0
CIRCLE
  5
1B3
330
1F
100
AcDbEntity
  8
0
  6
Continuous
 62
     7
370
    15
100
AcDbCircle
 10
343.984566474
 20
419.2901581886
 30
0.0
 40
5.505553499465115
  0
SPLINE
  5
1B4
330
1F
100
AcDbEntity
  8
0
  6
Continuous
 62
     7
370
    15
100
AcDbSpline
210
0.0
220
0.0
230
1.0
 70
    24
 71
     3
 72
    18
 73
    14
 74
     0
 42
0.00000001
 43
0.00000001
 40
0.0
 40
0.0
 40
0.0
 40
0.0
 40
0.039114462102795
 40
0.0780921056831308
 40
0.1389198832958475
 40
0.2382981341090543
 40
0.4914346146964769
 40
0.7614773672627647
 40
0.8314853080878912
 40
0.9019335755232336
 40
0.9480416186908522
 40
0.9875254311190177
 40
1.0
 40
1.0
 40
1.0
 40
1.0
 10
350.4845662579219
 20
423.0429356607629
 30
0.0
 10
350.4845662579219
 20
423.0305435685669
 30
0.0
 10
350.4845662579219
 20
423.0058027304887
 30
0.0
 10
350.4845662579219
 20
422.7942756806303
 30
0.0
 10
350.4845662579219
 20
422.3519769492652
 30
0.0
 10
350.4845662579219
 20
421.1996595723923
 30
0.0
 10
350.4845662579219
 20
419.3188466985038
 30
0.0
 10
350.4845662579219
 20
417.5121143127579
 30
0.0
 10
350.4845662579219
 20
416.3687719413589
 30
0.0
 10
350.4845662579219
 20
415.9080192740481
 30
0.0
 10
350.4845662579219
 20
415.6327237905218
 30
0.0
 10
350.4845662579219
 20
415.5440645766772
 30
0.0
 10
350.4845662579219
 20
415.5386749403566
 30
0.0
 10
350.4845662579219
 20
415.5373809549046
 30
0.0
  0
SPLINE
  5
1B5
330
1F
100
AcDbEntity
  8
0
  6
Continuous
 62
     7
370
    15
100
AcDbSpline
210
0.0
220
0.0
230
1.0
 70
     8
 71
     3
 72
    14
 73
    10
 74
     0
 42
0.00000001
 43
0.00000001
 40
0.0
 40
0.0
 40
0.0
 40
0.0
 40
0.1575841782930988
 40
0.3151115072307586
 40
0.4729864249406995
 40
0.6308559759668817
 40
0.7843616792325451
 40
0.9379123572628648
 40
1.0
 40
1.0
 40
1.0
 40
1.0
 10
365.4543575436155
 20
524.6885822775794
 30
0.0
 10
364.676312367146
 20
524.3352832548848
 30
0.0
 10
363.1205026982657
 20
523.6288126640529
 30
0.0
 10
360.5698021006341
 20
522.9932961617005
 30
0.0
 10
357.9392332603842
 20
522.7275835244052
 30
0.0
 10
355.3127453654553
 20
522.8530024375732
 30
0.0
 10
352.7797964622523
 20
523.3662347508754
 30
0.0
 10
350.8626336278458
 20
524.0347892453649
 30
0.0
 10
349.816098834062
 20
524.5424221285751
 30
0.0
 10
349.5147754043619
 20
524.6885822775793
 30
0.0
  0
ARC
  5
1B6
330
1F
100
AcDbEntity
  8
0
  6
Continuous
 62
     7
370
    15
100
AcDbCircle
 10
357.484566474
 20
504.2901581886
 30
0.0
 40
21.9000758142471
100
AcDbArc
 50
59.9123247387
 51
68.6591038327
  0
SPLINE
  5
1B7
330
1F
100
AcDbEntity
  8
0
  6
Continuous
 62
     7
370
    15
100
AcDbSpline
210
0.0
220
0.0
230
1.0
 70
     8
 71
     3
 72
    14
 73
    10
 74
     0
 42
0.00000001
 43
0.00000001
 40
0.0
 40
0.0
 40
0.0
 40
0.0
 40
0.1575842085606116
 40
0.315111655477732
 40
0.4729864230389729
 40
0.6308560816366778
 40
0.7843618725284186
 40
0.9379125444745163
 40
1.0
 40
1.0
 40
1.0
 40
1.0
 10
378.4017809272091
 20
510.7773350241615
 30
0.0
 10
377.6404573603232
 20
511.1653571067608
 30
0.0
 10
376.1180844543901
 20
511.9412615068694
 30
0.0
 10
374.030886526395
 20
513.539246459318
 30
0.0
 10
372.1830036196001
 20
515.4302310379321
 30
0.0
 10
370.6434727401518
 20
517.5619011933385
 30
0.0
 10
369.46547213566
 20
519.8622383961118
 30
0.0
 10
368.7928279543478
 20
521.7779697026269
 30
0.0
 10
368.5372116600645
 20
522.9126869780362
 30
0.0
 10
368.4636135191004
 20
523.2393996479941
 30
0.0
  0
ARC
  5
1B8
330
1F
100
AcDbEntity
  8
0
  6
Continuous
 62
     7
370
    15
100
AcDbCircle
 10
357.484566474
 20
504.2901581886
 30
0.0
 40
21.90007581424712
100
AcDbArc
 50
8.4837533101
 51
17.2305324042
  0
SPLINE
  5
1B9
330
1F
100
AcDbEntity
  8
0
  6
Continuous
 62
     7
370
    15
100
AcDbSpline
210
0.0
220
0.0
230
1.0
 70
     8
 71
     3
 72
    14
 73
    10
 74
     0
 42
0.00000001
 43
0.00000001
 40
0.0
 40
0.0
 40
0.0
 40
0.0
 40
0.1575840453288868
 40
0.3151113783013471
 40
0.4729863437369008
 40
0.63085594562291
 40
0.7843617783818344
 40
0.937912209872904
 40
1.0
 40
1.0
 40
1.0
 40
1.0
 10
375.5981144100706
 20
491.98111087708
 30
0.0
 10
375.426804364235
 20
492.8182643967874
 30
0.0
 10
375.0842459247212
 20
494.4922701560266
 30
0.0
 10
375.0322525130063
 20
497.1204343728955
 30
0.0
 10
375.3585519563262
 20
499.744176798885
 30
0.0
 10
376.0652758743329
 20
502.2769062809944
 30
0.0
 10
377.1292787925361
 20
504.6321406738411
 30
0.0
 10
378.2076712259861
 20
506.3524744347487
 30
0.0
 10
378.9354576998819
 20
507.2598069549292
 30
0.0
 10
379.1450061440746
 20
507.5210513236953
 30
0.0
  0
ARC
  5
1BA
330
1F
100
AcDbEntity
  8
0
  6
Continuous
 62
     7
370
    15
100
AcDbCircle
 10
357.484566474
 20
504.2901581886
 30
0.0
 40
21.9000758142471
100
AcDbArc
 50
317.0551818815
 51
325.8019609756
  0
SPLINE
  5
1BB
330
1F
100
AcDbEntity
  8
0
  6
Continuous
 62
     7
370
    15
100
AcDbSpline
210
0.0
220
0.0
230
1.0
 70
     8
 71
     3
 72
    14
 73
    10
 74
     0
 42
0.00000001
 43
0.00000001
 40
0.0
 40
0.0
 40
0.0
 40
0.0
 40
0.157584238402479
 40
0.3151114996348393
 40
0.472986441886836
 40
0.6308559434823121
 40
0.7843616603047523
 40
0.9379122326047865
 40
1.0
 40
1.0
 40
1.0
 40
1.0
 10
359.1545775603781
 20
482.4538485768271
 30
0.0
 10
359.7022813107476
 20
483.1097418836931
 30
0.0
 10
360.7974907801982
 20
484.4212913484253
 30
0.0
 10
362.8198556561228
 20
486.100575874846
 30
0.0
 10
365.074623906933
 20
487.4813412140007
 30
0.0
 10
367.4954252839599
 20
488.5079350961582
 30
0.0
 10
370.0002174291636
 20
489.1445263362554
 30
0.0
 10
372.0175956446891
 20
489.374016796418
 30
0.0
 10
373.1807451235783
 20
489.3707236816799
 30
0.0
 10
373.5156454682628
 20
489.3697755101157
 30
0.0
  0
ARC
  5
1BC
330
1F
100
AcDbEntity
  8
0
  6
Continuous
 62
     7
370
    15
100
AcDbCircle
 10
357.484566474
 20
504.2901581886
 30
0.0
 40
21.90007581424711
100
AcDbArc
 50
265.626610453
 51
274.373389547
  0
SPLINE
  5
1BD
330
1F
100
AcDbEntity
  8
0
  6
Continuous
 62
     7
370
    15
100
AcDbSpline
210
0.0
220
0.0
230
1.0
 70
     8
 71
     3
 72
    14
 73
    10
 74
     0
 42
0.00000001
 43
0.00000001
 40
0.0
 40
0.0
 40
0.0
 40
0.0
 40
0.1575841594511691
 40
0.3151114740969549
 40
0.4729863741521029
 40
0.630855875406486
 40
0.7843616300299797
 40
0.9379121938636047
 40
1.0
 40
1.0
 40
1.0
 40
1.0
 10
341.4534874797146
 20
489.3697755101157
 30
0.0
 10
342.3077727838702
 20
489.3505063493836
 30
0.0
 10
344.0160352287086
 20
489.3119749788191
 30
0.0
 10
346.5898763424909
 20
488.7778430035623
 30
0.0
 10
349.0752271215416
 20
487.8758870474759
 30
0.0
 10
351.3871957061766
 20
486.6232992964034
 30
0.0
 10
353.4466144711251
 20
485.0618809086453
 30
0.0
 10
354.8838532040101
 20
483.6277166260099
 30
0.0
 10
355.6064898118025
 20
482.716275737598
 30
0.0
 10
355.8145553875993
 20
482.4538485768271
 30
0.0
  0
ARC
  5
1BE
330
1F
100
AcDbEntity
  8
0
  6
Continuous
 62
     7
370
    15
100
AcDbCircle
 10
357.484566474
 20
504.2901581886
 30
0.0
 40
21.90007581424716
100
AcDbArc
 50
214.1980390244
 51
222.9448181185
  0
SPLINE
  5
1BF
330
1F
100
AcDbEntity
  8
0
  6
Continuous
 62
     7
370
    15
100
AcDbSpline
210
0.0
220
0.0
230
1.0
 70
     8
 71
     3
 72
    14
 73
    10
 74
     0
 42
0.00000001
 43
0.00000001
 40
0.0
 40
0.0
 40
0.0
 40
0.0
 40
0.1575840616786515
 40
0.3151115255063965
 40
0.4729864276697788
 40
0.6308558778646625
 40
0.7843617480185058
 40
0.9379122374478231
 40
1.0
 40
1.0
 40
1.0
 40
1.0
 10
335.8241268039028
 20
507.5210513236952
 30
0.0
 10
336.3416991837887
 20
506.8411306897742
 30
0.0
 10
337.3766580523982
 20
505.4815336220515
 30
0.0
 10
338.563821674294
 20
503.1361987653171
 30
0.0
 10
339.4082348843233
 20
500.6307129682448
 30
0.0
 10
339.8704088043729
 20
498.0421675574204
 30
0.0
 10
339.9336713926553
 20
495.4585215160624
 30
0.0
 10
339.7084999758426
 20
493.4406569552312
 30
0.0
 10
339.4464650797783
 20
492.3074035021564
 30
0.0
 10
339.3710185379068
 20
491.98111087708
 30
0.0
  0
ARC
  5
1C0
330
1F
100
AcDbEntity
  8
0
  6
Continuous
 62
     7
370
    15
100
AcDbCircle
 10
357.484566474
 20
504.2901581886
 30
0.0
 40
21.9000758142471
100
AcDbArc
 50
162.7694675958
 51
171.5162466899
  0
SPLINE
  5
1C1
330
1F
100
AcDbEntity
  8
0
  6
Continuous
 62
     7
370
    15
100
AcDbSpline
210
0.0
220
0.0
230
1.0
 70
     8
 71
     3
 72
    14
 73
    10
 74
     0
 42
0.00000001
 43
0.00000001
 40
0.0
 40
0.0
 40
0.0
 40
0.0
 40
0.1575839514048435
 40
0.3151115397976713
 40
0.4729864036085669
 40
0.630855855889382
 40
0.7843617357945478
 40
0.9379123602941576
 40
1.0
 40
1.0
 40
1.0
 40
1.0
 10
346.5055194288771
 20
523.2393996479941
 30
0.0
 10
346.2966358979772
 20
522.4108226781186
 30
0.0
 10
345.8789435474974
 20
520.7539650952831
 30
0.0
 10
344.7854759221935
 20
518.3635085793728
 30
0.0
 10
343.35308765403
 20
516.1411760345585
 30
0.0
 10
341.6174414661546
 20
514.165903069066
 30
0.0
 10
339.6369116897425
 20
512.5055613718649
 30
0.0
 10
337.9188896664118
 20
511.4234871463421
 30
0.0
 10
336.8694980619183
 20
510.9217870165471
 30
0.0
 10
336.5673520207683
 20
510.7773350241613
 30
0.0
  0
ARC
  5
1C2
330
1F
100
AcDbEntity
  8
0
  6
Continuous
 62
     7
370
    15
100
AcDbCircle
 10
357.484566474
 20
504.2901581886
 30
0.0
 40
21.9000758142471
100
AcDbArc
 50
111.3408961673
 51
120.0876752613
  0
LWPOLYLINE
  5
1C3
330
1F
100
AcDbEntity
  8
0
  6
Continuous
 62
     7
370
    15
100
AcDbPolyline
 90
        9
 70
   128
 43
0.0
 10
379.1450061441
 20
507.5210513237
 10
379.2317364902
 20
507.4356006148
 10
379.3088127464
 20
507.3514612081
 10
379.3740742445
 20
507.2709949377
 10
379.4256937295
 20
507.1964593294
 10
379.4622257889
 20
507.1299479964
 10
379.4826422423
 20
507.0733161333
 10
379.4863749832
 20
507.0281581643
 10
379.4733178407
 20
506.9957332375
  0
SPLINE
  5
1C4
330
1F
100
AcDbEntity
  8
0
  6
Continuous
 62
     7
370
    15
100
AcDbSpline
210
0.0
220
0.0
230
1.0
 70
     8
 71
     3
 72
    14
 73
    10
 74
     0
 42
0.00000001
 43
0.00000001
 40
0.0
 40
0.0
 40
0.0
 40
0.0
 40
0.0621970709042776
 40
0.2157645848866015
 40
0.3692822790472747
 40
0.5269933642697843
 40
0.6847105471761785
 40
0.8423237692800423
 40
1.0
 40
1.0
 40
1.0
 40
1.0
 10
379.4733178407232
 20
506.995733237548
 30
0.0
 10
379.275336584287
 20
506.7489173056255
 30
0.0
 10
378.5885302284697
 20
505.8927011475271
 30
0.0
 10
377.5695510230838
 20
504.2675668158919
 30
0.0
 10
376.5635485472346
 20
502.0416190607742
 30
0.0
 10
375.8955332869559
 20
499.6470906177924
 30
0.0
 10
375.5869346931139
 20
497.1665475641404
 30
0.0
 10
375.6366469923498
 20
494.6823737355963
 30
0.0
 10
375.9600886496959
 20
493.1022015968744
 30
0.0
 10
376.1218417972605
 20
492.3119576337767
 30
0.0
  0
LWPOLYLINE
  5
1C5
330
1F
100
AcDbEntity
  8
0
  6
Continuous
 62
     7
370
    15
100
AcDbPolyline
 90
        9
 70
   128
 43
0.0
 10
376.1218417973
 20
492.3119576338
 10
376.1195377052
 20
492.2770777407
 10
376.0965806037
 20
492.2380106214
 10
376.0536131054
 20
492.1958477858
 10
375.9918422044
 20
492.1517701509
 10
375.9129945725
 20
492.1070145133
 10
375.8192830324
 20
492.0628362956
 10
375.7133339137
 20
492.0204722944
 10
375.5981144101
 20
491.9811108771
  0
LWPOLYLINE
  5
1C6
330
1F
100
AcDbEntity
  8
0
  6
Continuous
 62
     7
370
    15
100
AcDbPolyline
 90
        9
 70
   128
 43
0.0
 10
368.4636135191
 20
523.239399648
 10
368.5845010519
 20
523.2539282802
 10
368.6983403355
 20
523.261729038
 10
368.8019397274
 20
523.2625858548
 10
368.8923962951
 20
523.2564763787
 10
368.9671749786
 20
523.2435645225
 10
369.0241803021
 20
523.2242153647
 10
369.0618150473
 20
523.1989802483
 10
369.0790240258
 20
523.1685520771
  0
SPLINE
  5
1C7
330
1F
100
AcDbEntity
  8
0
  6
Continuous
 62
     7
370
    15
100
AcDbSpline
210
0.0
220
0.0
230
1.0
 70
     8
 71
     3
 72
    14
 73
    10
 74
     0
 42
0.00000001
 43
0.00000001
 40
0.0
 40
0.0
 40
0.0
 40
0.0
 40
0.062196765251465
 40
0.2157647790106566
 40
0.3692819899910749
 40
0.5269934570047076
 40
0.6847105037703574
 40
0.8423237257363192
 40
1.0
 40
1.0
 40
1.0
 40
1.0
 10
369.0790240258257
 20
523.1685520770978
 30
0.0
 10
369.1485527100345
 20
522.8598785466147
 30
0.0
 10
369.389752411057
 20
521.7890692236238
 30
0.0
 10
370.025013861587
 20
519.9791465046189
 30
0.0
 10
371.1380973803681
 20
517.8047653575911
 30
0.0
 10
372.5937106371104
 20
515.789524602545
 30
0.0
 10
374.3406730893803
 20
514.0016616082222
 30
0.0
 10
376.3138723197181
 20
512.4916714120701
 30
0.0
 10
377.7509629698112
 20
511.7593264940232
 30
0.0
 10
378.4696519911568
 20
511.3930808070135
 30
0.0
  0
LWPOLYLINE
  5
1C8
330
1F
100
AcDbEntity
  8
0
  6
Continuous
 62
     7
370
    15
100
AcDbPolyline
 90
        9
 70
   128
 43
0.0
 10
378.4696519912
 20
511.393080807
 10
378.4954850167
 20
511.3695295217
 10
378.5117161066
 20
511.3272251251
 10
378.5178907752
 20
511.2673448089
 10
378.5138376594
 20
511.1915649536
 10
378.4996685177
 20
511.1020164254
 10
378.4757800937
 20
511.0012100699
 10
378.4428429395
 20
510.8919622066
 10
378.4017809272
 20
510.7773350242
  0
LWPOLYLINE
  5
1C9
330
1F
100
AcDbEntity
  8
0
  6
Continuous
 62
     7
370
    15
100
AcDbPolyline
 90
        9
 70
   128
 43
0.0
 10
349.5147754044
 20
524.6885822776
 10
349.5787898615
 20
524.7921527985
 10
349.6436676547
 20
524.8860226634
 10
349.7075917736
 20
524.9675543669
 10
349.7687694222
 20
525.0344605806
 10
349.8254865013
 20
525.0848786595
 10
349.876153709
 20
525.1173855427
 10
349.9193507783
 20
525.1310722592
 10
349.9538674556
 20
525.1255588296
  0
SPLINE
  5
1CA
330
1F
100
AcDbEntity
  8
0
  6
Continuous
 62
     7
370
    15
100
AcDbSpline
210
0.0
220
0.0
230
1.0
 70
     8
 71
     3
 72
    14
 73
    10
 74
     0
 42
0.00000001
 43
0.00000001
 40
0.0
 40
0.0
 40
0.0
 40
0.0
 40
0.0621969662795073
 40
0.2157647648086294
 40
0.3692822117320179
 40
0.5269933933739795
 40
0.6847106706450836
 40
0.8423237914207815
 40
1.0
 40
1.0
 40
1.0
 40
1.0
 10
349.9538674555997
 20
525.1255588295888
 30
0.0
 10
350.2385493930606
 20
524.9874626608529
 30
0.0
 10
351.2261270026415
 20
524.5083993053443
 30
0.0
 10
353.0372622573969
 20
523.8765993686964
 30
0.0
 10
355.4312567488687
 20
523.3911338479903
 30
0.0
 10
357.914397500691
 20
523.2726996848797
 30
0.0
 10
360.4014178213027
 20
523.5238179549937
 30
0.0
 10
362.8122466110159
 20
524.1250624789744
 30
0.0
 10
364.2808279133549
 20
524.7920155614022
 30
0.0
 10
365.0152654923777
 20
525.1255588295888
 30
0.0
  0
LWPOLYLINE
  5
1CB
330
1F
100
AcDbEntity
  8
0
  6
Continuous
 62
     7
370
    15
100
AcDbPolyline
 90
        9
 70
   128
 43
0.0
 10
365.0152654924
 20
525.1255588296
 10
365.0497821696
 20
525.1310722592
 10
365.092979239
 20
525.1173855427
 10
365.1436464466
 20
525.0848786595
 10
365.2003635258
 20
525.0344605806
 10
365.2615411744
 20
524.9675543669
 10
365.3254652933
 20
524.8860226634
 10
365.3903430864
 20
524.7921527985
 10
365.4543575436
 20
524.6885822776
  0
LWPOLYLINE
  5
1CC
330
1F
100
AcDbEntity
  8
0
  6
Continuous
 62
     7
370
    15
100
AcDbPolyline
 90
        9
 70
   128
 43
0.0
 10
373.5156454683
 20
489.3697755101
 10
373.5029087007
 20
489.248684949
 10
373.4851819068
 20
489.1359651151
 10
373.4629642755
 20
489.0347713294
 10
373.4368760675
 20
488.9479459885
 10
373.4076493025
 20
488.8779142561
 10
373.3761054069
 20
488.8266430858
 10
373.3431254119
 20
488.7955667141
 10
373.3096331895
 20
488.7855605843
  0
SPLINE
  5
1CD
330
1F
100
AcDbEntity
  8
0
  6
Continuous
 62
     7
370
    15
100
AcDbSpline
210
0.0
220
0.0
230
1.0
 70
     8
 71
     3
 72
    14
 73
    10
 74
     0
 42
0.00000001
 43
0.00000001
 40
0.0
 40
0.0
 40
0.0
 40
0.0
 40
0.0621969598066116
 40
0.2157646951431107
 40
0.3692822160978755
 40
0.5269933901003988
 40
0.6847105878479169
 40
0.842323795856603
 40
1.0
 40
1.0
 40
1.0
 40
1.0
 10
373.3096331894676
 20
488.7855605843497
 30
0.0
 10
372.9932260033994
 20
488.7864614721563
 30
0.0
 10
371.8955919670194
 20
488.7895867018069
 30
0.0
 10
369.9896879603182
 20
488.5729970929765
 30
0.0
 10
367.6221385871208
 20
487.9716677821224
 30
0.0
 10
365.3335202928544
 20
487.0009789802742
 30
0.0
 10
363.2017432753857
 20
485.6956599249139
 30
0.0
 10
361.2905357284189
 20
484.1079328919229
 30
0.0
 10
360.2567689259141
 20
482.8698359518577
 30
0.0
 10
359.7397822492103
 20
482.2506637933684
 30
0.0
  0
LWPOLYLINE
  5
1CE
330
1F
100
AcDbEntity
  8
0
  6
Continuous
 62
     7
370
    15
100
AcDbPolyline
 90
        9
 70
   128
 43
0.0
 10
359.7397822492
 20
482.2506637934
 10
359.711076792
 20
482.2307185891
 10
359.666218476
 20
482.2243073645
 10
359.6064645868
 20
482.2316126588
 10
359.5334898752
 20
482.2524258557
 10
359.4493390598
 20
482.2861658099
 10
359.3563708315
 20
482.331890023
 10
359.2571904488
 20
482.3883095446
 10
359.1545775604
 20
482.4538485768
  0
LWPOLYLINE
  5
1CF
330
1F
100
AcDbEntity
  8
0
  6
Continuous
 62
     7
370
    15
100
AcDbPolyline
 90
        9
 70
   128
 43
0.0
 10
355.8145553876
 20
482.4538485768
 10
355.7119424992
 20
482.3883095446
 10
355.6127621165
 20
482.331890023
 10
355.5197938882
 20
482.2861658099
 10
355.4356430728
 20
482.2524258557
 10
355.3626683612
 20
482.2316126588
 10
355.302914472
 20
482.2243073645
 10
355.258056156
 20
482.2307185891
 10
355.2293506988
 20
482.2506637934
  0
SPLINE
  5
1D0
330
1F
100
AcDbEntity
  8
0
  6
Continuous
 62
     7
370
    15
100
AcDbSpline
210
0.0
220
0.0
230
1.0
 70
     8
 71
     3
 72
    14
 73
    10
 74
     0
 42
0.00000001
 43
0.00000001
 40
0.0
 40
0.0
 40
0.0
 40
0.0
 40
0.0621970327676766
 40
0.2157647511748038
 40
0.3692821868074286
 40
0.5269934149680494
 40
0.6847106332851698
 40
0.842323816501334
 40
1.0
 40
1.0
 40
1.0
 40
1.0
 10
355.2293506987671
 20
482.2506637933684
 30
0.0
 10
355.0327787347397
 20
482.4986034104448
 30
0.0
 10
354.350860337366
 20
483.3587188758353
 30
0.0
 10
352.9932097528347
 20
484.7137709429188
 30
0.0
 10
351.0469302052978
 20
486.1898743373737
 30
0.0
 10
348.8610843303011
 20
487.3739729322018
 30
0.0
 10
346.5114031878945
 20
488.2268099005194
 30
0.0
 10
344.0784500131077
 20
488.7311216552794
 30
0.0
 10
342.4659239136009
 20
488.7674118575223
 30
0.0
 10
341.6594997585098
 20
488.7855605843497
 30
0.0
  0
LWPOLYLINE
  5
1D1
330
1F
100
AcDbEntity
  8
0
  6
Continuous
 62
     7
370
    15
100
AcDbPolyline
 90
        9
 70
   128
 43
0.0
 10
341.6594997585
 20
488.7855605843
 10
341.6260075361
 20
488.7955667141
 10
341.5930275411
 20
488.8266430858
 10
341.5614836455
 20
488.8779142561
 10
341.5322568804
 20
488.9479459885
 10
341.5061686725
 20
489.0347713294
 10
341.4839510411
 20
489.1359651151
 10
341.4662242472
 20
489.248684949
 10
341.4534874797
 20
489.3697755101
  0
LWPOLYLINE
  5
1D2
330
1F
100
AcDbEntity
  8
0
  6
Continuous
 62
     7
370
    15
100
AcDbPolyline
 90
        9
 70
   128
 43
0.0
 10
336.5673520208
 20
510.7773350242
 10
336.5262900085
 20
510.8919622066
 10
336.4933528543
 20
511.0012100699
 10
336.4694644302
 20
511.1020164254
 10
336.4552952886
 20
511.1915649536
 10
336.4512421727
 20
511.2673448089
 10
336.4574168414
 20
511.3272251251
 10
336.4736479312
 20
511.3695295217
 10
336.4994809568
 20
511.393080807
  0
SPLINE
  5
1D3
330
1F
100
AcDbEntity
  8
0
  6
Continuous
 62
     7
370
    15
100
AcDbSpline
210
0.0
220
0.0
230
1.0
 70
     8
 71
     3
 72
    14
 73
    10
 74
     0
 42
0.00000001
 43
0.00000001
 40
0.0
 40
0.0
 40
0.0
 40
0.0
 40
0.0621969483418244
 40
0.2157647297079269
 40
0.3692823684433016
 40
0.526993518032903
 40
0.684710847870755
 40
0.8423237754007503
 40
1.0
 40
1.0
 40
1.0
 40
1.0
 10
336.4994809568207
 20
511.3930808070135
 30
0.0
 10
336.7849449405499
 20
511.5295525523189
 30
0.0
 10
337.775235637003
 20
512.002980751348
 30
0.0
 10
339.3984221842636
 20
513.0250614669706
 30
0.0
 10
341.2706007826083
 20
514.5940847882408
 30
0.0
 10
342.9114108018019
 20
516.4616382182578
 30
0.0
 10
344.2657144626701
 20
518.5626343946938
 30
0.0
 10
345.298768539862
 20
520.8223650233268
 30
0.0
 10
345.692969081647
 20
522.3863850622498
 30
0.0
 10
345.8901089221517
 20
523.1685520770978
 30
0.0
  0
LWPOLYLINE
  5
1D4
330
1F
100
AcDbEntity
  8
0
  6
Continuous
 62
     7
370
    15
100
AcDbPolyline
 90
        9
 70
   128
 43
0.0
 10
345.8901089222
 20
523.1685520771
 10
345.9073179007
 20
523.1989802483
 10
345.9449526459
 20
523.2242153647
 10
346.0019579694
 20
523.2435645225
 10
346.0767366529
 20
523.2564763787
 10
346.1671932206
 20
523.2625858548
 10
346.2707926125
 20
523.261729038
 10
346.384631896
 20
523.2539282802
 10
346.5055194289
 20
523.239399648
  0
LWPOLYLINE
  5
1D5
330
1F
100
AcDbEntity
  8
0
  6
Continuous
 62
     7
370
    15
100
AcDbPolyline
 90
        9
 70
   128
 43
0.0
 10
339.3710185379
 20
491.9811108771
 10
339.2557990343
 20
492.0204722944
 10
339.1498499155
 20
492.0628362956
 10
339.0561383754
 20
492.1070145133
 10
338.9772907436
 20
492.1517701509
 10
338.9155198425
 20
492.1958477858
 10
338.8725523442
 20
492.2380106214
 10
338.8495952428
 20
492.2770777407
 10
338.8472911507
 20
492.3119576338
  0
SPLINE
  5
1D6
330
1F
100
AcDbEntity
  8
0
  6
Continuous
 62
     7
370
    15
100
AcDbSpline
210
0.0
220
0.0
230
1.0
 70
     8
 71
     3
 72
    14
 73
    10
 74
     0
 42
0.00000001
 43
0.00000001
 40
0.0
 40
0.0
 40
0.0
 40
0.0
 40
0.0621969295981744
 40
0.2157647860693995
 40
0.3692821501694503
 40
0.5269932793260468
 40
0.6847106349245168
 40
0.8423239283030087
 40
1.0
 40
1.0
 40
1.0
 40
1.0
 10
338.847291150717
 20
492.3119576337767
 30
0.0
 10
338.9185776384105
 20
492.6202309598542
 30
0.0
 10
339.1658746330723
 20
493.6896491559244
 30
0.0
 10
339.3788121898753
 20
495.5959644155481
 30
0.0
 10
339.31939472695
 20
498.0379618644869
 30
0.0
 10
338.8823045926684
 20
500.4851975003111
 30
0.0
 10
338.0840789876986
 20
502.8539880999019
 30
0.0
 10
336.9614455889213
 20
505.0705822074239
 30
0.0
 10
335.9844234471905
 20
506.3539310502152
 30
0.0
 10
335.4958151072542
 20
506.9957332375479
 30
0.0
  0
LWPOLYLINE
  5
1D7
330
1F
100
AcDbEntity
  8
0
  6
Continuous
 62
     7
370
    15
100
AcDbPolyline
 90
        9
 70
   128
 43
0.0
 10
335.4958151073
 20
506.9957332375
 10
335.4827579648
 20
507.0281581643
 10
335.4864907056
 20
507.0733161333
 10
335.5069071591
 20
507.1299479964
 10
335.5434392184
 20
507.1964593294
 10
335.5950587035
 20
507.2709949377
 10
335.6603202015
 20
507.3514612081
 10
335.7373964578
 20
507.4356006148
 10
335.8241268039
 20
507.5210513237
  0
SPLINE
  5
1D8
330
1F
100
AcDbEntity
  8
0
  6
Continuous
 62
     7
370
    15
100
AcDbSpline
210
0.0
220
0.0
230
1.0
 70
     8
 71
     3
 72
    11
 73
     7
 74
     0
 42
0.00000001
 43
0.00000001
 40
0.0
 40
0.0
 40
0.0
 40
0.0
 40
0.3340925085651961
 40
0.6236912680847839
 40
0.9185145540922016
 40
1.0
 40
1.0
 40
1.0
 40
1.0
 10
379.1450061440746
 20
507.5210513236952
 30
0.0
 10
379.5448225900319
 20
507.9110678931449
 30
0.0
 10
380.2912087549034
 20
508.6391594322781
 30
0.0
 10
381.2141284038308
 20
509.3964303286036
 30
0.0
 10
381.6538012250602
 20
509.7341637856467
 30
0.0
 10
381.7677625286839
 20
509.819740595525
 30
0.0
 10
381.7924395740311
 20
509.8382712963057
 30
0.0
  0
SPLINE
  5
1D9
330
1F
100
AcDbEntity
  8
0
  6
Continuous
 62
     7
370
    15
100
AcDbSpline
210
0.0
220
0.0
230
1.0
 70
     8
 71
     3
 72
    10
 73
     6
 74
     0
 42
0.00000001
 43
0.00000001
 40
0.0
 40
0.0
 40
0.0
 40
0.0
 40
0.0181798954469079
 40
0.9946471592715697
 40
1.0
 40
1.0
 40
1.0
 40
1.0
 10
381.7924395740311
 20
509.8382712963057
 30
0.0
 10
381.7932263971227
 20
509.8384501646338
 30
0.0
 10
381.8362745739017
 20
509.8482362976135
 30
0.0
 10
381.8780561056757
 20
509.8575840113157
 30
0.0
 10
381.8569889150899
 20
509.8530037139869
 30
0.0
 10
381.8568740576784
 20
509.852978742404
 30
0.0
  0
SPLINE
  5
1DA
330
1F
100
AcDbEntity
  8
0
  6
Continuous
 62
     7
370
    15
100
AcDbSpline
210
0.0
220
0.0
230
1.0
 70
     8
 71
     3
 72
    11
 73
     7
 74
     0
 42
0.00000001
 43
0.00000001
 40
0.0
 40
0.0
 40
0.0
 40
0.0
 40
0.2289914973298293
 40
0.4754091967918901
 40
0.717486039010592
 40
1.0
 40
1.0
 40
1.0
 40
1.0
 10
381.5932408511917
 20
509.123864925189
 30
0.0
 10
381.5792800940627
 20
509.1126024331479
 30
0.0
 10
381.5502961692852
 20
509.0892203759207
 30
0.0
 10
381.0944563456126
 20
508.6957180550401
 30
0.0
 10
380.3663432824382
 20
508.0140420594101
 30
0.0
 10
379.785906944387
 20
507.3521757609183
 30
0.0
 10
379.4733178407232
 20
506.9957332375479
 30
0.0
  0
SPLINE
  5
1DB
330
1F
100
AcDbEntity
  8
0
  6
Continuous
 62
     7
370
    15
100
AcDbSpline
210
0.0
220
0.0
230
1.0
 70
     8
 71
     3
 72
    11
 73
     7
 74
     0
 42
0.00000001
 43
0.00000001
 40
0.0
 40
0.0
 40
0.0
 40
0.0
 40
0.1990395317190969
 40
0.4636327635383903
 40
0.7350873363479041
 40
1.0
 40
1.0
 40
1.0
 40
1.0
 10
381.7924395740311
 20
509.8382712963058
 30
0.0
 10
381.704125717304
 20
509.8557264129944
 30
0.0
 10
381.49841182168
 20
509.8963854917127
 30
0.0
 10
380.7573890398356
 20
510.0605591822729
 30
0.0
 10
379.6737842974816
 20
510.3427425474691
 30
0.0
 10
378.8223203678534
 20
510.6336535832724
 30
0.0
 10
378.4017809272091
 20
510.7773350241613
 30
0.0
  0
SPLINE
  5
1DC
330
1F
100
AcDbEntity
  8
0
  6
Continuous
 62
     7
370
    15
100
AcDbSpline
210
0.0
220
0.0
230
1.0
 70
     8
 71
     3
 72
    12
 73
     8
 74
     0
 42
0.00000001
 43
0.00000001
 40
0.0
 40
0.0
 40
0.0
 40
0.0
 40
0.2490782045670756
 40
0.5012633005960184
 40
0.7464889383934794
 40
0.9925887344524661
 40
1.0
 40
1.0
 40
1.0
 40
1.0
 10
378.4696519911568
 20
511.3930808070135
 30
0.0
 10
378.815305021297
 20
511.2435778038029
 30
0.0
 10
379.5109226047393
 20
510.9427069629814
 30
0.0
 10
380.4180094327203
 20
510.6406408624449
 30
0.0
 10
381.0237851464655
 20
510.4658061564477
 30
0.0
 10
381.3158992254251
 20
510.3921293673983
 30
0.0
 10
381.2888303379189
 20
510.3991035783628
 30
0.0
 10
381.2880389929096
 20
510.3993074658346
 30
0.0
  0
SPLINE
  5
1DD
330
1F
100
AcDbEntity
  8
0
  6
Continuous
 62
     7
370
    15
100
AcDbSpline
210
0.0
220
0.0
230
1.0
 70
     8
 71
     3
 72
     9
 73
     5
 74
     0
 42
0.00000001
 43
0.00000001
 40
0.0
 40
0.0
 40
0.0
 40
0.0
 40
0.0183769973361255
 40
0.9999999999999999
 40
0.9999999999999999
 40
0.9999999999999999
 40
0.9999999999999999
 10
376.9779675245563
 20
488.7446904244853
 30
0.0
 10
376.9786012823217
 20
488.7441851654531
 30
0.0
 10
377.0130877522149
 20
488.7166910638366
 30
0.0
 10
377.021440204424
 20
488.7100267915079
 30
0.0
 10
377.0296391636411
 20
488.703484988494
 30
0.0
  0
SPLINE
  5
1DE
330
1F
100
AcDbEntity
  8
0
  6
Continuous
 62
     7
370
    15
100
AcDbSpline
210
0.0
220
0.0
230
1.0
 70
     8
 71
     3
 72
    11
 73
     7
 74
     0
 42
0.00000001
 43
0.00000001
 40
0.0
 40
0.0
 40
0.0
 40
0.0
 40
0.199039477206755
 40
0.4636327033442337
 40
0.735086996052115
 40
0.9999999999999999
 40
0.9999999999999999
 40
0.9999999999999999
 40
0.9999999999999999
 10
376.9779675245563
 20
488.7446904244853
 30
0.0
 10
376.9365529499365
 20
488.824620539274
 30
0.0
 10
376.8400838903392
 20
489.0108057911554
 30
0.0
 10
376.5064142195999
 20
489.6925192417881
 30
0.0
 10
376.0514149295715
 20
490.7156519100734
 30
0.0
 10
375.7479810699918
 20
491.5627347656618
 30
0.0
 10
375.5981144100706
 20
491.98111087708
 30
0.0
  0
SPLINE
  5
1DF
330
1F
100
AcDbEntity
  8
0
  6
Continuous
 62
     7
370
    15
100
AcDbSpline
210
0.0
220
0.0
230
1.0
 70
     8
 71
     3
 72
    12
 73
     8
 74
     0
 42
0.00000001
 43
0.00000001
 40
0.0
 40
0.0
 40
0.0
 40
0.0
 40
0.2490782169180508
 40
0.5012633885879337
 40
0.7464887418354262
 40
0.9925887190913818
 40
1.0
 40
1.0
 40
1.0
 40
1.0
 10
376.1218417972605
 20
492.3119576337767
 30
0.0
 10
376.2204672420475
 20
491.9485020486006
 30
0.0
 10
376.4189483668389
 20
491.2170572017536
 30
0.0
 10
376.7483402723783
 20
490.3195289168814
 30
0.0
 10
376.9893473651902
 20
489.7369206743218
 30
0.0
 10
377.1138792287069
 20
489.4625792895593
 30
0.0
 10
377.1024470383924
 20
489.4881008531669
 30
0.0
 10
377.1021128237526
 20
489.4888469639254
 30
0.0
  0
SPLINE
  5
1E0
330
1F
100
AcDbEntity
  8
0
  6
Continuous
 62
     7
370
    15
100
AcDbSpline
210
0.0
220
0.0
230
1.0
 70
     8
 71
     3
 72
    11
 73
     7
 74
     0
 42
0.00000001
 43
0.00000001
 40
0.0
 40
0.0
 40
0.0
 40
0.0
 40
0.3340919897577643
 40
0.6236913185948213
 40
0.9185146409601704
 40
1.0
 40
1.0
 40
1.0
 40
1.0
 10
373.5156454682628
 20
489.3697755101157
 30
0.0
 10
374.0698524606733
 20
489.3003555474603
 30
0.0
 10
375.1044599953274
 20
489.1707606174032
 30
0.0
 10
376.2719522876479
 20
488.9213476987919
 30
0.0
 10
376.8101376373924
 20
488.7881714142893
 30
0.0
 10
376.9480945305788
 20
488.7524298525961
 30
0.0
 10
376.9779675245563
 20
488.7446904244853
 30
0.0
  0
SPLINE
  5
1E1
330
1F
100
AcDbEntity
  8
0
  6
Continuous
 62
     7
370
    15
100
AcDbSpline
210
0.0
220
0.0
230
1.0
 70
     8
 71
     3
 72
    11
 73
     7
 74
     0
 42
0.00000001
 43
0.00000001
 40
0.0
 40
0.0
 40
0.0
 40
0.0
 40
0.2289915552811067
 40
0.475409229326499
 40
0.7174861814840946
 40
1.0
 40
1.0
 40
1.0
 40
1.0
 10
376.2952223956863
 20
488.4550044002963
 30
0.0
 10
376.2777124370381
 20
488.4588974336852
 30
0.0
 10
376.2413600224862
 20
488.4669797579477
 30
0.0
 10
375.6494968992397
 20
488.5780208322188
 30
0.0
 10
374.6625703801517
 20
488.7222701937788
 30
0.0
 10
373.7832068217725
 20
488.7634068137541
 30
0.0
 10
373.3096331894676
 20
488.7855605843497
 30
0.0
  0
SPLINE
  5
1E2
330
1F
100
AcDbEntity
  8
0
  6
Continuous
 62
     7
370
    15
100
AcDbSpline
210
0.0
220
0.0
230
1.0
 70
     8
 71
     3
 72
    11
 73
     7
 74
     0
 42
0.00000001
 43
0.00000001
 40
0.0
 40
0.0
 40
0.0
 40
0.0
 40
0.3340918907833729
 40
0.623691080431497
 40
0.9185147247776033
 40
1.0
 40
1.0
 40
1.0
 40
1.0
 10
368.4636135191004
 20
523.2393996479941
 30
0.0
 10
368.4079695690892
 20
523.7951590022119
 30
0.0
 10
368.3040920543714
 20
524.8326644360588
 30
0.0
 10
368.2874624675703
 20
526.0263817939648
 30
0.0
 10
368.2975381370846
 20
526.5807160489034
 30
0.0
 10
368.3016890208412
 20
526.7231643688739
 30
0.0
 10
368.3025878459493
 20
526.7540098789167
 30
0.0
  0
SPLINE
  5
1E3
330
1F
100
AcDbEntity
  8
0
  6
Continuous
 62
     7
370
    15
100
AcDbSpline
210
0.0
220
0.0
230
1.0
 70
     8
 71
     3
 72
    10
 73
     6
 74
     0
 42
0.00000001
 43
0.00000001
 40
0.0
 40
0.0
 40
0.0
 40
0.0
 40
0.0181803099606878
 40
0.994646731510176
 40
1.0
 40
1.0
 40
1.0
 40
1.0
 10
368.3025878459493
 20
526.7540098789167
 30
0.0
 10
368.3029377824253
 20
526.7547376891589
 30
0.0
 10
368.3220828450112
 20
526.7945562665138
 30
0.0
 10
368.340702345372
 20
526.8333534950551
 30
0.0
 10
368.3313144545083
 20
526.8136622833063
 30
0.0
 10
368.3312632680218
 20
526.8135549190473
 30
0.0
  0
SPLINE
  5
1E4
330
1F
100
AcDbEntity
  8
0
  6
Continuous
 62
     7
370
    15
100
AcDbSpline
210
0.0
220
0.0
230
1.0
 70
     8
 71
     3
 72
    11
 73
     7
 74
     0
 42
0.00000001
 43
0.00000001
 40
0.0
 40
0.0
 40
0.0
 40
0.0
 40
0.2289913101291198
 40
0.4754094733607413
 40
0.7174854036664972
 40
0.9999999999999999
 40
0.9999999999999999
 40
0.9999999999999999
 40
0.9999999999999999
 10
368.7369362056534
 20
526.1528448822927
 30
0.0
 10
368.7370369832317
 20
526.1349100835768
 30
0.0
 10
368.7372462078324
 20
526.0976755998419
 30
0.0
 10
368.7606883449462
 20
525.4959294032125
 30
0.0
 10
368.8396710538902
 20
524.5016570329428
 30
0.0
 10
368.9952422403769
 20
523.6351847346674
 30
0.0
 10
369.0790240258257
 20
523.1685520770978
 30
0.0
  0
SPLINE
  5
1E5
330
1F
100
AcDbEntity
  8
0
  6
Continuous
 62
     7
370
    15
100
AcDbSpline
210
0.0
220
0.0
230
1.0
 70
     8
 71
     3
 72
    11
 73
     7
 74
     0
 42
0.00000001
 43
0.00000001
 40
0.0
 40
0.0
 40
0.0
 40
0.0
 40
0.1990395211240299
 40
0.4636324587557119
 40
0.7350868858492904
 40
0.9999999999999999
 40
0.9999999999999999
 40
0.9999999999999999
 40
0.9999999999999999
 10
368.3025878459493
 20
526.7540098789167
 30
0.0
 10
368.2338770625125
 20
526.6958472955866
 30
0.0
 10
368.073825685339
 20
526.5603663550945
 30
0.0
 10
367.4834536632435
 20
526.083371864812
 30
0.0
 10
366.5872186302915
 20
525.4121113357788
 30
0.0
 10
365.8288951745328
 20
524.9277897696055
 30
0.0
 10
365.4543575436155
 20
524.6885822775793
 30
0.0
  0
SPLINE
  5
1E6
330
1F
100
AcDbEntity
  8
0
  6
Continuous
 62
     7
370
    15
100
AcDbSpline
210
0.0
220
0.0
230
1.0
 70
     8
 71
     3
 72
    12
 73
     8
 74
     0
 42
0.00000001
 43
0.00000001
 40
0.0
 40
0.0
 40
0.0
 40
0.0
 40
0.2490776507564052
 40
0.5012634766673589
 40
0.7464887125265459
 40
0.9925887676288467
 40
1.0
 40
1.0
 40
1.0
 40
1.0
 10
365.0152654923777
 20
525.125558829589
 30
0.0
 10
365.3476617638537
 20
525.3025868185113
 30
0.0
 10
366.0166021933355
 20
525.658851882539
 30
0.0
 10
366.8183256380792
 20
526.1797056103563
 30
0.0
 10
367.3327146505102
 20
526.5443251471695
 30
0.0
 10
367.5724306103644
 20
526.7267293096832
 30
0.0
 10
367.5501168602711
 20
526.70994605416
 30
0.0
 10
367.5494645327608
 20
526.7094554069471
 30
0.0
  0
SPLINE
  5
1E7
330
1F
100
AcDbEntity
  8
0
  6
Continuous
 62
     7
370
    15
100
AcDbSpline
210
0.0
220
0.0
230
1.0
 70
     8
 71
     3
 72
    11
 73
     7
 74
     0
 42
0.00000001
 43
0.00000001
 40
0.0
 40
0.0
 40
0.0
 40
0.0
 40
0.1990396476555842
 40
0.4636328493341377
 40
0.7350874604866434
 40
1.0
 40
1.0
 40
1.0
 40
1.0
 10
357.4845664739888
 20
479.3571637633277
 30
0.0
 10
357.5212370026497
 20
479.439379113146
 30
0.0
 10
357.6066554702261
 20
479.6308873746621
 30
0.0
 10
357.9316001902605
 20
480.3167998836052
 30
0.0
 10
358.4478309744785
 20
481.3104459093595
 30
0.0
 10
358.9209187828529
 20
482.0758261359271
 30
0.0
 10
359.1545775603781
 20
482.4538485768271
 30
0.0
  0
SPLINE
  5
1E8
330
1F
100
AcDbEntity
  8
0
  6
Continuous
 62
     7
370
    15
100
AcDbSpline
210
0.0
220
0.0
230
1.0
 70
     8
 71
     3
 72
    11
 73
     7
 74
     0
 42
0.00000001
 43
0.00000001
 40
0.0
 40
0.0
 40
0.0
 40
0.0
 40
0.334092202409664
 40
0.623691224309362
 40
0.9185146210415582
 40
1.0
 40
1.0
 40
1.0
 40
1.0
 10
355.8145553875993
 20
482.4538485768271
 30
0.0
 10
356.105824098711
 20
481.9772694546824
 30
0.0
 10
356.6495714167448
 20
481.0875802789791
 30
0.0
 10
357.1824897418705
 20
480.0192933530089
 30
0.0
 10
357.4139239271424
 20
479.5154898892617
 30
0.0
 10
357.4719924062732
 20
479.3853451287727
 30
0.0
 10
357.4845664739888
 20
479.3571637633277
 30
0.0
  0
SPLINE
  5
1E9
330
1F
100
AcDbEntity
  8
0
  6
Continuous
 62
     7
370
    15
100
AcDbSpline
210
0.0
220
0.0
230
1.0
 70
    24
 71
     3
 72
     9
 73
     5
 74
     0
 42
0.00000001
 43
0.00000001
 40
0.0
 40
0.0
 40
0.0
 40
0.0
 40
0.0183772421739772
 40
1.0
 40
1.0
 40
1.0
 40
1.0
 10
357.4845664739888
 20
479.3571637633277
 30
0.0
 10
357.4845664739886
 20
479.3563528513722
 30
0.0
 10
357.4845664739817
 20
479.3122269728603
 30
0.0
 10
357.4845664739851
 20
479.301552093076
 30
0.0
 10
357.4845664739885
 20
479.2910733881426
 30
0.0
  0
SPLINE
  5
1EA
330
1F
100
AcDbEntity
  8
0
  6
Continuous
 62
     7
370
    15
100
AcDbSpline
210
0.0
220
0.0
230
1.0
 70
     8
 71
     3
 72
    12
 73
     8
 74
     0
 42
0.00000001
 43
0.00000001
 40
0.0
 40
0.0
 40
0.0
 40
0.0
 40
0.2490781573856819
 40
0.5012631451889956
 40
0.7464887624495536
 40
0.9925887363820157
 40
1.0
 40
1.0
 40
1.0
 40
1.0
 10
359.7397822492103
 20
482.2506637933684
 30
0.0
 10
359.517114086896
 20
481.9469436700593
 30
0.0
 10
359.069000352048
 20
481.3357150265482
 30
0.0
 10
358.5726576088704
 20
480.5185910747052
 30
0.0
 10
358.2674042382288
 20
479.9669098065269
 30
0.0
 10
358.1306040439034
 20
479.6985000894975
 30
0.0
 10
358.1433998594526
 20
479.7233486220241
 30
0.0
 10
358.1437739381845
 20
479.7240750554038
 30
0.0
  0
SPLINE
  5
1EB
330
1F
100
AcDbEntity
  8
0
  6
Continuous
 62
     7
370
    15
100
AcDbSpline
210
0.0
220
0.0
230
1.0
 70
     8
 71
     3
 72
    11
 73
     7
 74
     0
 42
0.00000001
 43
0.00000001
 40
0.0
 40
0.0
 40
0.0
 40
0.0
 40
0.2289914794541495
 40
0.4754093322691597
 40
0.7174860840103786
 40
1.0
 40
1.0
 40
1.0
 40
1.0
 10
356.8323959667514
 20
479.7103399100733
 30
0.0
 10
356.8245225580216
 20
479.7264554033442
 30
0.0
 10
356.8081765699705
 20
479.759912787494
 30
0.0
 10
356.525973507949
 20
480.2918892135975
 30
0.0
 10
356.0234111845564
 20
481.1534334236325
 30
0.0
 10
355.5072987390804
 20
481.8665960346797
 30
0.0
 10
355.2293506987671
 20
482.2506637933684
 30
0.0
  0
SPLINE
  5
1EC
330
1F
100
AcDbEntity
  8
0
  6
Continuous
 62
     7
370
    15
100
AcDbSpline
210
0.0
220
0.0
230
1.0
 70
     8
 71
     3
 72
    11
 73
     7
 74
     0
 42
0.00000001
 43
0.00000001
 40
0.0
 40
0.0
 40
0.0
 40
0.0
 40
0.1990396022549023
 40
0.4636327430448393
 40
0.735087006530643
 40
1.0
 40
1.0
 40
1.0
 40
1.0
 10
346.6665451020281
 20
526.7540098789167
 30
0.0
 10
346.6691780964184
 20
526.6640254297572
 30
0.0
 10
346.6753112598582
 20
526.4544202229413
 30
0.0
 10
346.6801523704705
 20
525.6954458004998
 30
0.0
 10
346.6461705312481
 20
524.5762183064614
 30
0.0
 10
346.5520203934823
 20
523.6813681507155
 30
0.0
 10
346.5055194288771
 20
523.239399647994
 30
0.0
  0
SPLINE
  5
1ED
330
1F
100
AcDbEntity
  8
0
  6
Continuous
 62
     7
370
    15
100
AcDbSpline
210
0.0
220
0.0
230
1.0
 70
     8
 71
     3
 72
     9
 73
     5
 74
     0
 42
0.00000001
 43
0.00000001
 40
0.0
 40
0.0
 40
0.0
 40
0.0
 40
0.9816225900269782
 40
1.0
 40
1.0
 40
1.0
 40
1.0
 10
346.6378696799557
 20
526.8135549190473
 30
0.0
 10
346.6424256897083
 20
526.8041266556216
 30
0.0
 10
346.6470669946241
 20
526.7945218813209
 30
0.0
 10
346.6661936044774
 20
526.7547409494116
 30
0.0
 10
346.6665451020281
 20
526.7540098789167
 30
0.0
  0
SPLINE
  5
1EE
330
1F
100
AcDbEntity
  8
0
  6
Continuous
 62
     7
370
    15
100
AcDbSpline
210
0.0
220
0.0
230
1.0
 70
     8
 71
     3
 72
    12
 73
     8
 74
     0
 42
0.00000001
 43
0.00000001
 40
0.0
 40
0.0
 40
0.0
 40
0.0
 40
0.2490781434135664
 40
0.5012632435174503
 40
0.746488828334763
 40
0.9925887507088595
 40
1.0
 40
1.0
 40
1.0
 40
1.0
 10
345.8901089221517
 20
523.1685520770978
 30
0.0
 10
345.9589474489429
 20
523.5388066012503
 30
0.0
 10
346.0974831821285
 20
524.2839341389783
 30
0.0
 10
346.1901324142536
 20
525.2354922352773
 30
0.0
 10
346.2257938332287
 20
525.8649901883688
 30
0.0
 10
346.23258108013
 20
526.1661604629278
 30
0.0
 10
346.2318393772807
 20
526.1382312246527
 30
0.0
 10
346.2318176940362
 20
526.1374147298765
 30
0.0
  0
SPLINE
  5
1EF
330
1F
100
AcDbEntity
  8
0
  6
Continuous
 62
     7
370
    15
100
AcDbSpline
210
0.0
220
0.0
230
1.0
 70
     8
 71
     3
 72
    11
 73
     7
 74
     0
 42
0.00000001
 43
0.00000001
 40
0.0
 40
0.0
 40
0.0
 40
0.0
 40
0.334092297208581
 40
0.6236915173625225
 40
0.9185145592816366
 40
1.0
 40
1.0
 40
1.0
 40
1.0
 10
349.5147754043619
 20
524.6885822775793
 30
0.0
 10
349.0455715017901
 20
524.9915887530607
 30
0.0
 10
348.1696503973753
 20
525.5572485124823
 30
0.0
 10
347.2259950959298
 20
526.2885238450523
 30
0.0
 10
346.7988870610412
 20
526.6420075979498
 30
0.0
 10
346.6901014279327
 20
526.7340739322814
 30
0.0
 10
346.6665451020281
 20
526.7540098789168
 30
0.0
  0
SPLINE
  5
1F0
330
1F
100
AcDbEntity
  8
0
  6
Continuous
 62
     7
370
    15
100
AcDbSpline
210
0.0
220
0.0
230
1.0
 70
     8
 71
     3
 72
    11
 73
     7
 74
     0
 42
0.00000001
 43
0.00000001
 40
0.0
 40
0.0
 40
0.0
 40
0.0
 40
0.2289915033802913
 40
0.4754092975223695
 40
0.7174861555426466
 40
1.0
 40
1.0
 40
1.0
 40
1.0
 10
347.4073675066511
 20
526.7187760832738
 30
0.0
 10
347.4214539871337
 20
526.7076725841787
 30
0.0
 10
347.4506989315615
 20
526.6846206078958
 30
0.0
 10
347.9357698813792
 20
526.3277706620195
 30
0.0
 10
348.7623733175167
 20
525.7695985421162
 30
0.0
 10
349.5368042747806
 20
525.3509944758881
 30
0.0
 10
349.9538674555997
 20
525.1255588295888
 30
0.0
  0
SPLINE
  5
1F1
330
1F
100
AcDbEntity
  8
0
  6
Continuous
 62
     7
370
    15
100
AcDbSpline
210
0.0
220
0.0
230
1.0
 70
     8
 71
     3
 72
     9
 73
     5
 74
     0
 42
0.00000001
 43
0.00000001
 40
0.0
 40
0.0
 40
0.0
 40
0.0
 40
0.0183769973361255
 40
0.9999999999999999
 40
0.9999999999999999
 40
0.9999999999999999
 40
0.9999999999999999
 10
337.9911654234211
 20
488.7446904244853
 30
0.0
 10
337.9905316656557
 20
488.7441851654531
 30
0.0
 10
337.9560451957626
 20
488.7166910638366
 30
0.0
 10
337.9476927435534
 20
488.7100267915079
 30
0.0
 10
337.9394937843363
 20
488.703484988494
 30
0.0
  0
SPLINE
  5
1F2
330
1F
100
AcDbEntity
  8
0
  6
Continuous
 62
     7
370
    15
100
AcDbSpline
210
0.0
220
0.0
230
1.0
 70
     8
 71
     3
 72
    11
 73
     7
 74
     0
 42
0.00000001
 43
0.00000001
 40
0.0
 40
0.0
 40
0.0
 40
0.0
 40
0.1990396499973586
 40
0.4636327019769881
 40
0.7350872920701149
 40
1.0
 40
1.0
 40
1.0
 40
1.0
 10
337.9911654234211
 20
488.7446904244853
 30
0.0
 10
338.0783080520269
 20
488.7672806707144
 30
0.0
 10
338.2812935996724
 20
488.8199012259539
 30
0.0
 10
339.020159583396
 20
488.9935102444428
 30
0.0
 10
340.1188895200227
 20
489.2094286520229
 30
0.0
 10
341.012253507978
 20
489.3167629301563
 30
0.0
 10
341.4534874797146
 20
489.3697755101157
 30
0.0
  0
SPLINE
  5
1F3
330
1F
100
AcDbEntity
  8
0
  6
Continuous
 62
     7
370
    15
100
AcDbSpline
210
0.0
220
0.0
230
1.0
 70
     8
 71
     3
 72
    12
 73
     8
 74
     0
 42
0.00000001
 43
0.00000001
 40
0.0
 40
0.0
 40
0.0
 40
0.0
 40
0.2490780492687529
 40
0.5012631894329468
 40
0.7464887871776439
 40
0.992588734904925
 40
1.0
 40
1.0
 40
1.0
 40
1.0
 10
341.6594997585098
 20
488.7855605843497
 30
0.0
 10
341.2832107336513
 20
488.7702830800541
 30
0.0
 10
340.5259387166955
 20
488.7395374942739
 30
0.0
 10
339.5776204638929
 20
488.6181225974688
 30
0.0
 10
338.9559764078062
 20
488.5128145180869
 30
0.0
 10
338.6608319964149
 20
488.4524137190791
 30
0.0
 10
338.6882377632177
 20
488.4579060243076
 30
0.0
 10
338.6890389561931
 20
488.4580665889216
 30
0.0
  0
SPLINE
  5
1F4
330
1F
100
AcDbEntity
  8
0
  6
Continuous
 62
     7
370
    15
100
AcDbSpline
210
0.0
220
0.0
230
1.0
 70
     8
 71
     3
 72
    11
 73
     7
 74
     0
 42
0.00000001
 43
0.00000001
 40
0.0
 40
0.0
 40
0.0
 40
0.0
 40
0.3340922718784299
 40
0.6236912387502914
 40
0.9185146534046477
 40
1.0
 40
1.0
 40
1.0
 40
1.0
 10
339.3710185379068
 20
491.98111087708
 30
0.0
 10
339.1800169753883
 20
491.4562451739168
 30
0.0
 10
338.8234508074234
 20
490.4764136479051
 30
0.0
 10
338.3204982818946
 20
489.3936959385418
 30
0.0
 10
338.07090698798
 20
488.8986343237095
 30
0.0
 10
338.0053590727381
 20
488.7720917644535
 30
0.0
 10
337.9911654234211
 20
488.7446904244853
 30
0.0
  0
SPLINE
  5
1F5
330
1F
100
AcDbEntity
  8
0
  6
Continuous
 62
     7
370
    15
100
AcDbSpline
210
0.0
220
0.0
230
1.0
 70
     8
 71
     3
 72
    11
 73
     7
 74
     0
 42
0.00000001
 43
0.00000001
 40
0.0
 40
0.0
 40
0.0
 40
0.0
 40
0.2289914801477306
 40
0.4754092693930329
 40
0.7174859497732899
 40
1.0
 40
1.0
 40
1.0
 40
1.0
 10
337.860668504266
 20
489.4747802677584
 30
0.0
 10
337.868359204258
 20
489.4909840046108
 30
0.0
 10
337.8843258684412
 20
489.5246245867559
 30
0.0
 10
338.1242911044008
 20
490.076940514187
 30
0.0
 10
338.4845330883466
 20
491.0070227907621
 30
0.0
 10
338.7203135241604
 20
491.8551861754274
 30
0.0
 10
338.847291150717
 20
492.3119576337767
 30
0.0
  0
SPLINE
  5
1F6
330
1F
100
AcDbEntity
  8
0
  6
Continuous
 62
     7
370
    15
100
AcDbSpline
210
0.0
220
0.0
230
1.0
 70
     8
 71
     3
 72
    11
 73
     7
 74
     0
 42
0.00000001
 43
0.00000001
 40
0.0
 40
0.0
 40
0.0
 40
0.0
 40
0.3340922556943952
 40
0.6236912806956996
 40
0.9185145588541078
 40
1.0
 40
1.0
 40
1.0
 40
1.0
 10
336.5673520207683
 20
510.7773350241613
 30
0.0
 10
336.0379086018995
 20
510.5994166673991
 30
0.0
 10
335.0495311751798
 20
510.2672744944001
 30
0.0
 10
333.889440035317
 20
509.9854381068434
 30
0.0
 10
333.3467721657922
 20
509.8719157286643
 30
0.0
 10
333.2069666857979
 20
509.844259864203
 30
0.0
 10
333.1766933739464
 20
509.8382712963057
 30
0.0
  0
SPLINE
  5
1F7
330
1F
100
AcDbEntity
  8
0
  6
Continuous
 62
     7
370
    15
100
AcDbSpline
210
0.0
220
0.0
230
1.0
 70
     8
 71
     3
 72
    10
 73
     6
 74
     0
 42
0.00000001
 43
0.00000001
 40
0.0
 40
0.0
 40
0.0
 40
0.0
 40
0.0181798954469079
 40
0.9946471592715697
 40
1.0
 40
1.0
 40
1.0
 40
1.0
 10
333.1766933739464
 20
509.8382712963057
 30
0.0
 10
333.1759065508547
 20
509.8384501646338
 30
0.0
 10
333.1328583740757
 20
509.8482362976135
 30
0.0
 10
333.0910768423017
 20
509.8575840113157
 30
0.0
 10
333.1121440328874
 20
509.8530037139869
 30
0.0
 10
333.112258890299
 20
509.852978742404
 30
0.0
  0
SPLINE
  5
1F8
330
1F
100
AcDbEntity
  8
0
  6
Continuous
 62
     7
370
    15
100
AcDbSpline
210
0.0
220
0.0
230
1.0
 70
     8
 71
     3
 72
    11
 73
     7
 74
     0
 42
0.00000001
 43
0.00000001
 40
0.0
 40
0.0
 40
0.0
 40
0.0
 40
0.228991531001696
 40
0.4754092637881179
 40
0.7174858993301234
 40
1.0
 40
1.0
 40
1.0
 40
1.0
 10
333.6661350518743
 20
510.3955002191497
 30
0.0
 10
333.6835998797382
 20
510.3995908556436
 30
0.0
 10
333.7198586047688
 20
510.4080834251088
 30
0.0
 10
334.3012896778914
 20
510.5648375530871
 30
0.0
 10
335.2530664830744
 20
510.8630806492899
 30
0.0
 10
336.0631935651197
 20
511.2075627540024
 30
0.0
 10
336.4994809568207
 20
511.3930808070135
 30
0.0
  0
SPLINE
  5
1F9
330
1F
100
AcDbEntity
  8
0
  6
Continuous
 62
     7
370
    15
100
AcDbSpline
210
0.0
220
0.0
230
1.0
 70
     8
 71
     3
 72
    11
 73
     7
 74
     0
 42
0.00000001
 43
0.00000001
 40
0.0
 40
0.0
 40
0.0
 40
0.0
 40
0.1990394462206548
 40
0.4636328947727585
 40
0.7350865307150081
 40
1.0
 40
1.0
 40
1.0
 40
1.0
 10
333.1766933739464
 20
509.8382712963058
 30
0.0
 10
333.2486879599899
 20
509.7842275983511
 30
0.0
 10
333.416388679466
 20
509.658340812577
 30
0.0
 10
334.0127927341221
 20
509.1888995471758
 30
0.0
 10
334.8666577344773
 20
508.4645163679025
 30
0.0
 10
335.5075754472584
 20
507.8329727728857
 30
0.0
 10
335.8241268039028
 20
507.5210513236952
 30
0.0
  0
SPLINE
  5
1FA
330
1F
100
AcDbEntity
  8
0
  6
Continuous
 62
     7
370
    15
100
AcDbSpline
210
0.0
220
0.0
230
1.0
 70
     8
 71
     3
 72
    12
 73
     8
 74
     0
 42
0.00000001
 43
0.00000001
 40
0.0
 40
0.0
 40
0.0
 40
0.0
 40
0.2490778004384884
 40
0.5012632824305391
 40
0.7464889045444282
 40
0.9925887722940402
 40
1.0
 40
1.0
 40
1.0
 40
1.0
 10
335.4958151072542
 20
506.9957332375479
 30
0.0
 10
335.2492590774148
 20
507.2804028797923
 30
0.0
 10
334.7530707996847
 20
507.8532939163622
 30
0.0
 10
334.0668770419365
 20
508.5190112756258
 30
0.0
 10
333.5969551827558
 20
508.9394025660551
 30
0.0
 10
333.365713522864
 20
509.1324246190595
 30
0.0
 10
333.3870948253724
 20
509.1144730058476
 30
0.0
 10
333.3877198934833
 20
509.1139482024145
 30
0.0
  0
ARC
  5
1FB
330
1F
100
AcDbEntity
  8
0
  6
Continuous
 62
     7
370
    15
100
AcDbCircle
 10
375.484566474
 20
411.2901581886
 30
0.0
 40
2.0
100
AcDbArc
 50
270.0
 51
0.0
  0
LINE
  5
1FC
330
1F
100
AcDbEntity
  8
0
  6
Continuous
 62
     7
370
    15
100
AcDbLine
 10
296.4599825979
 20
409.2901566687
 30
0.0
 11
375.4845656991
 21
409.2901566687
 31
0.0
  0
ARC
  5
1FD
330
1F
100
AcDbEntity
  8
0
  6
Continuous
 62
     7
370
    15
100
AcDbCircle
 10
296.4599812644
 20
411.2901581886
 30
0.0
 40
2.0
100
AcDbArc
 50
206.178968704
 51
270.0
  0
ARC
  5
1FE
330
1F
100
AcDbEntity
  8
0
  6
Continuous
 62
     7
370
    15
100
AcDbCircle
 10
357.484566474
 20
441.2901581886
 30
0.0
 40
70.00000000000006
100
AcDbArc
 50
108.7192343652
 51
206.178968704
  0
CIRCLE
  5
1FF
330
1F
100
AcDbEntity
  8
0
  6
Continuous
 62
     7
370
    15
100
AcDbCircle
 10
294.484566474
 20
441.2901581886
 30
0.0
 40
2.0
  0
LINE
  5
200
330
1F
100
AcDbEntity
  8
0
  6
Continuous
 62
     7
370
    15
100
AcDbLine
 10
377.484566027
 20
411.2901588592
 30
0.0
 11
377.484566027
 21
459.3623721662
 31
0.0
  0
LINE
  5
201
330
1F
100
AcDbEntity
  8
0
  6
Continuous
 62
     7
370
    15
100
AcDbLine
 10
377.484566027
 20
467.2179458353
 30
0.0
 11
377.484566027
 21
503.9464192155
 31
0.0
  0
CIRCLE
  5
202
330
1F
100
AcDbEntity
  8
0
  6
Continuous
 62
     7
370
    15
100
AcDbCircle
 10
294.484566474
 20
441.2901581886
 30
0.0
 40
0.5
  0
LINE
  5
203
330
1F
100
AcDbEntity
  8
0
  6
Continuous
 62
     7
370
    15
100
AcDbLine
 10
368.9845664963
 20
616.2901552084
 30
0.0
 11
371.9845660568
 21
616.2901552084
 31
0.0
  0
LINE
  5
204
330
1F
100
AcDbEntity
  8
0
  6
Continuous
 62
     7
370
    15
100
AcDbLine
 10
345.9845664516
 20
616.2901552084
 30
0.0
 11
368.9845664963
 21
616.2901552084
 31
0.0
  0
LINE
  5
205
330
1F
100
AcDbEntity
  8
0
  6
Continuous
 62
     7
370
    15
100
AcDbLine
 10
342.9845668912
 20
616.2901552084
 30
0.0
 11
345.9845664516
 21
616.2901552084
 31
0.0
  0
SPLINE
  5
206
330
1F
100
AcDbEntity
  8
0
  6
Continuous
 62
     7
370
    15
100
AcDbSpline
210
0.0
220
0.0
230
1.0
 70
    24
 71
     3
 72
    25
 73
    21
 74
     0
 42
0.00000001
 43
0.00000001
 40
0.0
 40
0.0
 40
0.0
 40
0.0
 40
0.0538119786334129
 40
0.1091760228989362
 40
0.1621848634952825
 40
0.2168213377782666
 40
0.268630367753164
 40
0.321838212882196
 40
0.3754862193769973
 40
0.4306773866599913
 40
0.4975235537722565
 40
0.551444192488259
 40
0.6069254533859956
 40
0.6608452802808785
 40
0.7163347417447601
 40
0.7701845766651192
 40
0.8256157999365296
 40
0.8791590559815506
 40
0.9344889221254572
 40
1.0
 40
1.0
 40
1.0
 40
1.0
 10
344.4943739638011
 20
736.2901450756025
 30
0.0
 10
344.5401521048791
 20
736.2901450756025
 30
0.0
 10
344.6330287376574
 20
736.2901450756025
 30
0.0
 10
345.2204482782687
 20
736.2901450756025
 30
0.0
 10
346.1790492443168
 20
736.2901450756025
 30
0.0
 10
347.4307541235611
 20
736.2901450756025
 30
0.0
 10
348.9544386312527
 20
736.2901450756026
 30
0.0
 10
350.6955747539454
 20
736.2901450756025
 30
0.0
 10
352.6606091187914
 20
736.2901450756025
 30
0.0
 10
354.9366581037047
 20
736.2901450756026
 30
0.0
 10
357.3109230214599
 20
736.2901450756025
 30
0.0
 10
359.6857861207327
 20
736.2901450756025
 30
0.0
 10
361.8260415723649
 20
736.2901450756027
 30
0.0
 10
363.86207110319
 20
736.2901450756025
 30
0.0
 10
365.6983293864935
 20
736.2901450756026
 30
0.0
 10
367.3149957934609
 20
736.2901450756025
 30
0.0
 10
368.6373515291
 20
736.2901450756026
 30
0.0
 10
369.6397247122582
 20
736.2901450756025
 30
0.0
 10
370.3655231430214
 20
736.2901450756026
 30
0.0
 10
370.3399103047161
 20
736.2901450756025
 30
0.0
 10
370.3260249063651
 20
736.2901450756025
 30
0.0
  0
ARC
  5
207
330
1F
100
AcDbEntity
  8
0
  6
Continuous
 62
     7
370
    15
100
AcDbCircle
 10
357.484566474
 20
441.2901581886
 30
0.0
 40
12.50000000000006
100
AcDbArc
 50
180.0
 51
0.0
  0
LINE
  5
208
330
1F
100
AcDbEntity
  8
0
  6
Continuous
 62
     7
370
    15
100
AcDbLine
 10
344.9845662877
 20
616.2901552084
 30
0.0
 11
344.9845662877
 21
520.3028576138
 31
0.0
  0
LINE
  5
209
330
1F
100
AcDbEntity
  8
0
  6
Continuous
 62
     7
370
    15
100
AcDbLine
 10
344.9845662877
 20
488.473902798
 30
0.0
 11
344.9845662877
 21
441.2901581886
 31
0.0
  0
LINE
  5
20A
330
1F
100
AcDbEntity
  8
0
  6
Continuous
 62
     7
370
    15
100
AcDbLine
 10
369.9845666603
 20
441.2901581886
 30
0.0
 11
369.9845666603
 21
488.5160730842
 31
0.0
  0
LINE
  5
20B
330
1F
100
AcDbEntity
  8
0
  6
Continuous
 62
     7
370
    15
100
AcDbLine
 10
369.9845666603
 20
520.262617028
 30
0.0
 11
369.9845666603
 21
616.2901552084
 31
0.0
  0
LINE
  5
20C
330
1F
100
AcDbEntity
  8
0
  6
Continuous
 62
     7
370
    15
100
AcDbLine
 10
387.4845658034
 20
606.2901647451
 30
0.0
 11
387.4845658034
 21
276.2901516321
 31
0.0
  0
LINE
  5
20D
330
1F
100
AcDbEntity
  8
0
  6
Continuous
 62
     7
370
    15
100
AcDbLine
 10
327.4845671445
 20
606.2901647451
 30
0.0
 11
327.4845671445
 21
504.5357079866
 31
0.0
  0
LINE
  5
20E
330
1F
100
AcDbEntity
  8
0
  6
Continuous
 62
     7
370
    15
100
AcDbLine
 10
327.4845671445
 20
409.2901566687
 30
0.0
 11
327.4845671445
 21
276.2901516321
 31
0.0
  0
LINE
  5
20F
330
1F
100
AcDbEntity
  8
0
  6
Continuous
 62
     7
370
    15
100
AcDbLine
 10
375.4845656991
 20
409.2901566687
 30
0.0
 11
382.4845668465
 21
409.2901566687
 31
0.0
  0
LINE
  5
210
330
1F
100
AcDbEntity
  8
0
  6
Continuous
 62
     7
370
    15
100
AcDbLine
 10
377.484566027
 20
473.2901597085
 30
0.0
 11
382.4845668465
 21
473.2901597085
 31
0.0
  0
LINE
  5
211
330
1F
100
AcDbEntity
  8
0
  6
Continuous
 62
     7
370
    15
100
AcDbLine
 10
382.4845668465
 20
409.2901566687
 30
0.0
 11
382.4845668465
 21
473.2901597085
 31
0.0
  0
LINE
  5
212
330
1F
100
AcDbEntity
  8
0
  6
Continuous
 62
     7
370
    15
100
AcDbLine
 10
382.4845668465
 20
403.0879096749
 30
0.0
 11
332.4845661015
 21
403.0879096749
 31
0.0
  0
LINE
  5
213
330
1F
100
AcDbEntity
  8
0
  6
Continuous
 62
     7
370
    15
100
AcDbLine
 10
332.4845661015
 20
403.0879096749
 30
0.0
 11
332.4845661015
 21
409.2901566687
 31
0.0
  0
LINE
  5
214
330
1F
100
AcDbEntity
  8
0
  6
Continuous
 62
     7
370
    15
100
AcDbLine
 10
382.4845668465
 20
409.2901566687
 30
0.0
 11
382.4845668465
 21
403.0879096749
 31
0.0
  0
LINE
  5
215
330
1F
100
AcDbEntity
  8
0
  6
Continuous
 62
     7
370
    15
100
AcDbLine
 10
382.4845668465
 20
479.4924067023
 30
0.0
 11
382.4845668465
 21
473.2901597085
 31
0.0
  0
LINE
  5
216
330
1F
100
AcDbEntity
  8
0
  6
Continuous
 62
     7
370
    15
100
AcDbLine
 10
332.4845661015
 20
506.6736446383
 30
0.0
 11
332.4845661015
 21
606.9421650532
 31
0.0
  0
LINE
  5
217
330
1F
100
AcDbEntity
  8
0
  6
Continuous
 62
     7
370
    15
100
AcDbLine
 10
382.4845668465
 20
479.4924067023
 30
0.0
 11
382.4845668465
 21
606.9421650532
 31
0.0
  0
LINE
  5
218
330
1F
100
AcDbEntity
  8
0
  6
Continuous
 62
     7
370
    15
100
AcDbLine
 10
332.4845661015
 20
275.6381513241
 30
0.0
 11
382.4845668465
 21
275.6381513241
 31
0.0
  0
LINE
  5
219
330
1F
100
AcDbEntity
  8
0
  6
Continuous
 62
     7
370
    15
100
AcDbLine
 10
332.4845661015
 20
275.6381513241
 30
0.0
 11
332.4845661015
 21
403.0879096749
 31
0.0
  0
LINE
  5
21A
330
1F
100
AcDbEntity
  8
0
  6
Continuous
 62
     7
370
    15
100
AcDbLine
 10
382.4845668465
 20
275.6381513241
 30
0.0
 11
382.4845668465
 21
403.0879096749
 31
0.0
  0
LINE
  5
21B
330
1F
100
AcDbEntity
  8
0
  6
Continuous
 62
     7
370
    15
100
AcDbLine
 10
382.4845668465
 20
267.8427578571
 30
0.0
 11
332.4845661015
 21
267.8427578571
 31
0.0
  0
LINE
  5
21C
330
1F
100
AcDbEntity
  8
0
  6
Continuous
 62
     7
370
    15
100
AcDbLine
 10
332.4845661015
 20
267.8427578571
 30
0.0
 11
332.4845661015
 21
275.6381513241
 31
0.0
  0
LINE
  5
21D
330
1F
100
AcDbEntity
  8
0
  6
Continuous
 62
     7
370
    15
100
AcDbLine
 10
382.4845668465
 20
275.6381513241
 30
0.0
 11
382.4845668465
 21
267.8427578571
 31
0.0
  0
LINE
  5
21E
330
1F
100
AcDbEntity
  8
0
  6
Continuous
 62
     7
370
    15
100
AcDbLine
 10
332.4845661015
 20
606.9421650532
 30
0.0
 11
332.4845661015
 21
614.7375585201
 31
0.0
  0
LINE
  5
21F
330
1F
100
AcDbEntity
  8
0
  6
Continuous
 62
     7
370
    15
100
AcDbLine
 10
382.4845668465
 20
614.7375585201
 30
0.0
 11
382.4845668465
 21
606.9421650532
 31
0.0
  0
LINE
  5
220
330
1F
100
AcDbEntity
  8
0
  6
Continuous
 62
     7
370
    15
100
AcDbLine
 10
332.4845661015
 20
266.2901611689
 30
0.0
 11
382.4845668465
 21
266.2901611689
 31
0.0
  0
LINE
  5
221
330
1F
100
AcDbEntity
  8
0
  6
Continuous
 62
     7
370
    15
100
AcDbLine
 10
332.4845661015
 20
266.2901611689
 30
0.0
 11
332.4845661015
 21
267.8427578571
 31
0.0
  0
LINE
  5
222
330
1F
100
AcDbEntity
  8
0
  6
Continuous
 62
     7
370
    15
100
AcDbLine
 10
382.4845668465
 20
266.2901611689
 30
0.0
 11
382.4845668465
 21
267.8427578571
 31
0.0
  0
LINE
  5
223
330
1F
100
AcDbEntity
  8
0
  6
Continuous
 62
     7
370
    15
100
AcDbLine
 10
332.4845661015
 20
616.2901552084
 30
0.0
 11
342.8095564783
 21
616.2901552084
 31
0.0
  0
LINE
  5
224
330
1F
100
AcDbEntity
  8
0
  6
Continuous
 62
     7
370
    15
100
AcDbLine
 10
372.1595764697
 20
616.2901552084
 30
0.0
 11
382.4845668465
 21
616.2901552084
 31
0.0
  0
LINE
  5
225
330
1F
100
AcDbEntity
  8
0
  6
Continuous
 62
     7
370
    15
100
AcDbLine
 10
332.4845661015
 20
614.7375585201
 30
0.0
 11
332.4845661015
 21
616.2901552084
 31
0.0
  0
LINE
  5
226
330
1F
100
AcDbEntity
  8
0
  6
Continuous
 62
     7
370
    15
100
AcDbLine
 10
382.4845668465
 20
614.7375585201
 30
0.0
 11
382.4845668465
 21
616.2901552084
 31
0.0
  0
ARC
  5
227
330
1F
100
AcDbEntity
  8
0
  6
Continuous
 62
     8
370
    15
100
AcDbCircle
 10
370.984566474
 20
463.2901581886
 30
0.0
 40
5.505553499465124
100
AcDbArc
 50
259.5350043722
 51
300.0
  0
ARC
  5
228
330
1F
100
AcDbEntity
  8
0
  6
Continuous
 62
     8
370
    15
100
AcDbCircle
 10
370.984566474
 20
463.2901581886
 30
0.0
 40
5.505553499465124
100
AcDbArc
 50
300.0
 51
100.4649956278
  0
LINE
  5
229
330
1F
100
AcDbEntity
  8
0
  6
Continuous
 62
     8
370
    15
100
AcDbLine
 10
366.0981398613
 20
525.7294879916
 30
0.0
 11
365.0143690944
 21
525.1251863006
 31
0.0
  0
LINE
  5
22A
330
1F
100
AcDbEntity
  8
0
  6
Continuous
 62
     8
370
    15
100
AcDbLine
 10
340.4218279362
 20
488.7112745705
 30
0.0
 11
341.6604701966
 21
488.7855084303
 31
0.0
  0
SPLINE
  5
22B
330
1F
100
AcDbEntity
  8
0
  6
Continuous
 62
     8
370
    15
100
AcDbSpline
210
0.0
220
0.0
230
1.0
 70
     8
 71
     3
 72
    27
 73
    23
 74
     0
 42
0.00000001
 43
0.00000001
 40
0.0
 40
0.0
 40
0.0
 40
0.0
 40
0.0133471756412044
 40
0.0649880846609682
 40
0.1186099149641889
 40
0.1740220490770909
 40
0.2275676649617099
 40
0.2826879094773849
 40
0.3362542093435776
 40
0.3913816389888335
 40
0.44493302529932
 40
0.5000338121603316
 40
0.5664042035232789
 40
0.6197035653988652
 40
0.6745336755796507
 40
0.7260352403581684
 40
0.7789238842449984
 40
0.831897143062014
 40
0.8864293921948504
 40
0.9399842246339498
 40
0.9951546696365097
 40
1.0
 40
1.0
 40
1.0
 40
1.0
 10
372.440548108546
 20
734.2824222209883
 30
0.0
 10
372.4511094525149
 20
734.2822485784077
 30
0.0
 10
372.5025331794843
 20
734.2814031037523
 30
0.0
 10
372.2121732012565
 20
734.2856363197093
 30
0.0
 10
371.536490041833
 20
734.2999755332469
 30
0.0
 10
370.3685606410797
 20
734.2638414722209
 30
0.0
 10
368.8344875729841
 20
734.2362909122138
 30
0.0
 10
366.9891491007576
 20
734.2094237673891
 30
0.0
 10
364.8559005938713
 20
734.1870199770528
 30
0.0
 10
362.5329059234905
 20
734.1701432803674
 30
0.0
 10
360.0453515813905
 20
734.159557799766
 30
0.0
 10
357.3089377756936
 20
734.1556142271535
 30
0.0
 10
354.573054786289
 20
734.1603140633748
 30
0.0
 10
351.9491079890928
 20
734.1731267645392
 30
0.0
 10
349.6995031527729
 20
734.1908447444823
 30
0.0
 10
347.6698352711877
 20
734.2134570252563
 30
0.0
 10
345.9215773342119
 20
734.2398104891938
 30
0.0
 10
344.4607957683532
 20
734.2676281183673
 30
0.0
 10
343.343140140653
 20
734.3007984796492
 30
0.0
 10
342.7047192893639
 20
734.283957259518
 30
0.0
 10
342.4390275345985
 20
734.2809536858623
 30
0.0
 10
342.5037289383638
 20
734.2820091808178
 30
0.0
 10
342.5089525595586
 20
734.282094395442
 30
0.0
  0
LINE
  5
22C
330
1F
100
AcDbEntity
  8
0
  6
Continuous
 62
     8
370
    15
100
AcDbLine
 10
377.484566027
 20
479.4924067023
 30
0.0
 11
382.4845668465
 21
479.4924067023
 31
0.0
  0
LINE
  5
22D
330
1F
100
AcDbEntity
  8
0
  6
Continuous
 62
     8
370
    15
100
AcDbLine
 10
382.4845668465
 20
606.9421650532
 30
0.0
 11
369.9845666603
 21
606.9421650532
 31
0.0
  0
LINE
  5
22E
330
1F
100
AcDbEntity
  8
0
  6
Continuous
 62
     8
370
    15
100
AcDbLine
 10
344.9845662877
 20
606.9421650532
 30
0.0
 11
332.4845661015
 21
606.9421650532
 31
0.0
  0
LINE
  5
22F
330
1F
100
AcDbEntity
  8
0
  6
Continuous
 62
     8
370
    15
100
AcDbLine
 10
332.4845661015
 20
614.7375585201
 30
0.0
 11
344.9845662877
 21
614.7375585201
 31
0.0
  0
LINE
  5
230
330
1F
100
AcDbEntity
  8
0
  6
Continuous
 62
     8
370
    15
100
AcDbLine
 10
369.9845666603
 20
614.7375585201
 30
0.0
 11
382.4845668465
 21
614.7375585201
 31
0.0
  0
SPLINE
  5
231
330
1F
100
AcDbEntity
  8
0
  6
Continuous
 62
     7
370
    15
100
AcDbSpline
210
0.0
220
0.0
230
1.0
 70
     8
 71
     3
 72
     9
 73
     5
 74
     0
 42
0.00000001
 43
0.00000001
 40
0.0
 40
0.0
 40
0.0
 40
0.0
 40
0.4999397619395057
 40
1.0
 40
1.0
 40
1.0
 40
1.0
 10
858.1770220709855
 20
138.1510826002365
 30
0.0
 10
857.9226325988906
 20
137.1357816368189
 30
0.0
 10
857.4137923516015
 20
135.1049350414635
 30
0.0
 10
857.9255917117773
 20
133.0748218534754
 30
0.0
 10
858.181522221666
 20
132.0596429694003
 30
0.0
  0
LINE
  5
232
330
1F
100
AcDbEntity
  8
0
  6
Continuous
 62
     7
370
    15
100
AcDbLine
 10
871.7685053063
 20
138.1146818574
 30
0.0
 11
871.7683711959
 21
138.1146818574
 31
0.0
  0
LINE
  5
233
330
1F
100
AcDbEntity
  8
0
  6
Continuous
 62
     7
370
    15
100
AcDbLine
 10
868.7683651162
 20
138.1146818574
 30
0.0
 11
858.1682303859
 21
138.1146818574
 31
0.0
  0
LINE
  5
234
330
1F
100
AcDbEntity
  8
0
  6
Continuous
 62
     7
370
    15
100
AcDbLine
 10
858.1682154847
 20
132.1146822709
 30
0.0
 11
863.7183615876
 21
132.1146822709
 31
0.0
  0
ARC
  5
235
330
1F
100
AcDbEntity
  8
0
  6
Continuous
 62
     7
370
    15
100
AcDbCircle
 10
875.0683680965
 20
147.1202355804
 30
0.0
 40
2.000000000000046
100
AcDbArc
 50
0.0
 51
29.9594801506
  0
LINE
  5
236
330
1F
100
AcDbEntity
  8
0
  6
Continuous
 62
     7
370
    15
100
AcDbLine
 10
872.1683630658
 20
148.1146816339
 30
0.0
 11
871.7683711959
 21
148.1146816339
 31
0.0
  0
ARC
  5
237
330
1F
100
AcDbEntity
  8
0
  6
Continuous
 62
     7
370
    15
100
AcDbCircle
 10
875.0683680965
 20
109.1091285815
 30
0.0
 40
2.000000000000024
100
AcDbArc
 50
330.0356155143
 51
0.0
  0
LINE
  5
238
330
1F
100
AcDbEntity
  8
0
  6
Continuous
 62
     7
370
    15
100
AcDbLine
 10
871.7683711959
 20
108.114682528
 30
0.0
 11
872.1683630658
 21
108.114682528
 31
0.0
  0
ARC
  5
239
330
1F
100
AcDbEntity
  8
0
  6
Continuous
 62
     7
370
    15
100
AcDbCircle
 10
864.7368300669
 20
128.1146820809
 30
0.0
 40
64.03153802959937
100
AcDbArc
 50
342.1867882218
 51
17.7801468858
  0
LINE
  5
23A
330
1F
100
AcDbEntity
  8
0
  6
Continuous
 62
     7
370
    15
100
AcDbLine
 10
915.7683709575
 20
138.6146819394
 30
0.0
 11
896.7683622552
 21
138.6146819394
 31
0.0
  0
LINE
  5
23B
330
1F
100
AcDbEntity
  8
0
  6
Continuous
 62
     7
370
    15
100
AcDbLine
 10
896.7683622552
 20
117.6146822225
 30
0.0
 11
915.7683709575
 21
117.6146822225
 31
0.0
  0
LINE
  5
23C
330
1F
100
AcDbEntity
  8
0
  6
Continuous
 62
     7
370
    15
100
AcDbLine
 10
868.7683651162
 20
58.1146817829
 30
0.0
 11
871.7683711959
 21
58.1146817829
 31
0.0
  0
LINE
  5
23D
330
1F
100
AcDbEntity
  8
0
  6
Continuous
 62
     7
370
    15
100
AcDbLine
 10
868.7683651162
 20
132.1146822709
 30
0.0
 11
863.7183615876
 21
132.1146822709
 31
0.0
  0
LINE
  5
23E
330
1F
100
AcDbEntity
  8
0
  6
Continuous
 62
     7
370
    15
100
AcDbLine
 10
863.7183615876
 20
124.1146818909
 30
0.0
 11
868.7683651162
 21
124.1146818909
 31
0.0
  0
LINE
  5
23F
330
1F
100
AcDbEntity
  8
0
  6
Continuous
 62
     7
370
    15
100
AcDbLine
 10
512.3183736516
 20
108.7146815087
 30
0.0
 11
515.818373294
 21
108.7146815087
 31
0.0
  0
LINE
  5
240
330
1F
100
AcDbEntity
  8
0
  6
Continuous
 62
     7
370
    15
100
AcDbLine
 10
515.818373294
 20
147.5146826531
 30
0.0
 11
512.3183736516
 21
147.5146826531
 31
0.0
  0
LINE
  5
241
330
1F
100
AcDbEntity
  8
0
  6
Continuous
 62
     7
370
    15
100
AcDbLine
 10
512.3183736516
 20
147.5146826531
 30
0.0
 11
508.3183655454
 21
143.5146819975
 31
0.0
  0
LINE
  5
242
330
1F
100
AcDbEntity
  8
0
  6
Continuous
 62
     7
370
    15
100
AcDbLine
 10
508.3183655454
 20
112.7146821644
 30
0.0
 11
512.3183736516
 21
108.7146815087
 31
0.0
  0
LINE
  5
243
330
1F
100
AcDbEntity
  8
0
  6
Continuous
 62
     7
370
    15
100
AcDbLine
 10
515.818373294
 20
112.2146811511
 30
0.0
 11
517.8183624459
 21
114.2146824102
 31
0.0
  0
LINE
  5
244
330
1F
100
AcDbEntity
  8
0
  6
Continuous
 62
     7
370
    15
100
AcDbLine
 10
517.8183624459
 20
142.0146817516
 30
0.0
 11
515.818373294
 21
144.0146830108
 31
0.0
  0
LINE
  5
245
330
1F
100
AcDbEntity
  8
0
  6
Continuous
 62
     7
370
    15
100
AcDbLine
 10
518.7683710767
 20
136.1146824609
 30
0.0
 11
517.8183624459
 21
136.1146824609
 31
0.0
  0
LINE
  5
246
330
1F
100
AcDbEntity
  8
0
  6
Continuous
 62
     7
370
    15
100
AcDbLine
 10
517.8183624459
 20
120.1146817009
 30
0.0
 11
518.7683710767
 21
120.1146817009
 31
0.0
  0
LINE
  5
247
330
1F
100
AcDbEntity
  8
0
  6
Continuous
 62
     7
370
    15
100
AcDbLine
 10
528.7683615399
 20
158.1146814104
 30
0.0
 11
528.7683615399
 21
153.1146824535
 31
0.0
  0
LINE
  5
248
330
1F
100
AcDbEntity
  8
0
  6
Continuous
 62
     7
370
    15
100
AcDbLine
 10
858.768374653
 20
153.1146824535
 30
0.0
 11
858.768374653
 21
158.1146814104
 31
0.0
  0
LINE
  5
249
330
1F
100
AcDbEntity
  8
0
  6
Continuous
 62
     7
370
    15
100
AcDbLine
 10
528.7683615399
 20
103.1146817084
 30
0.0
 11
528.7683615399
 21
98.1146827515
 31
0.0
  0
LINE
  5
24A
330
1F
100
AcDbEntity
  8
0
  6
Continuous
 62
     7
370
    15
100
AcDbLine
 10
858.768374653
 20
98.1146827515
 30
0.0
 11
858.768374653
 21
103.1146817084
 31
0.0
  0
LWPOLYLINE
  5
24B
330
1F
100
AcDbEntity
  8
0
  6
Continuous
 62
     7
370
    15
100
AcDbPolyline
 90
       12
 70
   128
 43
0.0
 10
858.1682154847
 20
132.1535328578
 10
858.1682303859
 20
132.1845268074
 10
858.1682154847
 20
132.56272992
 10
858.1682005836
 20
133.2286465156
 10
858.1682601882
 20
134.1071989562
 10
858.1682154847
 20
135.0993378263
 10
858.1682601882
 20
136.0932061623
 10
858.1681856824
 20
136.9767537515
 10
858.1682303859
 20
137.6503672625
 10
858.1682154847
 20
138.0381010647
 10
858.1682303859
 20
138.1143028091
 10
858.1682303859
 20
138.1143028091
  0
SPLINE
  5
24C
330
1F
100
AcDbEntity
  8
0
  6
Continuous
 62
     7
370
    15
100
AcDbSpline
210
0.0
220
0.0
230
1.0
 70
     8
 71
     3
 72
    10
 73
     6
 74
     0
 42
0.00000001
 43
0.00000001
 40
0.0
 40
0.0
 40
0.0
 40
0.0
 40
0.0482134718880204
 40
0.6336073365964858
 40
1.0
 40
1.0
 40
1.0
 40
1.0
 10
871.7685053063447
 20
137.5948874454504
 30
0.0
 10
871.76850527371
 20
137.613629192071
 30
0.0
 10
871.7685048448351
 20
137.859927740887
 30
0.0
 10
871.7685308539589
 20
138.045469632092
 30
0.0
 10
871.7685124073962
 20
138.0951703791557
 30
0.0
 10
871.7685053063447
 20
138.1143028091198
 30
0.0
  0
LINE
  5
24D
330
1F
100
AcDbEntity
  8
0
  6
Continuous
 62
     7
370
    15
100
AcDbLine
 10
872.1683630658
 20
144.8646824982
 30
0.0
 11
872.1683630658
 21
148.1146816339
 31
0.0
  0
LINE
  5
24E
330
1F
100
AcDbEntity
  8
0
  6
Continuous
 62
     7
370
    15
100
AcDbLine
 10
875.0683674527
 20
148.1146816339
 30
0.0
 11
872.1683630658
 21
148.1146816339
 31
0.0
  0
SPLINE
  5
24F
330
1F
100
AcDbEntity
  8
0
  6
Continuous
 62
     7
370
    15
100
AcDbSpline
210
0.0
220
0.0
230
1.0
 70
     8
 71
     3
 72
    18
 73
    14
 74
     0
 42
0.00000001
 43
0.00000001
 40
0.0
 40
0.0
 40
0.0
 40
0.0
 40
0.0391144520033593
 40
0.078092027267024
 40
0.1389198720023904
 40
0.2382981652206404
 40
0.4914347175272529
 40
0.7614772251805237
 40
0.8314854030829116
 40
0.9019336872484554
 40
0.9480415734075327
 40
0.9875254480364718
 40
1.0
 40
1.0
 40
1.0
 40
1.0
 10
875.0683674527222
 20
141.6146824311024
 30
0.0
 10
875.1860874656196
 20
141.6254140769076
 30
0.0
 10
875.4211155431258
 20
141.6468398142992
 30
0.0
 10
875.7908020884545
 20
141.8300274722152
 30
0.0
 10
876.2037525218731
 20
142.213069783167
 30
0.0
 10
876.7148480365383
 20
143.2110054153827
 30
0.0
 10
876.861246851123
 20
144.8398378188857
 30
0.0
 10
876.7396085291977
 20
146.4045136956621
 30
0.0
 10
876.269034562968
 20
147.3946772246351
 30
0.0
 10
875.9350044071209
 20
147.793703571854
 30
0.0
 10
875.5490633063087
 20
148.0321101435607
 30
0.0
 10
875.2614760197497
 20
148.1088986294093
 30
0.0
 10
875.1057542522768
 20
148.1135620148455
 30
0.0
 10
875.0683674527222
 20
148.1146816338903
 30
0.0
  0
LINE
  5
250
330
1F
100
AcDbEntity
  8
0
  6
Continuous
 62
     7
370
    15
100
AcDbLine
 10
875.0683674527
 20
141.6146824311
 30
0.0
 11
872.1683630658
 21
141.6146824311
 31
0.0
  0
LINE
  5
251
330
1F
100
AcDbEntity
  8
0
  6
Continuous
 62
     7
370
    15
100
AcDbLine
 10
872.1683630658
 20
141.6146824311
 30
0.0
 11
872.1683630658
 21
144.8646824982
 31
0.0
  0
SPLINE
  5
252
330
1F
100
AcDbEntity
  8
0
  6
Continuous
 62
     7
370
    15
100
AcDbSpline
210
0.0
220
0.0
230
1.0
 70
     8
 71
     3
 72
    10
 73
     6
 74
     0
 42
0.00000001
 43
0.00000001
 40
0.0
 40
0.0
 40
0.0
 40
0.0
 40
0.2412472654906053
 40
0.6862226282725372
 40
1.0
 40
1.0
 40
1.0
 40
1.0
 10
875.9845504475647
 20
141.1904277454621
 30
0.0
 10
875.9300311995371
 20
141.2484127804209
 30
0.0
 10
875.774952377827
 20
141.413349958088
 30
0.0
 10
875.4516586957822
 20
141.579266631326
 30
0.0
 10
875.1805024111295
 20
141.6043212519552
 30
0.0
 10
875.0683674527222
 20
141.6146824311024
 30
0.0
  0
SPLINE
  5
253
330
1F
100
AcDbEntity
  8
0
  6
Continuous
 62
     7
370
    15
100
AcDbSpline
210
0.0
220
0.0
230
1.0
 70
    24
 71
     3
 72
    13
 73
     9
 74
     0
 42
0.00000001
 43
0.00000001
 40
0.0
 40
0.0
 40
0.0
 40
0.0
 40
0.0781767522535187
 40
0.1560800499544508
 40
0.2776544714066553
 40
0.4762784195717755
 40
0.9822137403030937
 40
1.0
 40
1.0
 40
1.0
 40
1.0
 10
875.0683674527222
 20
148.1146816338903
 30
0.0
 10
875.1861015534705
 20
148.1146816338903
 30
0.0
 10
875.4211579327196
 20
148.1146816338903
 30
0.0
 10
875.7905947277992
 20
148.1146816338903
 30
0.0
 10
876.2053818931195
 20
148.1146816338903
 30
0.0
 10
876.6974906148102
 20
148.1146816338903
 30
0.0
 10
876.898681729062
 20
148.1146816338903
 30
0.0
 10
876.7967143116
 20
148.1146816338903
 30
0.0
 10
876.793251366716
 20
148.1146816338903
 30
0.0
  0
LINE
  5
254
330
1F
100
AcDbEntity
  8
0
  6
Continuous
 62
     7
370
    15
100
AcDbLine
 10
877.0683715058
 20
141.6996879678
 30
0.0
 11
877.0683715058
 21
147.1202358778
 31
0.0
  0
LINE
  5
255
330
1F
100
AcDbEntity
  8
0
  6
Continuous
 62
     7
370
    15
100
AcDbLine
 10
872.1683630658
 20
138.0794778641
 30
0.0
 11
872.1683630658
 21
138.364682364
 31
0.0
  0
LINE
  5
256
330
1F
100
AcDbEntity
  8
0
  6
Continuous
 62
     7
370
    15
100
AcDbLine
 10
872.1683630658
 20
138.364682364
 30
0.0
 11
872.1683630658
 21
141.6146824311
 31
0.0
  0
LINE
  5
257
330
1F
100
AcDbEntity
  8
0
  6
Continuous
 62
     7
370
    15
100
AcDbLine
 10
872.1683630658
 20
117.8646817978
 30
0.0
 11
872.1683630658
 21
118.1132322352
 31
0.0
  0
SPLINE
  5
258
330
1F
100
AcDbEntity
  8
0
  6
Continuous
 62
     7
370
    15
100
AcDbSpline
210
0.0
220
0.0
230
1.0
 70
     8
 71
     3
 72
    10
 73
     6
 74
     0
 42
0.00000001
 43
0.00000001
 40
0.0
 40
0.0
 40
0.0
 40
0.0
 40
0.3305272100441847
 40
0.6598980584553654
 40
1.0
 40
1.0
 40
1.0
 40
1.0
 10
875.0683674527222
 20
114.6146817307478
 30
0.0
 10
875.1856081951685
 20
114.625786665692
 30
0.0
 10
875.4196795090002
 20
114.6479576845559
 30
0.0
 10
875.7418336815414
 20
114.7983776573288
 30
0.0
 10
875.8968956260882
 20
114.9554793871243
 30
0.0
 10
875.9756693554932
 20
115.035289357186
 30
0.0
  0
LINE
  5
259
330
1F
100
AcDbEntity
  8
0
  6
Continuous
 62
     7
370
    15
100
AcDbLine
 10
875.0683674527
 20
114.6146817307
 30
0.0
 11
872.1683630658
 21
114.6146817307
 31
0.0
  0
LINE
  5
25A
330
1F
100
AcDbEntity
  8
0
  6
Continuous
 62
     7
370
    15
100
AcDbLine
 10
872.1683630658
 20
114.6146817307
 30
0.0
 11
872.1683630658
 21
117.8646817978
 31
0.0
  0
SPLINE
  5
25B
330
1F
100
AcDbEntity
  8
0
  6
Continuous
 62
     7
370
    15
100
AcDbSpline
210
0.0
220
0.0
230
1.0
 70
    24
 71
     3
 72
    13
 73
     9
 74
     0
 42
0.00000001
 43
0.00000001
 40
0.0
 40
0.0
 40
0.0
 40
0.0
 40
0.5225567957135376
 40
0.6626894749879081
 40
0.803703542100831
 40
0.8959965527082464
 40
0.975030050313131
 40
1.0
 40
1.0
 40
1.0
 40
1.0
 10
876.7931619597489
 20
108.1146825279599
 30
0.0
 10
876.7670181433641
 20
108.1146825279599
 30
0.0
 10
876.733863408613
 20
108.1146825279599
 30
0.0
 10
876.2684566797061
 20
108.1146825279599
 30
0.0
 10
875.9351009964195
 20
108.1146825279599
 30
0.0
 10
875.549046005416
 20
108.1146825279599
 30
0.0
 10
875.2614766976902
 20
108.1146825279599
 30
0.0
 10
875.1057544506914
 20
108.1146825279599
 30
0.0
 10
875.0683674527222
 20
108.1146825279599
 30
0.0
  0
SPLINE
  5
25C
330
1F
100
AcDbEntity
  8
0
  6
Continuous
 62
     7
370
    15
100
AcDbSpline
210
0.0
220
0.0
230
1.0
 70
     8
 71
     3
 72
    18
 73
    14
 74
     0
 42
0.00000001
 43
0.00000001
 40
0.0
 40
0.0
 40
0.0
 40
0.0
 40
0.0344336788959107
 40
0.072491465823574
 40
0.1306346034342966
 40
0.2236186724996012
 40
0.4104356558023305
 40
0.5001956486023499
 40
0.7376506735512144
 40
0.8568705451544993
 40
0.9094902699615509
 40
0.9625702641675137
 40
1.0
 40
1.0
 40
1.0
 40
1.0
 10
875.0683674527222
 20
108.1146825279599
 30
0.0
 10
875.1719589584125
 20
108.1229911249221
 30
0.0
 10
875.3900448654414
 20
108.1404827898281
 30
0.0
 10
875.745355944503
 20
108.3003468002236
 30
0.0
 10
876.1534185060893
 20
108.6516776361046
 30
0.0
 10
876.6062840140185
 20
109.4530202779059
 30
0.0
 10
876.774596143541
 20
110.4149146451183
 30
0.0
 10
876.8264513188806
 20
111.7466382911478
 30
0.0
 10
876.7274483324793
 20
112.9156172864412
 30
0.0
 10
876.271772634873
 20
113.9276820841959
 30
0.0
 10
875.8290062837908
 20
114.372812906437
 30
0.0
 10
875.4534199133934
 20
114.58049713435
 30
0.0
 10
875.181017695448
 20
114.6046807478299
 30
0.0
 10
875.0683674527222
 20
114.6146817307478
 30
0.0
  0
LINE
  5
25D
330
1F
100
AcDbEntity
  8
0
  6
Continuous
 62
     7
370
    15
100
AcDbLine
 10
877.0683715058
 20
111.8619054731
 30
0.0
 11
877.0683715058
 21
114.5403966482
 31
0.0
  0
LINE
  5
25E
330
1F
100
AcDbEntity
  8
0
  6
Continuous
 62
     7
370
    15
100
AcDbLine
 10
877.0683715058
 20
109.109128284
 30
0.0
 11
877.0683715058
 21
111.8619054731
 31
0.0
  0
LINE
  5
25F
330
1F
100
AcDbEntity
  8
0
  6
Continuous
 62
     7
370
    15
100
AcDbLine
 10
875.0683674527
 20
108.114682528
 30
0.0
 11
872.1683630658
 21
108.114682528
 31
0.0
  0
LINE
  5
260
330
1F
100
AcDbEntity
  8
0
  6
Continuous
 62
     7
370
    15
100
AcDbLine
 10
872.1683630658
 20
108.114682528
 30
0.0
 11
872.1683630658
 21
111.3646816637
 31
0.0
  0
LINE
  5
261
330
1F
100
AcDbEntity
  8
0
  6
Continuous
 62
     7
370
    15
100
AcDbLine
 10
872.1683630658
 20
111.3646816637
 30
0.0
 11
872.1683630658
 21
114.6146817307
 31
0.0
  0
SPLINE
  5
262
330
1F
100
AcDbEntity
  8
0
  6
Continuous
 62
     7
370
    15
100
AcDbSpline
210
0.0
220
0.0
230
1.0
 70
     8
 71
     3
 72
    11
 73
     7
 74
     0
 42
0.00000001
 43
0.00000001
 40
0.0
 40
0.0
 40
0.0
 40
0.0
 40
0.3340918907833729
 40
0.623691080431497
 40
0.9185147247776033
 40
1.0
 40
1.0
 40
1.0
 40
1.0
 10
924.9067911816651
 20
139.0937291260368
 30
0.0
 10
924.6941427155152
 20
139.0380851760256
 30
0.0
 10
924.2971652513387
 20
138.9342076613078
 30
0.0
 10
923.1358635379884
 20
138.9175780745067
 30
0.0
 10
922.0637975767066
 20
138.9276537440211
 30
0.0
 10
921.4124305616301
 20
138.9318046277776
 30
0.0
 10
921.2713846875245
 20
138.9327034528858
 30
0.0
  0
SPLINE
  5
263
330
1F
100
AcDbEntity
  8
0
  6
Continuous
 62
     7
370
    15
100
AcDbSpline
210
0.0
220
0.0
230
1.0
 70
     8
 71
     3
 72
    11
 73
     7
 74
     0
 42
0.00000001
 43
0.00000001
 40
0.0
 40
0.0
 40
0.0
 40
0.0
 40
0.009139079833479
 40
0.5000000497811411
 40
0.9908516745938288
 40
1.0
 40
1.0
 40
1.0
 40
1.0
 10
921.2713846875245
 20
138.9327034528858
 30
0.0
 10
921.2666118195087
 20
138.9330544246109
 30
0.0
 10
921.0054876922538
 20
138.952256125796
 30
0.0
 10
920.4796425592979
 20
138.9706470287335
 30
0.0
 10
919.9538074168889
 20
138.9522366593179
 30
0.0
 10
919.6926757279041
 20
138.9330544235896
 30
0.0
 10
919.687897892099
 20
138.9327034528858
 30
0.0
  0
SPLINE
  5
264
330
1F
100
AcDbEntity
  8
0
  6
Continuous
 62
     7
370
    15
100
AcDbSpline
210
0.0
220
0.0
230
1.0
 70
     8
 71
     3
 72
    12
 73
     8
 74
     0
 42
0.00000001
 43
0.00000001
 40
0.0
 40
0.0
 40
0.0
 40
0.0
 40
0.1136354697932188
 40
0.3008434200099075
 40
0.4919219367142158
 40
0.6964449764706011
 40
1.0
 40
1.0
 40
1.0
 40
1.0
 10
919.687897892099
 20
138.9327034528858
 30
0.0
 10
919.4111433708468
 20
138.9307641035869
 30
0.0
 10
918.6784515728701
 20
138.9256297870153
 30
0.0
 10
917.6074614820475
 20
138.916616248834
 30
0.0
 10
916.6403596635345
 20
138.9497036970493
 30
0.0
 10
915.8987259561146
 20
139.075516975568
 30
0.0
 10
915.8171244094008
 20
139.3253694343602
 30
0.0
 10
915.7683709574753
 20
139.47464564699
 30
0.0
  0
ARC
  5
265
330
1F
100
AcDbEntity
  8
0
  6
Continuous
 62
     7
370
    15
100
AcDbCircle
 10
916.5116462988
 20
139.455029857
 30
0.0
 40
0.7435341365389553
100
AcDbArc
 50
88.5649374164
 51
178.4882571818
  0
SPLINE
  5
266
330
1F
100
AcDbEntity
  8
0
  6
Continuous
 62
     7
370
    15
100
AcDbSpline
210
0.0
220
0.0
230
1.0
 70
     8
 71
     3
 72
    16
 73
    12
 74
     0
 42
0.00000001
 43
0.00000001
 40
0.0
 40
0.0
 40
0.0
 40
0.0
 40
0.163215668124131
 40
0.2700790070857356
 40
0.368807344046507
 40
0.4654140319838516
 40
0.562666852768199
 40
0.6630035492747183
 40
0.7707092697085651
 40
0.8765170646021898
 40
1.0
 40
1.0
 40
1.0
 40
1.0
 10
916.5302673293168
 20
140.1983307849175
 30
0.0
 10
916.5689136059685
 20
140.0118212616
 30
0.0
 10
916.6328630303447
 20
139.703197050159
 30
0.0
 10
917.2568252543452
 20
139.4899201943731
 30
0.0
 10
918.0710461690448
 20
139.3996747758432
 30
0.0
 10
919.1083366041429
 20
139.3710116026792
 30
0.0
 10
920.2930578461586
 20
139.3658622770779
 30
0.0
 10
921.5463110032287
 20
139.3676958534926
 30
0.0
 10
922.7062493175591
 20
139.3907095274526
 30
0.0
 10
923.6850038835755
 20
139.4698147117985
 30
0.0
 10
924.0137767426527
 20
139.6253676661197
 30
0.0
 10
924.1908350897843
 20
139.7091396327621
 30
0.0
  0
ARC
  5
267
330
1F
100
AcDbEntity
  8
0
  6
Continuous
 62
     7
370
    15
100
AcDbCircle
 10
924.1359794981
 20
138.9211521051
 30
0.0
 40
0.7898946003526125
100
AcDbArc
 50
12.6198348399
 51
86.0177905424
  0
LINE
  5
268
330
1F
100
AcDbEntity
  8
0
  6
Continuous
 62
     7
370
    15
100
AcDbLine
 10
915.7683709575
 20
139.474645647
 30
0.0
 11
915.7683709575
 21
134.174622054
 31
0.0
  0
SPLINE
  5
269
330
1F
100
AcDbEntity
  8
0
  6
Continuous
 62
     7
370
    15
100
AcDbSpline
210
0.0
220
0.0
230
1.0
 70
     8
 71
     3
 72
    12
 73
     8
 74
     0
 42
0.00000001
 43
0.00000001
 40
0.0
 40
0.0
 40
0.0
 40
0.0
 40
0.2917316366320745
 40
0.5225559947551479
 40
0.7611464322712207
 40
0.971451035591128
 40
1.0
 40
1.0
 40
1.0
 40
1.0
 10
915.7683709574753
 20
134.1746220539814
 30
0.0
 10
915.8135469926239
 20
134.8273028323226
 30
0.0
 10
915.8944672803879
 20
135.9963987086597
 30
0.0
 10
916.7024498818464
 20
137.4612707696927
 30
0.0
 10
917.913927996171
 20
138.4478409254454
 30
0.0
 10
919.0328790506869
 20
138.8311729534706
 30
0.0
 10
919.6179654593687
 20
138.9218636504686
 30
0.0
 10
919.687897892099
 20
138.9327034528858
 30
0.0
  0
LWPOLYLINE
  5
26A
330
1F
100
AcDbEntity
  8
0
  6
Continuous
 62
     7
370
    15
100
AcDbPolyline
 90
        9
 70
   128
 43
0.0
 10
915.7683709575
 20
122.0547421079
 10
915.7830038978
 20
122.1064244572
 10
915.8263662768
 20
122.1561207611
 10
915.8967742635
 20
122.2019213426
 10
915.9915307475
 20
122.2420655366
 10
916.1069849444
 20
122.2750110726
 10
916.2387112094
 20
122.2994918178
 10
916.3816282464
 20
122.3145671363
 10
916.5302673293
 20
122.3196572799
  0
SPLINE
  5
26B
330
1F
100
AcDbEntity
  8
0
  6
Continuous
 62
     7
370
    15
100
AcDbSpline
210
0.0
220
0.0
230
1.0
 70
     8
 71
     3
 72
    16
 73
    12
 74
     0
 42
0.00000001
 43
0.00000001
 40
0.0
 40
0.0
 40
0.0
 40
0.0
 40
0.1632157775237688
 40
0.2700791401505694
 40
0.3688073390906321
 40
0.4654142368030706
 40
0.5626669951100826
 40
0.6630037424990669
 40
0.7707092668500847
 40
0.8765174330870076
 40
1.0
 40
1.0
 40
1.0
 40
1.0
 10
916.5302673293168
 20
122.3196572798795
 30
0.0
 10
916.5689136941593
 20
121.7027102534541
 30
0.0
 10
916.632863253111
 20
120.6818253552943
 30
0.0
 10
917.2568241652186
 20
119.4750503547869
 30
0.0
 10
918.071048559841
 20
118.6886476610366
 30
0.0
 10
919.1083342792301
 20
118.188992948743
 30
0.0
 10
920.2930592818858
 20
117.9841662686399
 30
0.0
 10
921.5463086426042
 20
118.0962347500259
 30
0.0
 10
922.7062532604821
 20
118.5616530107742
 30
0.0
 10
923.6850002923028
 20
119.3937462735776
 30
0.0
 10
924.0137758304361
 20
120.1673599963668
 30
0.0
 10
924.1908350897843
 20
120.5839830625361
 30
0.0
  0
ARC
  5
26C
330
1F
100
AcDbEntity
  8
0
  6
Continuous
 62
     7
370
    15
100
AcDbCircle
 10
924.0212581055
 20
119.5042387331
 30
0.0
 40
1.092979492328236
100
AcDbArc
 50
35.8844258218
 51
81.074439608
  0
SPLINE
  5
26D
330
1F
100
AcDbEntity
  8
0
  6
Continuous
 62
     7
370
    15
100
AcDbSpline
210
0.0
220
0.0
230
1.0
 70
     8
 71
     3
 72
    11
 73
     7
 74
     0
 42
0.00000001
 43
0.00000001
 40
0.0
 40
0.0
 40
0.0
 40
0.0
 40
0.334092297208581
 40
0.6236915173625225
 40
0.9185145592816366
 40
1.0
 40
1.0
 40
1.0
 40
1.0
 10
924.9067911816651
 20
120.1448910112983
 30
0.0
 10
924.6941426898634
 20
119.6756871087265
 30
0.0
 10
924.2971653826197
 20
118.7997660043117
 30
0.0
 10
923.1358659132171
 20
117.8561107028662
 30
0.0
 10
922.0637951003297
 20
117.4290026679777
 30
0.0
 10
921.4124304909374
 20
117.3202170348691
 30
0.0
 10
921.2713846875245
 20
117.2966607089645
 30
0.0
  0
SPLINE
  5
26E
330
1F
100
AcDbEntity
  8
0
  6
Continuous
 62
     7
370
    15
100
AcDbSpline
210
0.0
220
0.0
230
1.0
 70
     8
 71
     3
 72
    11
 73
     7
 74
     0
 42
0.00000001
 43
0.00000001
 40
0.0
 40
0.0
 40
0.0
 40
0.0
 40
0.0091483254061713
 40
0.499999950218859
 40
0.990860920166521
 40
1.0
 40
1.0
 40
1.0
 40
1.0
 10
919.687897892099
 20
117.2966607089645
 30
0.0
 10
919.6926757279041
 20
117.2963097382606
 30
0.0
 10
919.9538074168895
 20
117.2771275025323
 30
0.0
 10
920.4796425592979
 20
117.2587171331167
 30
0.0
 10
921.0054876922532
 20
117.2771080360543
 30
0.0
 10
921.2666118195087
 20
117.2963097372393
 30
0.0
 10
921.2713846875245
 20
117.2966607089645
 30
0.0
  0
SPLINE
  5
26F
330
1F
100
AcDbEntity
  8
0
  6
Continuous
 62
     7
370
    15
100
AcDbSpline
210
0.0
220
0.0
230
1.0
 70
     8
 71
     3
 72
    12
 73
     8
 74
     0
 42
0.00000001
 43
0.00000001
 40
0.0
 40
0.0
 40
0.0
 40
0.0
 40
0.1136355179096347
 40
0.3008434375786587
 40
0.4919219570760481
 40
0.6964446162286667
 40
1.0
 40
1.0
 40
1.0
 40
1.0
 10
919.687897892099
 20
117.2966607089645
 30
0.0
 10
919.4111434050789
 20
117.3491762345413
 30
0.0
 10
918.6784519651835
 20
117.48820804019
 30
0.0
 10
917.6074612083596
 20
118.0023393202792
 30
0.0
 10
916.6403606415668
 20
118.8927358376763
 30
0.0
 10
915.8987247403411
 20
120.2363081164574
 30
0.0
 10
915.8171239921364
 20
121.3746377529098
 30
0.0
 10
915.7683709574753
 20
122.0547421078688
 30
0.0
  0
SPLINE
  5
270
330
1F
100
AcDbEntity
  8
0
  6
Continuous
 62
     7
370
    15
100
AcDbSpline
210
0.0
220
0.0
230
1.0
 70
     8
 71
     3
 72
    12
 73
     8
 74
     0
 42
0.00000001
 43
0.00000001
 40
0.0
 40
0.0
 40
0.0
 40
0.0
 40
0.2917317801072279
 40
0.522556101618799
 40
0.7611462372403631
 40
0.9714510020703523
 40
1.0
 40
1.0
 40
1.0
 40
1.0
 10
915.7683709574753
 20
116.7547185148603
 30
0.0
 10
915.8135470056487
 20
116.8987183928158
 30
0.0
 10
915.8944672934948
 20
117.1566540035004
 30
0.0
 10
916.7024489436492
 20
117.291772294062
 30
0.0
 10
917.9139297665358
 20
117.3138579220224
 30
0.0
 10
919.0328792595703
 20
117.3005022367234
 30
0.0
 10
919.6179654593309
 20
117.2970708459718
 30
0.0
 10
919.687897892099
 20
117.2966607089645
 30
0.0
  0
LINE
  5
271
330
1F
100
AcDbEntity
  8
0
  6
Continuous
 62
     7
370
    15
100
AcDbLine
 10
915.7683709575
 20
122.0547421079
 30
0.0
 11
915.7683709575
 21
116.7547185149
 31
0.0
  0
ARC
  5
272
330
1F
100
AcDbEntity
  8
0
  6
Continuous
 62
     7
370
    15
100
AcDbCircle
 10
924.0212581055
 20
136.7251254288
 30
0.0
 40
1.092979492328211
100
AcDbArc
 50
278.925560392
 51
324.1155741782
  0
SPLINE
  5
273
330
1F
100
AcDbEntity
  8
0
  6
Continuous
 62
     7
370
    15
100
AcDbSpline
210
0.0
220
0.0
230
1.0
 70
     8
 71
     3
 72
    16
 73
    12
 74
     0
 42
0.00000001
 43
0.00000001
 40
0.0
 40
0.0
 40
0.0
 40
0.0
 40
0.0982184791871954
 40
0.1976626012042476
 40
0.2943619624326305
 40
0.3914062900414229
 40
0.4911094525968012
 40
0.5996272611914402
 40
0.7226908353828683
 40
0.8431782776184266
 40
1.0
 40
1.0
 40
1.0
 40
1.0
 10
924.1908350897843
 20
135.6453810993141
 30
0.0
 10
924.0569281375037
 20
135.9782939459054
 30
0.0
 10
923.7874432429487
 20
136.6482739718241
 30
0.0
 10
923.0194343853839
 20
137.4421985493526
 30
0.0
 10
922.0150638149872
 20
137.9855449464224
 30
0.0
 10
920.8453872928716
 20
138.2343095366113
 30
0.0
 10
919.5890671969936
 20
138.17012903014
 30
0.0
 10
918.3299897173172
 20
137.7319035732074
 30
0.0
 10
917.3069697455227
 20
136.8642633836126
 30
0.0
 10
916.6296151372298
 20
135.5494045126786
 30
0.0
 10
916.5661548803258
 20
134.5020172066526
 30
0.0
 10
916.5302673293168
 20
133.9097068819708
 30
0.0
  0
LWPOLYLINE
  5
274
330
1F
100
AcDbEntity
  8
0
  6
Continuous
 62
     7
370
    15
100
AcDbPolyline
 90
        9
 70
   128
 43
0.0
 10
916.5302673293
 20
133.909706882
 10
916.3816282464
 20
133.9147970255
 10
916.2387112094
 20
133.929872344
 10
916.1069849444
 20
133.9543530892
 10
915.9915307475
 20
133.9872986253
 10
915.8967742635
 20
134.0274428192
 10
915.8263662768
 20
134.0732434008
 10
915.7830038978
 20
134.1229397047
 10
915.7683709575
 20
134.174622054
  0
SPLINE
  5
275
330
1F
100
AcDbEntity
  8
0
  6
Continuous
 62
     7
370
    15
100
AcDbSpline
210
0.0
220
0.0
230
1.0
 70
     8
 71
     3
 72
    11
 73
     7
 74
     0
 42
0.00000001
 43
0.00000001
 40
0.0
 40
0.0
 40
0.0
 40
0.0
 40
0.1990395211240299
 40
0.4636324587557119
 40
0.7350868858492904
 40
0.9999999999999999
 40
0.9999999999999999
 40
0.9999999999999999
 40
0.9999999999999999
 10
921.2713846875245
 20
138.9327034528858
 30
0.0
 10
921.614439734372
 20
138.8639926694489
 30
0.0
 10
922.4135345772469
 20
138.7039412922754
 30
0.0
 10
923.5072974665875
 20
138.1135692701799
 30
0.0
 10
924.4210425592764
 20
137.2173342372279
 30
0.0
 10
924.7461967889451
 20
136.4590107814692
 30
0.0
 10
924.9067911816651
 20
136.0844731505519
 30
0.0
  0
SPLINE
  5
276
330
1F
100
AcDbEntity
  8
0
  6
Continuous
 62
     7
370
    15
100
AcDbSpline
210
0.0
220
0.0
230
1.0
 70
     8
 71
     3
 72
    11
 73
     7
 74
     0
 42
0.00000001
 43
0.00000001
 40
0.0
 40
0.0
 40
0.0
 40
0.0
 40
0.1990396022549023
 40
0.4636327430448393
 40
0.735087006530643
 40
1.0
 40
1.0
 40
1.0
 40
1.0
 10
921.2713846875245
 20
117.2966607089645
 30
0.0
 10
921.614439777581
 20
117.2992937033548
 30
0.0
 10
922.4135348853714
 20
117.3054268667946
 30
0.0
 10
923.5072965172815
 20
117.3102679774069
 30
0.0
 10
924.4210427509046
 20
117.2762861381845
 30
0.0
 10
924.7461968442936
 20
117.1821360004187
 30
0.0
 10
924.9067911816651
 20
117.1356350358135
 30
0.0
  0
ARC
  5
277
330
1F
100
AcDbEntity
  8
0
  6
Continuous
 62
     7
370
    15
100
AcDbCircle
 10
924.1359794981
 20
117.3082120567
 30
0.0
 40
0.7898946003526125
100
AcDbArc
 50
273.9822094576
 51
347.3801651601
  0
SPLINE
  5
278
330
1F
100
AcDbEntity
  8
0
  6
Continuous
 62
     7
370
    15
100
AcDbSpline
210
0.0
220
0.0
230
1.0
 70
     8
 71
     3
 72
    16
 73
    12
 74
     0
 42
0.00000001
 43
0.00000001
 40
0.0
 40
0.0
 40
0.0
 40
0.0
 40
0.09821869404547
 40
0.1976625507021457
 40
0.2943620698056803
 40
0.3914063654191299
 40
0.4911095044029761
 40
0.5996272937070595
 40
0.7226904912125451
 40
0.8431780679962897
 40
0.9999999999999999
 40
0.9999999999999999
 40
0.9999999999999999
 40
0.9999999999999999
 10
924.1908350897843
 20
116.5202245290881
 30
0.0
 10
924.0569286029657
 20
116.5890791104779
 30
0.0
 10
923.7874453035048
 20
116.7276471531228
 30
0.0
 10
923.0194317145222
 20
116.8200540060006
 30
0.0
 10
922.0150653933167
 20
116.856615387264
 30
0.0
 10
920.8453870534689
 20
116.8633576621188
 30
0.0
 10
919.5890670152147
 20
116.8620692985237
 30
0.0
 10
918.3299919750774
 20
116.8452062976846
 30
0.0
 10
917.3069672637777
 20
116.7592422546646
 30
0.0
 10
916.6296156224732
 20
116.528565072238
 30
0.0
 10
916.5661550578021
 20
116.2107574751198
 30
0.0
 10
916.5302673293168
 20
116.0310333769327
 30
0.0
  0
ARC
  5
279
330
1F
100
AcDbEntity
  8
0
  6
Continuous
 62
     7
370
    15
100
AcDbCircle
 10
916.5116462988
 20
116.7743343048
 30
0.0
 40
0.7435341365389545
100
AcDbArc
 50
181.5117428182
 51
271.4350625836
  0
SPLINE
  5
27A
330
1F
100
AcDbEntity
  8
0
  6
Continuous
 62
     7
370
    15
100
AcDbSpline
210
0.0
220
0.0
230
1.0
 70
     8
 71
     3
 72
    14
 73
    10
 74
     0
 42
0.00000001
 43
0.00000001
 40
0.0
 40
0.0
 40
0.0
 40
0.0
 40
0.0621969662795073
 40
0.2157647648086294
 40
0.3692822117320179
 40
0.5269933933739795
 40
0.6847106706450836
 40
0.8423237914207815
 40
1.0
 40
1.0
 40
1.0
 40
1.0
 10
924.1908350897843
 20
120.5839830625361
 30
0.0
 10
924.2774287476732
 20
120.868664999997
 30
0.0
 10
924.5778270041466
 20
121.8562426095779
 30
0.0
 10
924.9705416312487
 20
123.6673778643333
 30
0.0
 10
925.2702255651126
 20
126.0613723558052
 30
0.0
 10
925.3434348162721
 20
128.5445131076274
 30
0.0
 10
925.1882991638973
 20
131.0315334282391
 30
0.0
 10
924.8170025838941
 20
133.4423622179523
 30
0.0
 10
924.3995854288429
 20
134.9109435202913
 30
0.0
 10
924.1908350897843
 20
135.6453810993141
 30
0.0
  0
LINE
  5
27B
330
1F
100
AcDbEntity
  8
0
  6
Continuous
 62
     7
370
    15
100
AcDbLine
 10
916.5302673293
 20
133.909706882
 30
0.0
 11
916.5302673293
 21
122.3196572799
 31
0.0
  0
LINE
  5
27C
330
1F
100
AcDbEntity
  8
0
  6
Continuous
 62
     7
370
    15
100
AcDbLine
 10
924.9067911817
 20
139.093729126
 30
0.0
 11
924.9067911817
 21
136.0844731506
 31
0.0
  0
LINE
  5
27D
330
1F
100
AcDbEntity
  8
0
  6
Continuous
 62
     7
370
    15
100
AcDbLine
 10
924.9067911817
 20
120.1448910113
 30
0.0
 11
924.9067911817
 21
117.1356350358
 31
0.0
  0
SPLINE
  5
27E
330
1F
100
AcDbEntity
  8
0
  6
Continuous
 62
     7
370
    15
100
AcDbSpline
210
0.0
220
0.0
230
1.0
 70
     8
 71
     3
 72
    14
 73
    10
 74
     0
 42
0.00000001
 43
0.00000001
 40
0.0
 40
0.0
 40
0.0
 40
0.0
 40
0.062196765251465
 40
0.2157647790106566
 40
0.3692819899910749
 40
0.5269934570047076
 40
0.6847105037703574
 40
0.8423237257363192
 40
1.0
 40
1.0
 40
1.0
 40
1.0
 10
924.1908350897843
 20
139.7091396327621
 30
0.0
 10
924.2774287995674
 20
139.7786683169709
 30
0.0
 10
924.5778282267645
 20
140.0198680179934
 30
0.0
 10
924.9705405884505
 20
140.6551294685234
 30
0.0
 10
925.2702261061249
 20
141.7682129873045
 30
0.0
 10
925.3434348241783
 20
143.2238262440468
 30
0.0
 10
925.1882988696264
 20
144.9707886963167
 30
0.0
 10
924.8170026579311
 20
146.9439879266545
 30
0.0
 10
924.3995854378426
 20
148.3810785767475
 30
0.0
 10
924.1908350897843
 20
149.0997675980932
 30
0.0
  0
LINE
  5
27F
330
1F
100
AcDbEntity
  8
0
  6
Continuous
 62
     7
370
    15
100
AcDbLine
 10
916.5302673293
 20
147.424608859
 30
0.0
 11
916.5302673293
 21
140.1983307849
 31
0.0
  0
SPLINE
  5
280
330
1F
100
AcDbEntity
  8
0
  6
Continuous
 62
     7
370
    15
100
AcDbSpline
210
0.0
220
0.0
230
1.0
 70
     8
 71
     3
 72
    16
 73
    12
 74
     0
 42
0.00000001
 43
0.00000001
 40
0.0
 40
0.0
 40
0.0
 40
0.0
 40
0.0982187153059471
 40
0.19766256746604
 40
0.2943621046512052
 40
0.3914063476349784
 40
0.4911094763669147
 40
0.5996272613087278
 40
0.7226906195925065
 40
0.8431781377133748
 40
0.9999999999999999
 40
0.9999999999999999
 40
0.9999999999999999
 40
0.9999999999999999
 10
924.1908350897843
 20
149.0997675980932
 30
0.0
 10
924.0569286338663
 20
149.4460485983369
 30
0.0
 10
923.7874454320691
 20
150.1429299550078
 30
0.0
 10
923.019431500182
 20
151.0405362044875
 30
0.0
 10
922.0150659410391
 20
151.6815136221452
 30
0.0
 10
920.8453866465395
 20
151.9849751254876
 30
0.0
 10
919.5890671283419
 20
151.9062330864603
 30
0.0
 10
918.3299909064268
 20
151.3766384959152
 30
0.0
 10
917.3069683466765
 20
150.3806700758413
 30
0.0
 10
916.6296153725333
 20
148.9717454985777
 30
0.0
 10
916.5661549679375
 20
147.9834832849125
 30
0.0
 10
916.5302673293168
 20
147.4246088590032
 30
0.0
  0
SPLINE
  5
281
330
1F
100
AcDbEntity
  8
0
  6
Continuous
 62
     7
370
    15
100
AcDbSpline
210
0.0
220
0.0
230
1.0
 70
     8
 71
     3
 72
    14
 73
    10
 74
     0
 42
0.00000001
 43
0.00000001
 40
0.0
 40
0.0
 40
0.0
 40
0.0
 40
0.0621969483418244
 40
0.2157647297079269
 40
0.3692823684433016
 40
0.526993518032903
 40
0.684710847870755
 40
0.8423237754007503
 40
1.0
 40
1.0
 40
1.0
 40
1.0
 10
924.1908350897843
 20
107.1295965637571
 30
0.0
 10
924.277428747266
 20
107.4150605474863
 30
0.0
 10
924.577827040093
 20
108.4053512439394
 30
0.0
 10
924.970541954591
 20
110.0285377911999
 30
0.0
 10
925.2702253661566
 20
111.9007163895447
 30
0.0
 10
925.343434789642
 20
113.5415264087383
 30
0.0
 10
925.1882994653528
 20
114.8958300696065
 30
0.0
 10
924.8170021706059
 20
115.9288841467984
 30
0.0
 10
924.3995853834214
 20
116.3230846885834
 30
0.0
 10
924.1908350897843
 20
116.5202245290881
 30
0.0
  0
SPLINE
  5
282
330
1F
100
AcDbEntity
  8
0
  6
Continuous
 62
     7
370
    15
100
AcDbSpline
210
0.0
220
0.0
230
1.0
 70
     8
 71
     3
 72
    16
 73
    12
 74
     0
 42
0.00000001
 43
0.00000001
 40
0.0
 40
0.0
 40
0.0
 40
0.0
 40
0.1632159101704946
 40
0.2700790468299054
 40
0.3688074862384682
 40
0.4654142288218832
 40
0.5626669727104767
 40
0.6630037026553707
 40
0.7707092167815263
 40
0.8765173020769947
 40
1.0
 40
1.0
 40
1.0
 40
1.0
 10
916.5302673293168
 20
108.804755302847
 30
0.0
 10
916.5689131764211
 20
108.221944755836
 30
0.0
 10
916.6328618045846
 20
107.2575478606147
 30
0.0
 10
917.2568264747036
 20
105.9659985204143
 30
0.0
 10
918.0710459757024
 20
105.0756184799108
 30
0.0
 10
919.1083355595102
 20
104.4812203650183
 30
0.0
 10
920.2930590466897
 20
104.2309568043551
 30
0.0
 10
921.5463088180094
 20
104.3688684666409
 30
0.0
 10
922.7062527525324
 20
104.9262220289023
 30
0.0
 10
923.6850012006659
 20
105.8847218912872
 30
0.0
 10
924.013776051426
 20
106.6938481547916
 30
0.0
 10
924.1908350897843
 20
107.1295965637571
 30
0.0
  0
LINE
  5
283
330
1F
100
AcDbEntity
  8
0
  6
Continuous
 62
     7
370
    15
100
AcDbLine
 10
916.5302673293
 20
116.0310333769
 30
0.0
 11
916.5302673293
 21
108.8047553028
 31
0.0
  0
SPLINE
  5
284
330
1F
100
AcDbEntity
  8
0
  6
Continuous
 62
     7
370
    15
100
AcDbSpline
210
0.0
220
0.0
230
1.0
 70
     8
 71
     3
 72
    14
 73
    10
 74
     0
 42
0.00000001
 43
0.00000001
 40
0.0
 40
0.0
 40
0.0
 40
0.0
 40
0.1575841782930988
 40
0.3151115072307586
 40
0.4729864249406995
 40
0.6308559759668817
 40
0.7843616792325451
 40
0.9379123572628648
 40
1.0
 40
1.0
 40
1.0
 40
1.0
 10
924.9067911816651
 20
136.0844731505519
 30
0.0
 10
925.1182462012188
 20
135.3064279740823
 30
0.0
 10
925.5410799567696
 20
133.7506183052021
 30
0.0
 10
925.9163508045948
 20
131.1999177075706
 30
0.0
 10
926.0733245436006
 20
128.5693488673206
 30
0.0
 10
925.9992021966259
 20
125.9428609723917
 30
0.0
 10
925.6962019244381
 20
123.4099120691887
 30
0.0
 10
925.2988344145521
 20
121.4927492347822
 30
0.0
 10
924.9944352746907
 20
120.4462144409984
 30
0.0
 10
924.9067911816651
 20
120.1448910112983
 30
0.0
  0
SPLINE
  5
285
330
1F
100
AcDbEntity
  8
0
  6
Continuous
 62
     7
370
    15
100
AcDbSpline
210
0.0
220
0.0
230
1.0
 70
     8
 71
     3
 72
    14
 73
    10
 74
     0
 42
0.00000001
 43
0.00000001
 40
0.0
 40
0.0
 40
0.0
 40
0.0
 40
0.1575842085606116
 40
0.315111655477732
 40
0.4729864230389729
 40
0.6308560816366778
 40
0.7843618725284186
 40
0.9379125444745163
 40
1.0
 40
1.0
 40
1.0
 40
1.0
 10
924.9067911816651
 20
149.0318965341455
 30
0.0
 10
925.1182462233423
 20
148.2705729672597
 30
0.0
 10
925.5410801408436
 20
146.7482000613265
 30
0.0
 10
925.9163505109187
 20
144.6610021333314
 30
0.0
 10
926.0733246328059
 20
142.8131192265365
 30
0.0
 10
925.9992022053247
 20
141.2735883470882
 30
0.0
 10
925.6962018778455
 20
140.0955877425965
 30
0.0
 10
925.2988351909539
 20
139.4229435612842
 30
0.0
 10
924.9944353040686
 20
139.1673272670009
 30
0.0
 10
924.9067911816651
 20
139.0937291260368
 30
0.0
  0
LINE
  5
286
330
1F
100
AcDbEntity
  8
0
  6
Continuous
 62
     7
370
    15
100
AcDbLine
 10
924.9067911817
 20
149.775121751
 30
0.0
 11
924.9067911817
 21
149.0318965341
 31
0.0
  0
SPLINE
  5
287
330
1F
100
AcDbEntity
  8
0
  6
Continuous
 62
     7
370
    15
100
AcDbSpline
210
0.0
220
0.0
230
1.0
 70
     8
 71
     3
 72
    10
 73
     6
 74
     0
 42
0.00000001
 43
0.00000001
 40
0.0
 40
0.0
 40
0.0
 40
0.0
 40
0.0785411271139645
 40
0.7372118693814619
 40
1.0
 40
1.0
 40
1.0
 40
1.0
 10
925.7052102995926
 20
147.6647634233838
 30
0.0
 10
925.6937953458604
 20
147.7060521977736
 30
0.0
 10
925.5866509784565
 20
148.0936016978993
 30
0.0
 10
925.2973060470156
 20
148.8376197663824
 30
0.0
 10
924.9934476571643
 20
149.5670871152782
 30
0.0
 10
924.9067911816651
 20
149.775121751011
 30
0.0
  0
SPLINE
  5
288
330
1F
100
AcDbEntity
  8
0
  6
Continuous
 62
     7
370
    15
100
AcDbSpline
210
0.0
220
0.0
230
1.0
 70
     8
 71
     3
 72
     9
 73
     5
 74
     0
 42
0.00000001
 43
0.00000001
 40
0.0
 40
0.0
 40
0.0
 40
0.0
 40
0.6612105131939711
 40
1.0
 40
1.0
 40
1.0
 40
1.0
 10
924.9067911816651
 20
106.4542424108392
 30
0.0
 10
925.12473380662
 20
106.9786479461703
 30
0.0
 10
925.4543453608926
 20
107.7717471556761
 30
0.0
 10
925.6268794238979
 20
108.3385881754125
 30
0.0
 10
925.68533215056
 20
108.5306279535896
 30
0.0
  0
LINE
  5
289
330
1F
100
AcDbEntity
  8
0
  6
Continuous
 62
     7
370
    15
100
AcDbLine
 10
924.9067911817
 20
107.1974676277
 30
0.0
 11
924.9067911817
 21
106.4542424108
 31
0.0
  0
SPLINE
  5
28A
330
1F
100
AcDbEntity
  8
0
  6
Continuous
 62
     7
370
    15
100
AcDbSpline
210
0.0
220
0.0
230
1.0
 70
     8
 71
     3
 72
    14
 73
    10
 74
     0
 42
0.00000001
 43
0.00000001
 40
0.0
 40
0.0
 40
0.0
 40
0.0
 40
0.1575839514048435
 40
0.3151115397976713
 40
0.4729864036085669
 40
0.630855855889382
 40
0.7843617357945478
 40
0.9379123602941576
 40
1.0
 40
1.0
 40
1.0
 40
1.0
 10
924.9067911816651
 20
117.1356350358135
 30
0.0
 10
925.1182463073426
 20
116.9267515049137
 30
0.0
 10
925.5410809275963
 20
116.5090591544338
 30
0.0
 10
925.9163503061983
 20
115.4155915291299
 30
0.0
 10
926.0733247009742
 20
113.9832032609664
 30
0.0
 10
925.9992018955057
 20
112.247557073091
 30
0.0
 10
925.6962023333007
 20
110.2670272966789
 30
0.0
 10
925.2988343236342
 20
108.5490052733482
 30
0.0
 10
924.9944352688926
 20
107.4996136688547
 30
0.0
 10
924.9067911816651
 20
107.1974676277047
 30
0.0
  0
LINE
  5
28B
330
1F
100
AcDbEntity
  8
0
  6
Continuous
 62
     7
370
    15
100
AcDbLine
 10
915.7683709575
 20
122.0547421079
 30
0.0
 11
915.7683709575
 21
134.174622054
 31
0.0
  0
ARC
  5
28C
330
1F
100
AcDbEntity
  8
0
  6
Continuous
 62
     7
370
    15
100
AcDbCircle
 10
924.4873530507
 20
107.8118602603
 30
0.0
 40
0.743913067990364
100
AcDbArc
 50
246.5097992244
 51
304.3208624097
  0
ARC
  5
28D
330
1F
100
AcDbEntity
  8
0
  6
Continuous
 62
     7
370
    15
100
AcDbCircle
 10
924.4873530507
 20
148.4175039016
 30
0.0
 40
0.7439130679903901
100
AcDbArc
 50
55.6791375903
 51
113.4902007756
  0
LWPOLYLINE
  5
28E
330
1F
100
AcDbEntity
  8
0
  6
Continuous
 62
     7
370
    15
100
AcDbPolyline
 90
        9
 70
   128
 43
0.0
 10
915.7683709575
 20
109.1980975296
 10
915.7830038978
 20
109.1213602747
 10
915.8263662768
 20
109.0475715871
 10
915.8967742635
 20
108.9795682754
 10
915.9915307475
 20
108.919961768
 10
916.1069849444
 20
108.8710449811
 10
916.2387112094
 20
108.8346973236
 10
916.3816282464
 20
108.8123139169
 10
916.5302673293
 20
108.8047553028
  0
LINE
  5
28F
330
1F
100
AcDbEntity
  8
0
  6
Continuous
 62
     7
370
    15
100
AcDbLine
 10
915.7683709575
 20
109.1980975296
 30
0.0
 11
915.7683709575
 21
116.7547185149
 31
0.0
  0
LWPOLYLINE
  5
290
330
1F
100
AcDbEntity
  8
0
  6
Continuous
 62
     7
370
    15
100
AcDbPolyline
 90
        9
 70
   128
 43
0.0
 10
916.5302673293
 20
147.424608859
 10
916.3816282464
 20
147.417050245
 10
916.2387112094
 20
147.3946668382
 10
916.1069849444
 20
147.3583191808
 10
915.9915307475
 20
147.3094023939
 10
915.8967742635
 20
147.2497958865
 10
915.8263662768
 20
147.1817925747
 10
915.7830038978
 20
147.1080038871
 10
915.7683709575
 20
147.0312666323
  0
LINE
  5
291
330
1F
100
AcDbEntity
  8
0
  6
Continuous
 62
     7
370
    15
100
AcDbLine
 10
915.7683709575
 20
139.474645647
 30
0.0
 11
915.7683709575
 21
147.0312666323
 31
0.0
  0
LINE
  5
292
330
1F
100
AcDbEntity
  8
0
  6
Continuous
 62
     7
370
    15
100
AcDbLine
 10
896.7683622552
 20
121.9790409494
 30
0.0
 11
896.7683622552
 21
117.6146822225
 31
0.0
  0
LINE
  5
293
330
1F
100
AcDbEntity
  8
0
  6
Continuous
 62
     7
370
    15
100
AcDbLine
 10
896.7683622552
 20
138.6146819394
 30
0.0
 11
896.7683622552
 21
134.2366364959
 31
0.0
  0
SPLINE
  5
294
330
1F
100
AcDbEntity
  8
0
  6
Continuous
 62
     7
370
    15
100
AcDbSpline
210
0.0
220
0.0
230
1.0
 70
     8
 71
     3
 72
    11
 73
     7
 74
     0
 42
0.00000001
 43
0.00000001
 40
0.0
 40
0.0
 40
0.0
 40
0.0
 40
0.3340922556943952
 40
0.6236912806956996
 40
0.9185145588541078
 40
1.0
 40
1.0
 40
1.0
 40
1.0
 10
924.9067911816651
 20
107.1974676277047
 30
0.0
 10
924.6941428357334
 20
106.6680242088359
 30
0.0
 10
924.2971659021129
 20
105.6796467821162
 30
0.0
 10
923.1358645911499
 20
104.5195556422534
 30
0.0
 10
922.0637956048416
 20
103.9768877727286
 30
0.0
 10
921.4124305084299
 20
103.8370822927343
 30
0.0
 10
921.2713846875245
 20
103.8068089808828
 30
0.0
  0
SPLINE
  5
295
330
1F
100
AcDbEntity
  8
0
  6
Continuous
 62
     7
370
    15
100
AcDbSpline
210
0.0
220
0.0
230
1.0
 70
     8
 71
     3
 72
    11
 73
     7
 74
     0
 42
0.00000001
 43
0.00000001
 40
0.0
 40
0.0
 40
0.0
 40
0.0
 40
0.0091388675288036
 40
0.500000049671888
 40
0.9908518866750259
 40
1.0
 40
1.0
 40
1.0
 40
1.0
 10
921.2713846875245
 20
103.8068089808828
 30
0.0
 10
921.2666118184542
 20
103.8060198347132
 30
0.0
 10
921.00548156739
 20
103.762844559143
 30
0.0
 10
920.4796425652025
 20
103.7215780988327
 30
0.0
 10
919.9538135294331
 20
103.7628883312779
 30
0.0
 10
919.6926757289581
 20
103.8060198369999
 30
0.0
 10
919.687897892099
 20
103.8068089808828
 30
0.0
  0
SPLINE
  5
296
330
1F
100
AcDbEntity
  8
0
  6
Continuous
 62
     7
370
    15
100
AcDbSpline
210
0.0
220
0.0
230
1.0
 70
     8
 71
     3
 72
    12
 73
     8
 74
     0
 42
0.00000001
 43
0.00000001
 40
0.0
 40
0.0
 40
0.0
 40
0.0
 40
0.1136356149160963
 40
0.3008435139845502
 40
0.4919221750331683
 40
0.6964448174274551
 40
0.9999999999999999
 40
0.9999999999999999
 40
0.9999999999999999
 40
0.9999999999999999
 10
919.687897892099
 20
103.8068089808828
 30
0.0
 10
919.4111434633814
 20
103.8742335639147
 30
0.0
 10
918.6784526172271
 20
104.0527361267183
 30
0.0
 10
917.6074604717772
 20
104.7028621559008
 30
0.0
 10
916.6403611795672
 20
105.7800820181329
 30
0.0
 10
915.8987247751478
 20
107.3296757674599
 30
0.0
 10
915.8171239980182
 20
108.499297574614
 30
0.0
 10
915.7683709574753
 20
109.1980975295907
 30
0.0
  0
SPLINE
  5
297
330
1F
100
AcDbEntity
  8
0
  6
Continuous
 62
     7
370
    15
100
AcDbSpline
210
0.0
220
0.0
230
1.0
 70
     8
 71
     3
 72
    12
 73
     8
 74
     0
 42
0.00000001
 43
0.00000001
 40
0.0
 40
0.0
 40
0.0
 40
0.0
 40
0.2917316096161509
 40
0.522556094896212
 40
0.7611462108414029
 40
0.9714510008499991
 40
0.9999999999999999
 40
0.9999999999999999
 40
0.9999999999999999
 40
0.9999999999999999
 10
915.7683709574753
 20
147.0312666322595
 30
0.0
 10
915.8135471686619
 20
147.7011472599755
 30
0.0
 10
915.8944677947502
 20
148.901052218257
 30
0.0
 10
916.702448423336
 20
150.5925944737592
 30
0.0
 10
917.9139300048932
 20
151.800743318556
 30
0.0
 10
919.0328792141448
 20
152.2921130081707
 30
0.0
 10
919.6179654587148
 20
152.4086286489973
 30
0.0
 10
919.687897892099
 20
152.4225551809675
 30
0.0
  0
SPLINE
  5
298
330
1F
100
AcDbEntity
  8
0
  6
Continuous
 62
     7
370
    15
100
AcDbSpline
210
0.0
220
0.0
230
1.0
 70
     8
 71
     3
 72
    11
 73
     7
 74
     0
 42
0.00000001
 43
0.00000001
 40
0.0
 40
0.0
 40
0.0
 40
0.0
 40
0.0091388675288036
 40
0.500000049671888
 40
0.9908518866750259
 40
1.0
 40
1.0
 40
1.0
 40
1.0
 10
921.2713846875245
 20
152.4225551809675
 30
0.0
 10
921.2666118184542
 20
152.423344327137
 30
0.0
 10
921.00548156739
 20
152.4665196027072
 30
0.0
 10
920.4796425652025
 20
152.5077860630175
 30
0.0
 10
919.9538135294331
 20
152.4664758305723
 30
0.0
 10
919.6926757289581
 20
152.4233443248503
 30
0.0
 10
919.687897892099
 20
152.4225551809675
 30
0.0
  0
SPLINE
  5
299
330
1F
100
AcDbEntity
  8
0
  6
Continuous
 62
     7
370
    15
100
AcDbSpline
210
0.0
220
0.0
230
1.0
 70
     8
 71
     3
 72
    11
 73
     7
 74
     0
 42
0.00000001
 43
0.00000001
 40
0.0
 40
0.0
 40
0.0
 40
0.0
 40
0.1990395317190969
 40
0.4636327635383903
 40
0.7350873363479041
 40
1.0
 40
1.0
 40
1.0
 40
1.0
 10
921.2713846875245
 20
152.4225551809675
 30
0.0
 10
921.6144398103244
 20
152.3342413242404
 30
0.0
 10
922.4135353128913
 20
152.1285274286164
 30
0.0
 10
923.5072970300056
 20
151.387504646772
 30
0.0
 10
924.4210417102031
 20
150.303899904418
 30
0.0
 10
924.7461966299556
 20
149.4524359747898
 30
0.0
 10
924.9067911816651
 20
149.0318965341455
 30
0.0
  0
SPLINE
  5
29A
330
1F
100
AcDbEntity
  8
0
  6
Continuous
 62
     7
370
    15
100
AcDbSpline
210
0.0
220
0.0
230
1.0
 70
     8
 71
     3
 72
    12
 73
     8
 74
     0
 42
0.00000001
 43
0.00000001
 40
0.0
 40
0.0
 40
0.0
 40
0.0
 40
0.2917315934193974
 40
0.5225560192853045
 40
0.761146229291173
 40
0.9714510641611681
 40
1.0
 40
1.0
 40
1.0
 40
1.0
 10
915.7683709574753
 20
107.8890994365817
 30
0.0
 10
915.8135471365641
 20
107.4159835967238
 30
0.0
 10
915.8944676979421
 20
106.5685281427593
 30
0.0
 10
916.7024486957042
 20
105.2721460190615
 30
0.0
 10
917.9139303854569
 20
104.3131144222557
 30
0.0
 10
919.0328778622977
 20
103.9131250382319
 30
0.0
 10
919.6179654480884
 20
103.8181596898531
 30
0.0
 10
919.687897892099
 20
103.8068089808828
 30
0.0
  0
LINE
  5
29B
330
1F
100
AcDbEntity
  8
0
  6
Continuous
 62
     7
370
    15
100
AcDbLine
 10
915.7683709575
 20
109.1980975296
 30
0.0
 11
915.7683709575
 21
107.8890994366
 31
0.0
  0
SPLINE
  5
29C
330
1F
100
AcDbEntity
  8
0
  6
Continuous
 62
     7
370
    15
100
AcDbSpline
210
0.0
220
0.0
230
1.0
 70
     8
 71
     3
 72
    12
 73
     8
 74
     0
 42
0.00000001
 43
0.00000001
 40
0.0
 40
0.0
 40
0.0
 40
0.0
 40
0.1136356028737121
 40
0.3008435084529962
 40
0.4919222629101992
 40
0.696444673694794
 40
0.9999999999999999
 40
0.9999999999999999
 40
0.9999999999999999
 40
0.9999999999999999
 10
919.687897892099
 20
152.4225551809675
 30
0.0
 10
919.4111434633808
 20
152.3676214190418
 30
0.0
 10
918.6784525530503
 20
152.2221875475059
 30
0.0
 10
917.6074601139326
 20
151.6968162051568
 30
0.0
 10
916.6403620335982
 20
150.847679047193
 30
0.0
 10
915.8987240491319
 20
149.6609935063487
 30
0.0
 10
915.8171237462136
 20
148.8342247106152
 30
0.0
 10
915.7683709574753
 20
148.3402647252685
 30
0.0
  0
LINE
  5
29D
330
1F
100
AcDbEntity
  8
0
  6
Continuous
 62
     7
370
    15
100
AcDbLine
 10
915.7683709575
 20
148.3402647253
 30
0.0
 11
915.7683709575
 21
147.0312666323
 31
0.0
  0
SPLINE
  5
29E
330
1F
100
AcDbEntity
  8
0
  6
Continuous
 62
     7
370
    15
100
AcDbSpline
210
0.0
220
0.0
230
1.0
 70
     8
 71
     3
 72
    11
 73
     7
 74
     0
 42
0.00000001
 43
0.00000001
 40
0.0
 40
0.0
 40
0.0
 40
0.0
 40
0.1990394462206548
 40
0.4636328947727585
 40
0.7350865307150081
 40
1.0
 40
1.0
 40
1.0
 40
1.0
 10
921.2713846875245
 20
103.8068089808828
 30
0.0
 10
921.6144399631586
 20
103.8788035669263
 30
0.0
 10
922.4135363911752
 20
104.0465042864024
 30
0.0
 10
923.5072938760529
 20
104.6429083410585
 30
0.0
 10
924.4210448194749
 20
105.4967733414137
 30
0.0
 10
924.7461973046967
 20
106.1376910541949
 30
0.0
 10
924.9067911816651
 20
106.4542424108392
 30
0.0
  0
SPLINE
  5
29F
330
1F
100
AcDbEntity
  8
0
  6
Continuous
 62
     7
370
    15
100
AcDbSpline
210
0.0
220
0.0
230
1.0
 70
     8
 71
     3
 72
    11
 73
     7
 74
     0
 42
0.00000001
 43
0.00000001
 40
0.0
 40
0.0
 40
0.0
 40
0.0
 40
0.3340925085651961
 40
0.6236912680847839
 40
0.9185145540922016
 40
1.0
 40
1.0
 40
1.0
 40
1.0
 10
924.9067911816651
 20
149.775121751011
 30
0.0
 10
924.6941430846344
 20
150.1749381969683
 30
0.0
 10
924.297166924162
 20
150.9213243618397
 30
0.0
 10
923.1358637982352
 20
151.8442440107672
 30
0.0
 10
922.0637956060611
 20
152.2839168319967
 30
0.0
 10
921.412430511537
 20
152.3978781356203
 30
0.0
 10
921.2713846875245
 20
152.4225551809675
 30
0.0
  0
LINE
  5
2A0
330
1F
100
AcDbEntity
  8
0
  6
Continuous
 62
     7
370
    15
100
AcDbLine
 10
871.7683711959
 20
146.6440934863
 30
0.0
 11
868.7683651162
 21
146.6440934863
 31
0.0
  0
LINE
  5
2A1
330
1F
100
AcDbEntity
  8
0
  6
Continuous
 62
     7
370
    15
100
AcDbLine
 10
871.7683711959
 20
146.6440934863
 30
0.0
 11
871.7683711959
 21
137.6024311583
 31
0.0
  0
LINE
  5
2A2
330
1F
100
AcDbEntity
  8
0
  6
Continuous
 62
     7
370
    15
100
AcDbLine
 10
871.7683711959
 20
118.6224309902
 30
0.0
 11
871.7683711959
 21
58.1146817829
 31
0.0
  0
LINE
  5
2A3
330
1F
100
AcDbEntity
  8
0
  6
Continuous
 62
     7
370
    15
100
AcDbLine
 10
868.7683651162
 20
146.6440934863
 30
0.0
 11
868.7683651162
 21
132.1146822709
 31
0.0
  0
LINE
  5
2A4
330
1F
100
AcDbEntity
  8
0
  6
Continuous
 62
     7
370
    15
100
AcDbLine
 10
868.7683651162
 20
124.1146818909
 30
0.0
 11
868.7683651162
 21
58.1146817829
 31
0.0
  0
LINE
  5
2A5
330
1F
100
AcDbEntity
  8
0
  6
Continuous
 62
     7
370
    15
100
AcDbLine
 10
868.7683651162
 20
148.1146816339
 30
0.0
 11
871.7683711959
 21
148.1146816339
 31
0.0
  0
LINE
  5
2A6
330
1F
100
AcDbEntity
  8
0
  6
Continuous
 62
     7
370
    15
100
AcDbLine
 10
871.7683711959
 20
148.1146816339
 30
0.0
 11
871.7683711959
 21
146.6440934863
 31
0.0
  0
LINE
  5
2A7
330
1F
100
AcDbEntity
  8
0
  6
Continuous
 62
     7
370
    15
100
AcDbLine
 10
868.7683651162
 20
146.6440934863
 30
0.0
 11
868.7683651162
 21
148.1146816339
 31
0.0
  0
SPLINE
  5
2A8
330
1F
100
AcDbEntity
  8
0
  6
Continuous
 62
     7
370
    15
100
AcDbSpline
210
0.0
220
0.0
230
1.0
 70
    11
 71
     3
 72
    42
 73
    38
 74
     0
 42
0.00000001
 43
0.00000001
 40
0.0
 40
0.0
 40
0.0
 40
0.0
 40
0.0378519787020367
 40
0.0651098351119967
 40
0.0923673641920425
 40
0.1195387949304069
 40
0.1467092825393477
 40
0.1738391065266243
 40
0.2009462259086663
 40
0.2267201131931238
 40
0.2525007307080587
 40
0.2796824712344141
 40
0.3068466661418889
 40
0.3336288470456115
 40
0.3604298595617586
 40
0.3865644382575419
 40
0.4126999045561752
 40
0.439786236744738
 40
0.46687291827479
 40
0.500145705065326
 40
0.5273722833244225
 40
0.5545984584497881
 40
0.5818264043440141
 40
0.609053704148619
 40
0.6362496762986487
 40
0.663445706225302
 40
0.690533701922894
 40
0.7176210732800308
 40
0.7686501939373167
 40
0.7962165244521975
 40
0.8237597320013033
 40
0.875169825652482
 40
0.9021703164389978
 40
0.9291713819725165
 40
0.9562734528220187
 40
0.9833756477022096
 40
1.0
 40
1.0
 40
1.0
 40
1.0
 10
870.3560093356186
 20
128.1147604635802
 30
0.0
 10
870.424063622252
 20
127.0881900518444
 30
0.0
 10
870.54112496312
 20
125.3223687518505
 30
0.0
 10
871.3586135694211
 20
122.9405971593622
 30
0.0
 10
872.3901620827444
 20
120.9779904827958
 30
0.0
 10
873.7494212547944
 20
119.2243575389449
 30
0.0
 10
875.3756951494446
 20
117.7226350626664
 30
0.0
 10
877.2315233820741
 20
116.5177391255995
 30
0.0
 10
879.2354709739822
 20
115.6685162304169
 30
0.0
 10
881.3219122203215
 20
115.2042319603959
 30
0.0
 10
883.455467976018
 20
115.0669655874585
 30
0.0
 10
885.6221430645938
 20
115.2789665015869
 30
0.0
 10
887.7519018710833
 20
115.8548854461051
 30
0.0
 10
889.7272608917515
 20
116.8140740772881
 30
0.0
 10
891.4894155229139
 20
118.0736778943025
 30
0.0
 10
893.0076462238794
 20
119.5931965022911
 30
0.0
 10
894.2682437656924
 20
121.342092453869
 30
0.0
 10
895.230279400753
 20
123.3013320479027
 30
0.0
 10
895.9118402459153
 20
125.5769466011256
 30
0.0
 10
896.1575867330066
 20
127.9516604809734
 30
0.0
 10
895.9538903977783
 20
130.3261315599637
 30
0.0
 10
895.4019821429608
 20
132.4764857433151
 30
0.0
 10
894.4899503033262
 20
134.5001720119295
 30
0.0
 10
893.2578744224651
 20
136.3458257994959
 30
0.0
 10
891.7265054768574
 20
137.9505836654697
 30
0.0
 10
889.9553496884813
 20
139.2795870928531
 30
0.0
 10
887.9786799542095
 20
140.2752249217478
 30
0.0
 10
885.2396729174095
 20
141.0901536521591
 30
0.0
 10
882.327691782356
 20
141.2084287268488
 30
0.0
 10
879.5014600863107
 20
140.6406154489271
 30
0.0
 10
876.8104132287184
 20
139.5721751267733
 30
0.0
 10
874.4612127381688
 20
137.8264579705107
 30
0.0
 10
872.6423803426858
 20
135.6186168644356
 30
0.0
 10
871.5383524087769
 20
133.7094369670086
 30
0.0
 10
870.7801903749349
 20
131.6389248391559
 30
0.0
 10
870.4061212740646
 20
129.7476593113987
 30
0.0
 10
870.3698132478435
 20
128.5645613107687
 30
0.0
 10
870.3560093356186
 20
128.1147604635802
 30
0.0
  0
SPLINE
  5
2A9
330
1F
100
AcDbEntity
  8
0
  6
Continuous
 62
     7
370
    15
100
AcDbSpline
210
0.0
220
0.0
230
1.0
 70
    11
 71
     3
 72
    44
 73
    40
 74
     0
 42
0.00000001
 43
0.00000001
 40
0.0
 40
0.0
 40
0.0
 40
0.0
 40
0.016585392011833
 40
0.0437706392047285
 40
0.0709556764442819
 40
0.0977658889837912
 40
0.1245755981833439
 40
0.150339349486977
 40
0.1761023643115085
 40
0.2037905486081151
 40
0.2314995674639903
 40
0.2570045950249262
 40
0.2825096140618385
 40
0.3097612327823837
 40
0.337013212721426
 40
0.3641791732384744
 40
0.3913452644972527
 40
0.4185176645155201
 40
0.4456907369647489
 40
0.4728534020114375
 40
0.5000164827998188
 40
0.5332028582070714
 40
0.5602353494559009
 40
0.587267559388802
 40
0.6133653402091739
 40
0.6394622700651632
 40
0.666348880572556
 40
0.6932190183551
 40
0.7203948373587539
 40
0.7475859923340294
 40
0.7733187921512239
 40
0.7990458887021149
 40
0.8262980566614747
 40
0.8535705809367307
 40
0.880702535869549
 40
0.9078354721572711
 40
0.9350393835706802
 40
0.9622438837856154
 40
1.0
 40
1.0
 40
1.0
 40
1.0
 10
868.3604458285386
 20
128.1147724833058
 30
0.0
 10
868.3763218791127
 20
128.6330286139724
 30
0.0
 10
868.4182204897202
 20
130.0007624664409
 30
0.0
 10
868.8516892759335
 20
132.1887885861314
 30
0.0
 10
869.7296002600569
 20
134.578715935434
 30
0.0
 10
871.0017587005809
 20
136.7729966838575
 30
0.0
 10
872.5846524591688
 20
138.6966477666603
 30
0.0
 10
874.4413748221097
 20
140.3061010594437
 30
0.0
 10
876.5487832239548
 20
141.623514269274
 30
0.0
 10
878.9189023242021
 20
142.5643451312687
 30
0.0
 10
881.4085677374541
 20
143.068141590931
 30
0.0
 10
883.8757386350889
 20
143.1520384660918
 30
0.0
 10
886.3132388018959
 20
142.8608519912829
 30
0.0
 10
888.7211342062221
 20
142.1431364168063
 30
0.0
 10
891.0118256241682
 20
140.9898476581191
 30
0.0
 10
893.0597603585978
 20
139.4527737330853
 30
0.0
 10
894.8250507805145
 20
137.6015224231855
 30
0.0
 10
896.2447151988613
 20
135.4732109164334
 30
0.0
 10
897.2949398215835
 20
133.1407167826731
 30
0.0
 10
897.9302879868229
 20
130.6627037203114
 30
0.0
 10
898.1647575457465
 20
127.9271248404885
 30
0.0
 10
897.8819724466488
 20
125.190986163
 30
0.0
 10
897.0973206288209
 20
122.5685761135363
 30
0.0
 10
895.9891673931608
 20
120.3096219332352
 30
0.0
 10
894.5364190977411
 20
118.2927466539891
 30
0.0
 10
892.7835664278052
 20
116.5369995496366
 30
0.0
 10
890.744256356533
 20
115.0809755408835
 30
0.0
 10
888.4570574462207
 20
113.9725115036138
 30
0.0
 10
885.9948373350109
 20
113.3044407580596
 30
0.0
 10
883.4934417246803
 20
113.0579804669237
 30
0.0
 10
881.032012779219
 20
113.2170579675996
 30
0.0
 10
878.6213148281987
 20
113.7549508691374
 30
0.0
 10
876.2994018558326
 20
114.736934128743
 30
0.0
 10
874.1484815723699
 20
116.1309061690388
 30
0.0
 10
872.2695358577597
 20
117.8673173883971
 30
0.0
 10
870.7029557855295
 20
119.8897135148311
 30
0.0
 10
869.5147091361796
 20
122.1527053447352
 30
0.0
 10
868.57342562652
 20
124.8975405185709
 30
0.0
 10
868.4387319051781
 20
126.9321980300226
 30
0.0
 10
868.3604458285386
 20
128.1147724833058
 30
0.0
  0
ARC
  5
2AA
330
1F
100
AcDbEntity
  8
0
  6
Continuous
 62
     7
370
    15
100
AcDbCircle
 10
863.7183680965
 20
128.1146820809
 30
0.0
 40
4.000000000000014
100
AcDbArc
 50
90.0
 51
270.0
  0
LINE
  5
2AB
330
1F
100
AcDbEntity
  8
0
  6
Continuous
 62
     7
370
    15
100
AcDbLine
 10
512.3183736516
 20
147.5146826531
 30
0.0
 11
512.3183736516
 21
108.7146815087
 31
0.0
  0
LINE
  5
2AC
330
1F
100
AcDbEntity
  8
0
  6
Continuous
 62
     7
370
    15
100
AcDbLine
 10
515.818373294
 20
108.7146815087
 30
0.0
 11
515.818373294
 21
147.5146826531
 31
0.0
  0
LINE
  5
2AD
330
1F
100
AcDbEntity
  8
0
  6
Continuous
 62
     7
370
    15
100
AcDbLine
 10
508.3183655454
 20
112.7146821644
 30
0.0
 11
508.3183655454
 21
143.5146819975
 31
0.0
  0
LINE
  5
2AE
330
1F
100
AcDbEntity
  8
0
  6
Continuous
 62
     7
370
    15
100
AcDbLine
 10
517.8183624459
 20
128.1146820809
 30
0.0
 11
517.8183624459
 21
114.2146824102
 31
0.0
  0
LINE
  5
2AF
330
1F
100
AcDbEntity
  8
0
  6
Continuous
 62
     7
370
    15
100
AcDbLine
 10
517.8183624459
 20
142.0146817516
 30
0.0
 11
517.8183624459
 21
128.1146820809
 31
0.0
  0
LINE
  5
2B0
330
1F
100
AcDbEntity
  8
0
  6
Continuous
 62
     7
370
    15
100
AcDbLine
 10
528.7683615399
 20
158.1146814104
 30
0.0
 11
858.768374653
 21
158.1146814104
 31
0.0
  0
LINE
  5
2B1
330
1F
100
AcDbEntity
  8
0
  6
Continuous
 62
     7
370
    15
100
AcDbLine
 10
528.7683615399
 20
98.1146827515
 30
0.0
 11
858.768374653
 21
98.1146827515
 31
0.0
  0
LINE
  5
2B2
330
1F
100
AcDbEntity
  8
0
  6
Continuous
 62
     7
370
    15
100
AcDbLine
 10
725.7683696164
 20
103.1146817084
 30
0.0
 11
725.7683696164
 21
153.1146824535
 31
0.0
  0
LINE
  5
2B3
330
1F
100
AcDbEntity
  8
0
  6
Continuous
 62
     7
370
    15
100
AcDbLine
 10
725.7683696164
 20
103.1146817084
 30
0.0
 11
661.7683665765
 21
103.1146817084
 31
0.0
  0
LINE
  5
2B4
330
1F
100
AcDbEntity
  8
0
  6
Continuous
 62
     7
370
    15
100
AcDbLine
 10
661.7683665765
 20
103.1146817084
 30
0.0
 11
661.7683665765
 21
153.1146824535
 31
0.0
  0
LINE
  5
2B5
330
1F
100
AcDbEntity
  8
0
  6
Continuous
 62
     7
370
    15
100
AcDbLine
 10
725.7683696164
 20
153.1146824535
 30
0.0
 11
661.7683665765
 21
153.1146824535
 31
0.0
  0
LINE
  5
2B6
330
1F
100
AcDbEntity
  8
0
  6
Continuous
 62
     7
370
    15
100
AcDbLine
 10
731.9706166102
 20
153.1146824535
 30
0.0
 11
731.9706166102
 21
103.1146817084
 31
0.0
  0
LINE
  5
2B7
330
1F
100
AcDbEntity
  8
0
  6
Continuous
 62
     7
370
    15
100
AcDbLine
 10
731.9706166102
 20
103.1146817084
 30
0.0
 11
725.7683696164
 21
103.1146817084
 31
0.0
  0
LINE
  5
2B8
330
1F
100
AcDbEntity
  8
0
  6
Continuous
 62
     7
370
    15
100
AcDbLine
 10
725.7683696164
 20
153.1146824535
 30
0.0
 11
731.9706166102
 21
153.1146824535
 31
0.0
  0
LINE
  5
2B9
330
1F
100
AcDbEntity
  8
0
  6
Continuous
 62
     7
370
    15
100
AcDbLine
 10
655.5661195828
 20
103.1146817084
 30
0.0
 11
655.5661195828
 21
153.1146824535
 31
0.0
  0
LINE
  5
2BA
330
1F
100
AcDbEntity
  8
0
  6
Continuous
 62
     7
370
    15
100
AcDbLine
 10
661.7683665765
 20
103.1146817084
 30
0.0
 11
655.5661195828
 21
103.1146817084
 31
0.0
  0
LINE
  5
2BB
330
1F
100
AcDbEntity
  8
0
  6
Continuous
 62
     7
370
    15
100
AcDbLine
 10
655.5661195828
 20
153.1146824535
 30
0.0
 11
661.7683665765
 21
153.1146824535
 31
0.0
  0
LINE
  5
2BC
330
1F
100
AcDbEntity
  8
0
  6
Continuous
 62
     7
370
    15
100
AcDbLine
 10
528.1163612319
 20
153.1146824535
 30
0.0
 11
528.1163612319
 21
103.1146817084
 31
0.0
  0
LINE
  5
2BD
330
1F
100
AcDbEntity
  8
0
  6
Continuous
 62
     7
370
    15
100
AcDbLine
 10
655.5661195828
 20
103.1146817084
 30
0.0
 11
528.1163612319
 21
103.1146817084
 31
0.0
  0
LINE
  5
2BE
330
1F
100
AcDbEntity
  8
0
  6
Continuous
 62
     7
370
    15
100
AcDbLine
 10
655.5661195828
 20
153.1146824535
 30
0.0
 11
528.1163612319
 21
153.1146824535
 31
0.0
  0
LINE
  5
2BF
330
1F
100
AcDbEntity
  8
0
  6
Continuous
 62
     7
370
    15
100
AcDbLine
 10
859.420374961
 20
103.1146817084
 30
0.0
 11
731.9706166102
 21
103.1146817084
 31
0.0
  0
LINE
  5
2C0
330
1F
100
AcDbEntity
  8
0
  6
Continuous
 62
     7
370
    15
100
AcDbLine
 10
859.420374961
 20
153.1146824535
 30
0.0
 11
731.9706166102
 21
153.1146824535
 31
0.0
  0
LINE
  5
2C1
330
1F
100
AcDbEntity
  8
0
  6
Continuous
 62
     7
370
    15
100
AcDbLine
 10
867.2157684279
 20
103.1146817084
 30
0.0
 11
859.420374961
 21
103.1146817084
 31
0.0
  0
LINE
  5
2C2
330
1F
100
AcDbEntity
  8
0
  6
Continuous
 62
     7
370
    15
100
AcDbLine
 10
859.420374961
 20
153.1146824535
 30
0.0
 11
867.2157684279
 21
153.1146824535
 31
0.0
  0
LINE
  5
2C3
330
1F
100
AcDbEntity
  8
0
  6
Continuous
 62
     7
370
    15
100
AcDbLine
 10
520.320967765
 20
103.1146817084
 30
0.0
 11
520.320967765
 21
153.1146824535
 31
0.0
  0
LINE
  5
2C4
330
1F
100
AcDbEntity
  8
0
  6
Continuous
 62
     7
370
    15
100
AcDbLine
 10
528.1163612319
 20
103.1146817084
 30
0.0
 11
520.320967765
 21
103.1146817084
 31
0.0
  0
LINE
  5
2C5
330
1F
100
AcDbEntity
  8
0
  6
Continuous
 62
     7
370
    15
100
AcDbLine
 10
520.320967765
 20
153.1146824535
 30
0.0
 11
528.1163612319
 21
153.1146824535
 31
0.0
  0
LINE
  5
2C6
330
1F
100
AcDbEntity
  8
0
  6
Continuous
 62
     7
370
    15
100
AcDbLine
 10
868.7683651162
 20
148.1146816339
 30
0.0
 11
868.7683651162
 21
153.1146824535
 31
0.0
  0
LINE
  5
2C7
330
1F
100
AcDbEntity
  8
0
  6
Continuous
 62
     7
370
    15
100
AcDbLine
 10
868.7683651162
 20
103.1146817084
 30
0.0
 11
867.2157684279
 21
103.1146817084
 31
0.0
  0
LINE
  5
2C8
330
1F
100
AcDbEntity
  8
0
  6
Continuous
 62
     7
370
    15
100
AcDbLine
 10
868.7683651162
 20
153.1146824535
 30
0.0
 11
867.2157684279
 21
153.1146824535
 31
0.0
  0
LINE
  5
2C9
330
1F
100
AcDbEntity
  8
0
  6
Continuous
 62
     7
370
    15
100
AcDbLine
 10
518.7683710767
 20
103.1146817084
 30
0.0
 11
518.7683710767
 21
153.1146824535
 31
0.0
  0
LINE
  5
2CA
330
1F
100
AcDbEntity
  8
0
  6
Continuous
 62
     7
370
    15
100
AcDbLine
 10
520.320967765
 20
103.1146817084
 30
0.0
 11
518.7683710767
 21
103.1146817084
 31
0.0
  0
LINE
  5
2CB
330
1F
100
AcDbEntity
  8
0
  6
Continuous
 62
     7
370
    15
100
AcDbLine
 10
520.320967765
 20
153.1146824535
 30
0.0
 11
518.7683710767
 21
153.1146824535
 31
0.0
  0
LINE
  5
2CC
330
1F
100
AcDbEntity
  8
0
  6
Continuous
 62
     8
370
    15
100
AcDbLine
 10
859.420374961
 20
103.1146817084
 30
0.0
 11
859.420374961
 21
132.1146822709
 31
0.0
  0
LINE
  5
2CD
330
1F
100
AcDbEntity
  8
0
  6
Continuous
 62
     8
370
    15
100
AcDbLine
 10
859.420374961
 20
138.1146818574
 30
0.0
 11
859.420374961
 21
153.1146824535
 31
0.0
  0
LINE
  5
2CE
330
1F
100
AcDbEntity
  8
0
  6
Continuous
 62
     8
370
    15
100
AcDbLine
 10
867.2157684279
 20
153.1146824535
 30
0.0
 11
867.2157684279
 21
138.1146818574
 31
0.0
  0
LINE
  5
2CF
330
1F
100
AcDbEntity
  8
0
  6
Continuous
 62
     8
370
    15
100
AcDbLine
 10
867.2157684279
 20
124.1146818909
 30
0.0
 11
867.2157684279
 21
103.1146817084
 31
0.0
  0
ENDSEC
  0
SECTION
  2
OBJECTS
  0
DICTIONARY
  5
C
330
0
100
AcDbDictionary
281
     1
  3
ACAD_GROUP
350
D
  3
ACAD_LAYOUT
350
1A
  3
ACAD_MLINESTYLE
350
17
  3
ACAD_PLOTSETTINGS
350
19
  3
ACAD_PLOTSTYLENAME
350
E
  0
DICTIONARY
  5
D
102
{ACAD_REACTORS
330
C
102
}
330
C
100
AcDbDictionary
281
     1
  0
DICTIONARY
  5
1A
102
{ACAD_REACTORS
330
C
102
}
330
C
100
AcDbDictionary
281
     1
  3
Layout1
350
1E
  3
Layout2
350
26
  3
Model
350
22
  0
DICTIONARY
  5
17
102
{ACAD_REACTORS
330
C
102
}
330
C
100
AcDbDictionary
281
     1
  3
Standard
350
18
  0
DICTIONARY
  5
19
102
{ACAD_REACTORS
330
C
102
}
330
C
100
AcDbDictionary
281
     1
  0
ACDBDICTIONARYWDFLT
  5
E
102
{ACAD_REACTORS
330
C
102
}
330
C
100
AcDbDictionary
281
     1
  3
Normal
350
F
100
AcDbDictionaryWithDefault
340
F
  0
LAYOUT
  5
1E
102
{ACAD_REACTORS
330
1A
102
}
330
1A
100
AcDbPlotSettings
  1

  2
none_device
  4

  6

 40
0.0
 41
0.0
 42
0.0
 43
0.0
 44
0.0
 45
0.0
 46
0.0
 47
0.0
 48
0.0
 49
0.0
140
0.0
141
0.0
142
1.0
143
1.0
 70
   688
 72
     0
 73
     0
 74
     5
  7

 75
    16
147
1.0
148
0.0
149
0.0
100
AcDbLayout
  1
Layout1
 70
     1
 71
     1
 10
0.0
 20
0.0
 11
420.0
 21
297.0
 12
0.0
 22
0.0
 32
0.0
 14
1.0000000000E+20
 24
1.0000000000E+20
 34
1.0000000000E+20
 15
-1.0000000000E+20
 25
-1.0000000000E+20
 35
-1.0000000000E+20
146
0.0
 13
0.0
 23
0.0
 33
0.0
 16
1.0
 26
0.0
 36
0.0
 17
0.0
 27
1.0
 37
0.0
 76
     0
330
1B
  0
LAYOUT
  5
26
102
{ACAD_REACTORS
330
1A
102
}
330
1A
100
AcDbPlotSettings
  1

  2
none_device
  4

  6

 40
0.0
 41
0.0
 42
0.0
 43
0.0
 44
0.0
 45
0.0
 46
0.0
 47
0.0
 48
0.0
 49
0.0
140
0.0
141
0.0
142
1.0
143
1.0
 70
   688
 72
     0
 73
     0
 74
     5
  7

 75
    16
147
1.0
148
0.0
149
0.0
100
AcDbLayout
  1
Layout2
 70
     1
 71
     2
 10
0.0
 20
0.0
 11
0.0
 21
0.0
 12
0.0
 22
0.0
 32
0.0
 14
0.0
 24
0.0
 34
0.0
 15
0.0
 25
0.0
 35
0.0
146
0.0
 13
0.0
 23
0.0
 33
0.0
 16
1.0
 26
0.0
 36
0.0
 17
0.0
 27
1.0
 37
0.0
 76
     0
330
23
  0
LAYOUT
  5
22
102
{ACAD_REACTORS
330
1A
102
}
330
1A
100
AcDbPlotSettings
  1

  2
none_device
  4

  6

 40
0.0
 41
0.0
 42
0.0
 43
0.0
 44
0.0
 45
0.0
 46
0.0
 47
0.0
 48
0.0
 49
0.0
140
0.0
141
0.0
142
1.0
143
1.0
 70
  1712
 72
     0
 73
     0
 74
     0
  7

 75
     0
147
1.0
148
0.0
149
0.0
100
AcDbLayout
  1
Model
 70
     1
 71
     0
 10
0.0
 20
0.0
 11
1189.0
 21
841.0
 12
0.0
 22
0.0
 32
0.0
 14
0.0
 24
0.0
 34
0.0
 15
1189.0
 25
841.0
 35
0.0
146
0.0
 13
0.0
 23
0.0
 33
0.0
 16
1.0
 26
0.0
 36
0.0
 17
0.0
 27
1.0
 37
0.0
 76
     0
330
1F
331
29
  0
MLINESTYLE
  5
18
102
{ACAD_REACTORS
330
17
102
}
330
17
100
AcDbMlineStyle
  2
Standard
 70
     0
  3

 62
   256
 51
90.0
 52
90.0
 71
     2
 49
0.5
 62
   256
  6
BYLAYER
 49
-0.5
 62
   256
  6
BYLAYER
  0
ACDBPLACEHOLDER
  5
F
102
{ACAD_REACTORS
330
E
102
}
330
E
  0
ENDSEC
  0
EOF
