  0
SECTION
  2
HEADER
  9
$ACADVER
  1
AC1015
  9
$ACADMAINTVER
 70
     6
  9
$DWGCODEPAGE
  3
ANSI_1252
  9
$INSBASE
 10
0.0
 20
0.0
 30
0.0
  9
$EXTMIN
 10
0.0
 20
0.0
 30
0.0
  9
$EXTMAX
 10
1189.0
 20
841.0
 30
0.0
  9
$LIMMIN
 10
0.0
 20
0.0
  9
$LIMMAX
 10
0.0
 20
0.0
  9
$ORTHOMODE
 70
     0
  9
$REGENMODE
 70
     1
  9
$FILLMODE
 70
     1
  9
$QTEXTMODE
 70
     0
  9
$MIRRTEXT
 70
     1
  9
$LTSCALE
 40
1.0
  9
$ATTMODE
 70
     1
  9
$TEXTSIZE
 40
3.5
  9
$TRACEWID
 40
1.0
  9
$TEXTSTYLE
  7
Standard
  9
$CLAYER
  8
0
  9
$CELTYPE
  6
ByLayer
  9
$CECOLOR
 62
   256
  9
$CELTSCALE
 40
1.0
  9
$DISPSILH
 70
     0
  9
$DIMSCALE
 40
1.0
  9
$DIMASZ
 40
6.0
  9
$DIMEXO
 40
1.0
  9
$DIMDLI
 40
3.75
  9
$DIMRND
 40
0.0
  9
$DIMDLE
 40
0.0
  9
$DIMEXE
 40
1.0
  9
$DIMTP
 40
0.0
  9
$DIMTM
 40
0.0
  9
$DIMTXT
 40
3.5
  9
$DIMCEN
 40
2.5
  9
$DIMTSZ
 40
0.0
  9
$DIMTOL
 70
     0
  9
$DIMLIM
 70
     0
  9
$DIMTIH
 70
     1
  9
$DIMTOH
 70
     1
  9
$DIMSE1
 70
     0
  9
$DIMSE2
 70
     0
  9
$DIMTAD
 70
     1
  9
$DIMZIN
 70
     0
  9
$DIMBLK
  1

  9
$DIMASO
 70
     1
  9
$DIMSHO
 70
     1
  9
$DIMPOST
  1

  9
$DIMAPOST
  1

  9
$DIMALT
 70
     0
  9
$DIMALTD
 70
     3
  9
$DIMALTF
 40
0.0393700787
  9
$DIMLFAC
 40
1.0
  9
$DIMTOFL
 70
     1
  9
$DIMTVP
 40
0.0
  9
$DIMTIX
 70
     0
  9
$DIMSOXD
 70
     0
  9
$DIMSAH
 70
     0
  9
$DIMBLK1
  1

  9
$DIMBLK2
  1

  9
$DIMSTYLE
  2
ISO-25
  9
$DIMCLRD
 70
     0
  9
$DIMCLRE
 70
     0
  9
$DIMCLRT
 70
     0
  9
$DIMTFAC
 40
1.0
  9
$DIMGAP
 40
1.524
  9
$DIMJUST
 70
     0
  9
$DIMSD1
 70
     0
  9
$DIMSD2
 70
     0
  9
$DIMTOLJ
 70
     0
  9
$DIMTZIN
 70
     0
  9
$DIMALTZ
 70
     0
  9
$DIMALTTZ
 70
     0
  9
$DIMUPT
 70
     0
  9
$DIMDEC
 70
     2
  9
$DIMTDEC
 70
     2
  9
$DIMALTU
 70
     2
  9
$DIMALTTD
 70
     3
  9
$DIMTXSTY
  7
Standard
  9
$DIMAUNIT
 70
     0
  9
$DIMADEC
 70
     0
  9
$DIMALTRND
 40
0.0
  9
$DIMAZIN
 70
     0
  9
$DIMDSEP
 70
    44
  9
$DIMATFIT
 70
     3
  9
$DIMFRAC
 70
     0
  9
$DIMLDRBLK
  1

  9
$DIMLUNIT
 70
     2
  9
$DIMLWD
 70
    -2
  9
$DIMLWE
 70
    -2
  9
$DIMTMOVE
 70
     0
  9
$LUNITS
 70
     2
  9
$LUPREC
 70
     2
  9
$SKETCHINC
 40
1.0
  9
$FILLETRAD
 40
10.0
  9
$AUNITS
 70
     0
  9
$AUPREC
 70
     0
  9
$MENU
  1
.
  9
$ELEVATION
 40
0.0
  9
$PELEVATION
 40
0.0
  9
$THICKNESS
 40
0.0
  9
$LIMCHECK
 70
     0
  9
$CHAMFERA
 40
10.0
  9
$CHAMFERB
 40
10.0
  9
$CHAMFERC
 40
20.0
  9
$CHAMFERD
 40
0.0
  9
$SKPOLY
 70
     0
  9
$TDCREATE
 40
2455282.548800046
  9
$TDUCREATE
 40
2455282.50713338
  9
$TDUPDATE
 40
2455282.548800058
  9
$TDUUPDATE
 40
2455282.507133391
  9
$TDINDWG
 40
0.0000000116
  9
$TDUSRTIMER
 40
0.0000000116
  9
$USRTIMER
 70
     1
  9
$ANGBASE
 50
0.0
  9
$ANGDIR
 70
     0
  9
$PDMODE
 70
     0
  9
$PDSIZE
 40
-1.0
  9
$PLINEWID
 40
0.0
  9
$SPLFRAME
 70
     0
  9
$SPLINETYPE
 70
     6
  9
$SPLINESEGS
 70
     8
  9
$HANDSEED
  5
379
  9
$SURFTAB1
 70
     6
  9
$SURFTAB2
 70
     6
  9
$SURFTYPE
 70
     6
  9
$SURFU
 70
     6
  9
$SURFV
 70
     6
  9
$UCSBASE
  2

  9
$UCSNAME
  2

  9
$UCSORG
 10
0.0
 20
0.0
 30
0.0
  9
$UCSXDIR
 10
1.0
 20
0.0
 30
0.0
  9
$UCSYDIR
 10
0.0
 20
1.0
 30
0.0
  9
$UCSORTHOREF
  2

  9
$UCSORTHOVIEW
 70
     0
  9
$UCSORGTOP
 10
0.0
 20
0.0
 30
0.0
  9
$UCSORGBOTTOM
 10
0.0
 20
0.0
 30
0.0
  9
$UCSORGLEFT
 10
0.0
 20
0.0
 30
0.0
  9
$UCSORGRIGHT
 10
0.0
 20
0.0
 30
0.0
  9
$UCSORGFRONT
 10
0.0
 20
0.0
 30
0.0
  9
$UCSORGBACK
 10
0.0
 20
0.0
 30
0.0
  9
$PUCSBASE
  2

  9
$PUCSNAME
  2

  9
$PUCSORG
 10
0.0
 20
0.0
 30
0.0
  9
$PUCSXDIR
 10
1.0
 20
0.0
 30
0.0
  9
$PUCSYDIR
 10
0.0
 20
1.0
 30
0.0
  9
$PUCSORTHOREF
  2

  9
$PUCSORTHOVIEW
 70
     0
  9
$PUCSORGTOP
 10
0.0
 20
0.0
 30
0.0
  9
$PUCSORGBOTTOM
 10
0.0
 20
0.0
 30
0.0
  9
$PUCSORGLEFT
 10
0.0
 20
0.0
 30
0.0
  9
$PUCSORGRIGHT
 10
0.0
 20
0.0
 30
0.0
  9
$PUCSORGFRONT
 10
0.0
 20
0.0
 30
0.0
  9
$PUCSORGBACK
 10
0.0
 20
0.0
 30
0.0
  9
$USERI1
 70
     0
  9
$USERI2
 70
     0
  9
$USERI3
 70
     0
  9
$USERI4
 70
     0
  9
$USERI5
 70
     0
  9
$USERR1
 40
0.0
  9
$USERR2
 40
0.0
  9
$USERR3
 40
0.0
  9
$USERR4
 40
0.0
  9
$USERR5
 40
0.0
  9
$WORLDVIEW
 70
     1
  9
$SHADEDGE
 70
     3
  9
$SHADEDIF
 70
    70
  9
$TILEMODE
 70
     1
  9
$MAXACTVP
 70
    64
  9
$PINSBASE
 10
0.0
 20
0.0
 30
0.0
  9
$PLIMCHECK
 70
     0
  9
$PEXTMIN
 10
1.0000000000E+20
 20
1.0000000000E+20
 30
1.0000000000E+20
  9
$PEXTMAX
 10
-1.0000000000E+20
 20
-1.0000000000E+20
 30
-1.0000000000E+20
  9
$PLIMMIN
 10
0.0
 20
0.0
  9
$PLIMMAX
 10
420.0
 20
297.0
  9
$UNITMODE
 70
     0
  9
$VISRETAIN
 70
     1
  9
$PLINEGEN
 70
     0
  9
$PSLTSCALE
 70
     1
  9
$TREEDEPTH
 70
  3020
  9
$CMLSTYLE
  2
Standard
  9
$CMLJUST
 70
     0
  9
$CMLSCALE
 40
20.0
  9
$PROXYGRAPHICS
 70
     1
  9
$MEASUREMENT
 70
     1
  9
$CELWEIGHT
370
    -1
  9
$ENDCAPS
280
     0
  9
$JOINSTYLE
280
     0
  9
$LWDISPLAY
290
     1
  9
$INSUNITS
 70
     4
  9
$HYPERLINKBASE
  1

  9
$STYLESHEET
  1

  9
$XEDIT
290
     1
  9
$CEPSNTYPE
380
     0
  9
$PSTYLEMODE
290
     1
  9
$FINGERPRINTGUID
  2
{5997DCA1-3AF0-4757-81A8-4D7D463D4256}
  9
$VERSIONGUID
  2
{FAEB1C32-E019-11D5-929B-00C0DF256EC4}
  9
$EXTNAMES
290
     1
  9
$PSVPSCALE
 40
0.0
  9
$OLESTARTUP
290
     0
  0
ENDSEC
  0
SECTION
  2
CLASSES
  0
CLASS
  1
ACDBDICTIONARYWDFLT
  2
AcDbDictionaryWithDefault
  3
ObjectDBX Classes
 90
        0
280
     0
281
     0
  0
CLASS
  1
ACDBPLACEHOLDER
  2
AcDbPlaceHolder
  3
ObjectDBX Classes
 90
        0
280
     0
281
     0
  0
CLASS
  1
LAYOUT
  2
AcDbLayout
  3
ObjectDBX Classes
 90
        0
280
     0
281
     0
  0
ENDSEC
  0
SECTION
  2
TABLES
  0
TABLE
  2
VPORT
  5
8
330
0
100
AcDbSymbolTable
 70
     1
  0
VPORT
  5
29
330
8
100
AcDbSymbolTableRecord
100
AcDbViewportTableRecord
  2
*Active
 70
     0
 10
0.0
 20
0.0
 11
1.0
 21
1.0
 12
594.5
 22
420.5
 13
0.0
 23
0.0
 14
10.0
 24
10.0
 15
10.0
 25
10.0
 16
0.0
 26
0.0
 36
1.0
 17
0.0
 27
0.0
 37
0.0
 40
841.0
 41
1.4137931034
 42
50.0
 43
0.0
 44
0.0
 50
0.0
 51
0.0
 71
     0
 72
  2000
 73
     1
 74
     3
 75
     0
 76
     0
 77
     0
 78
     0
281
     0
 65
     1
110
0.0
120
0.0
130
0.0
111
1.0
121
0.0
131
0.0
112
0.0
122
1.0
132
0.0
 79
     0
146
0.0
  0
ENDTAB
  0
TABLE
  2
LTYPE
  5
5
330
0
100
AcDbSymbolTable
 70
     6
  0
LTYPE
  5
14
330
5
100
AcDbSymbolTableRecord
100
AcDbLinetypeTableRecord
  2
ByBlock
 70
     0
  3

 72
    65
 73
     0
 40
0.0
  0
LTYPE
  5
15
330
5
100
AcDbSymbolTableRecord
100
AcDbLinetypeTableRecord
  2
ByLayer
 70
     0
  3

 72
    65
 73
     0
 40
0.0
  0
LTYPE
  5
16
330
5
100
AcDbSymbolTableRecord
100
AcDbLinetypeTableRecord
  2
Continuous
 70
     0
  3
Solid line
 72
    65
 73
     0
 40
0.0
  0
LTYPE
  5
2A
330
5
100
AcDbSymbolTableRecord
100
AcDbLinetypeTableRecord
  2
HIDDEN
 70
     0
  3
Hidden __ __ __ __ __ __ __ __ __ __ __ __ __ __
 72
    65
 73
     2
 40
1.905
 49
1.27
 74
     0
 49
-0.635
 74
     0
  0
LTYPE
  5
2B
330
5
100
AcDbSymbolTableRecord
100
AcDbLinetypeTableRecord
  2
PHANTOM
 70
     0
  3
Phantom ______  __  __  ______  __  __  ______
 72
    65
 73
     6
 40
12.7
 49
6.35
 74
     0
 49
-1.27
 74
     0
 49
1.27
 74
     0
 49
-1.27
 74
     0
 49
1.27
 74
     0
 49
-1.27
 74
     0
  0
LTYPE
  5
2C
330
5
100
AcDbSymbolTableRecord
100
AcDbLinetypeTableRecord
  2
CENTER
 70
     0
  3
Center ____ _ ____ _ ____ _ ____ _ ____ _ ____
 72
    65
 73
     4
 40
10.16
 49
6.35
 74
     0
 49
-1.27
 74
     0
 49
1.27
 74
     0
 49
-1.27
 74
     0
  0
LTYPE
  5
2D
330
5
100
AcDbSymbolTableRecord
100
AcDbLinetypeTableRecord
  2
CENTERX2
 70
     0
  3
Center (2x) ________  __  ________  __  _____
 72
    65
 73
     4
 40
20.32
 49
12.7
 74
     0
 49
-2.54
 74
     0
 49
2.54
 74
     0
 49
-2.54
 74
     0
  0
LTYPE
  5
2E
330
5
100
AcDbSymbolTableRecord
100
AcDbLinetypeTableRecord
  2
DOT2
 70
     0
  3
Dot (.5x) ........................................
 72
    65
 73
     2
 40
0.635
 49
0.0
 74
     0
 49
-0.635
 74
     0
  0
ENDTAB
  0
TABLE
  2
LAYER
  5
2
330
0
100
AcDbSymbolTable
 70
     2
  0
LAYER
  5
10
330
2
100
AcDbSymbolTableRecord
100
AcDbLayerTableRecord
  2
0
 70
     0
 62
     7
  6
Continuous
370
    -3
390
F
  0
LAYER
  5
2F
330
2
100
AcDbSymbolTableRecord
100
AcDbLayerTableRecord
  2
FORMAT
 70
     0
 62
     7
  6
Continuous
370
    -3
390
F
  0
ENDTAB
  0
TABLE
  2
STYLE
  5
3
330
0
100
AcDbSymbolTable
 70
     1
  0
STYLE
  5
11
330
3
100
AcDbSymbolTableRecord
100
AcDbTextStyleTableRecord
  2
Standard
 70
     0
 40
0.0
 41
1.0
 50
0.0
 71
     0
 42
2.5
  3
txt
  4

  0
ENDTAB
  0
TABLE
  2
VIEW
  5
6
330
0
100
AcDbSymbolTable
 70
     0
  0
ENDTAB
  0
TABLE
  2
UCS
  5
7
330
0
100
AcDbSymbolTable
 70
     0
  0
ENDTAB
  0
TABLE
  2
APPID
  5
9
330
0
100
AcDbSymbolTable
 70
     1
  0
APPID
  5
12
330
9
100
AcDbSymbolTableRecord
100
AcDbRegAppTableRecord
  2
ACAD
 70
     0
  0
ENDTAB
  0
TABLE
  2
DIMSTYLE
  5
A
330
0
100
AcDbSymbolTable
 70
     1
100
AcDbDimStyleTable
  0
DIMSTYLE
105
27
330
A
100
AcDbSymbolTableRecord
100
AcDbDimStyleTableRecord
  2
ISO-25
 70
     0
 41
2.5
 42
0.625
 43
3.75
 44
1.25
 73
     0
 74
     0
 77
     1
 78
     8
140
2.5
141
2.5
143
0.0393700787
147
0.625
171
     3
172
     1
271
     2
272
     2
274
     3
278
    44
283
     0
284
     8
340
11
  0
ENDTAB
  0
TABLE
  2
BLOCK_RECORD
  5
1
330
0
100
AcDbSymbolTable
 70
     1
  0
BLOCK_RECORD
  5
1F
330
1
100
AcDbSymbolTableRecord
100
AcDbBlockTableRecord
  2
*Model_Space
340
22
  0
BLOCK_RECORD
  5
1B
330
1
100
AcDbSymbolTableRecord
100
AcDbBlockTableRecord
  2
*Paper_Space
340
1E
  0
BLOCK_RECORD
  5
23
330
1
100
AcDbSymbolTableRecord
100
AcDbBlockTableRecord
  2
*Paper_Space0
340
26
  0
ENDTAB
  0
ENDSEC
  0
SECTION
  2
BLOCKS
  0
BLOCK
  5
20
330
1F
100
AcDbEntity
  8
0
100
AcDbBlockBegin
  2
*Model_Space
 70
     0
 71
     0
 10
0.0
 20
0.0
 30
0.0
  3
*Model_Space
  1

  0
ENDBLK
  5
21
330
1F
100
AcDbEntity
  8
0
100
AcDbBlockEnd
  0
BLOCK
  5
1C
330
1B
100
AcDbEntity
 67
     1
  8
0
100
AcDbBlockBegin
  2
*Paper_Space
 70
     0
 71
     0
 10
0.0
 20
0.0
 30
0.0
  3
*Paper_Space
  1

  0
ENDBLK
  5
1D
330
1B
100
AcDbEntity
 67
     1
  8
0
100
AcDbBlockEnd
  0
BLOCK
  5
24
330
23
100
AcDbEntity
  8
0
100
AcDbBlockBegin
  2
*Paper_Space0
 70
     0
 71
     0
 10
0.0
 20
0.0
 30
0.0
  3
*Paper_Space0
  1

  0
ENDBLK
  5
25
330
23
100
AcDbEntity
  8
0
100
AcDbBlockEnd
  0
ENDSEC
  0
SECTION
  2
ENTITIES
  0
LINE
  5
30
330
1F
100
AcDbEntity
  8
0
  6
Continuous
 62
     7
370
    15
100
AcDbLine
 10
595.0515976918
 20
795.2116180552
 30
0.0
 11
595.0515976918
 21
798.7116027964
 31
0.0
  0
LINE
  5
31
330
1F
100
AcDbEntity
  8
0
  6
Continuous
 62
     7
370
    15
100
AcDbLine
 10
556.5515979004
 20
798.7116027964
 30
0.0
 11
556.5515979004
 21
795.2116180552
 31
0.0
  0
LINE
  5
32
330
1F
100
AcDbEntity
  8
0
  6
Continuous
 62
     7
370
    15
100
AcDbLine
 10
595.0515976918
 20
798.7116027964
 30
0.0
 11
592.1515970302
 21
801.6116071833
 31
0.0
  0
LINE
  5
33
330
1F
100
AcDbEntity
  8
0
  6
Continuous
 62
     7
370
    15
100
AcDbLine
 10
559.4515985621
 20
801.6116071833
 30
0.0
 11
556.5515979004
 21
798.7116027964
 31
0.0
  0
LINE
  5
34
330
1F
100
AcDbEntity
  8
0
  6
Continuous
 62
     7
370
    15
100
AcDbLine
 10
588.3015979824
 20
793.5116041793
 30
0.0
 11
588.3015979824
 21
794.2116011275
 31
0.0
  0
LINE
  5
35
330
1F
100
AcDbEntity
  8
0
  6
Continuous
 62
     7
370
    15
100
AcDbLine
 10
563.3015976099
 20
794.2116011275
 30
0.0
 11
563.3015976099
 21
793.5116041793
 31
0.0
  0
LINE
  5
36
330
1F
100
AcDbEntity
  8
0
  6
Continuous
 62
     7
370
    15
100
AcDbLine
 10
563.3165974913
 20
794.6116078986
 30
0.0
 11
563.3165974913
 21
794.2116011275
 31
0.0
  0
LINE
  5
37
330
1F
100
AcDbEntity
  8
0
  6
Continuous
 62
     7
370
    15
100
AcDbLine
 10
588.286598101
 20
794.2116011275
 30
0.0
 11
588.286598101
 21
794.6116078986
 31
0.0
  0
LINE
  5
38
330
1F
100
AcDbEntity
  8
0
  6
Continuous
 62
     7
370
    15
100
AcDbLine
 10
587.6515981553
 20
794.6116078986
 30
0.0
 11
587.6515981553
 21
795.2116180552
 31
0.0
  0
LINE
  5
39
330
1F
100
AcDbEntity
  8
0
  6
Continuous
 62
     7
370
    15
100
AcDbLine
 10
563.951597437
 20
795.2116180552
 30
0.0
 11
563.951597437
 21
794.6116078986
 31
0.0
  0
LINE
  5
3A
330
1F
100
AcDbEntity
  8
0
  6
Continuous
 62
     7
370
    15
100
AcDbLine
 10
446.589352451
 20
750.611608137
 30
0.0
 11
446.3015961272
 21
750.1116145743
 31
0.0
  0
LINE
  5
3B
330
1F
100
AcDbEntity
  8
0
  6
Continuous
 62
     7
370
    15
100
AcDbLine
 10
446.3015961272
 20
735.1115990771
 30
0.0
 11
446.589352451
 21
734.6116055144
 31
0.0
  0
LINE
  5
3C
330
1F
100
AcDbEntity
  8
0
  6
Continuous
 62
     7
370
    15
100
AcDbLine
 10
705.0138431413
 20
734.6116055144
 30
0.0
 11
705.3015994651
 21
735.1115990771
 31
0.0
  0
LINE
  5
3D
330
1F
100
AcDbEntity
  8
0
  6
Continuous
 62
     7
370
    15
100
AcDbLine
 10
705.3015994651
 20
750.1116145743
 30
0.0
 11
705.0138431413
 21
750.611608137
 31
0.0
  0
LINE
  5
3E
330
1F
100
AcDbEntity
  8
0
  6
Continuous
 62
     7
370
    15
100
AcDbLine
 10
454.0138485653
 20
734.6116055144
 30
0.0
 11
454.3015974385
 21
735.1115990771
 31
0.0
  0
LINE
  5
3F
330
1F
100
AcDbEntity
  8
0
  6
Continuous
 62
     7
370
    15
100
AcDbLine
 10
454.3015974385
 20
750.1116145743
 30
0.0
 11
454.0138485653
 21
750.611608137
 31
0.0
  0
LINE
  5
40
330
1F
100
AcDbEntity
  8
0
  6
Continuous
 62
     7
370
    15
100
AcDbLine
 10
697.589347027
 20
750.611608137
 30
0.0
 11
697.3015981538
 21
750.1116145743
 31
0.0
  0
LINE
  5
41
330
1F
100
AcDbEntity
  8
0
  6
Continuous
 62
     7
370
    15
100
AcDbLine
 10
697.3015981538
 20
735.1115990771
 30
0.0
 11
697.589347027
 21
734.6116055144
 31
0.0
  0
LINE
  5
42
330
1F
100
AcDbEntity
  8
0
  6
Continuous
 62
     7
370
    15
100
AcDbLine
 10
446.3015961272
 20
747.6116169585
 30
0.0
 11
444.5015954596
 21
747.6116169585
 31
0.0
  0
LINE
  5
43
330
1F
100
AcDbEntity
  8
0
  6
Continuous
 62
     7
370
    15
100
AcDbLine
 10
444.5015954596
 20
737.6115966929
 30
0.0
 11
446.3015961272
 21
737.6115966929
 31
0.0
  0
LINE
  5
44
330
1F
100
AcDbEntity
  8
0
  6
Continuous
 62
     7
370
    15
100
AcDbLine
 10
444.5015954596
 20
747.6116169585
 30
0.0
 11
444.0016018969
 21
747.1116233958
 31
0.0
  0
LINE
  5
45
330
1F
100
AcDbEntity
  8
0
  6
Continuous
 62
     7
370
    15
100
AcDbLine
 10
444.0016018969
 20
738.1116200579
 30
0.0
 11
444.5015954596
 21
737.6115966929
 31
0.0
  0
LINE
  5
46
330
1F
100
AcDbEntity
  8
0
  6
Continuous
 62
     7
370
    15
100
AcDbLine
 10
705.3015994651
 20
737.6115966929
 30
0.0
 11
707.1016001326
 21
737.6115966929
 31
0.0
  0
LINE
  5
47
330
1F
100
AcDbEntity
  8
0
  6
Continuous
 62
     7
370
    15
100
AcDbLine
 10
707.1016001326
 20
747.6116169585
 30
0.0
 11
705.3015994651
 21
747.6116169585
 31
0.0
  0
LINE
  5
48
330
1F
100
AcDbEntity
  8
0
  6
Continuous
 62
     7
370
    15
100
AcDbLine
 10
707.1016001326
 20
737.6115966929
 30
0.0
 11
707.6015936953
 21
738.111620058
 31
0.0
  0
LINE
  5
49
330
1F
100
AcDbEntity
  8
0
  6
Continuous
 62
     7
370
    15
100
AcDbLine
 10
707.6015936953
 20
747.1116233958
 30
0.0
 11
707.1016001326
 21
747.6116169585
 31
0.0
  0
LINE
  5
4A
330
1F
100
AcDbEntity
  8
0
  6
Continuous
 62
     7
370
    15
100
AcDbLine
 10
595.8015973491
 20
618.9616073264
 30
0.0
 11
595.8015973491
 21
679.5116115702
 31
0.0
  0
LINE
  5
4B
330
1F
100
AcDbEntity
  8
0
  6
Continuous
 62
     7
370
    15
100
AcDbLine
 10
555.8015982432
 20
679.5116115702
 30
0.0
 11
555.8015982432
 21
618.9616073264
 31
0.0
  0
LINE
  5
4C
330
1F
100
AcDbEntity
  8
0
  6
Continuous
 62
     7
370
    15
100
AcDbLine
 10
556.4015972239
 20
248.0616171254
 30
0.0
 11
560.4015978796
 21
244.0616090192
 31
0.0
  0
LINE
  5
4D
330
1F
100
AcDbEntity
  8
0
  6
Continuous
 62
     7
370
    15
100
AcDbLine
 10
591.2015977127
 20
244.0616090192
 30
0.0
 11
595.2015983683
 21
248.0616171254
 31
0.0
  0
LINE
  5
4E
330
1F
100
AcDbEntity
  8
0
  6
Continuous
 62
     7
370
    15
100
AcDbLine
 10
595.2015983683
 20
248.0616171254
 30
0.0
 11
595.2015983683
 21
251.5616167678
 31
0.0
  0
LINE
  5
4F
330
1F
100
AcDbEntity
  8
0
  6
Continuous
 62
     7
370
    15
100
AcDbLine
 10
556.4015972239
 20
251.5616167678
 30
0.0
 11
556.4015972239
 21
248.0616171254
 31
0.0
  0
LINE
  5
50
330
1F
100
AcDbEntity
  8
0
  6
Continuous
 62
     7
370
    15
100
AcDbLine
 10
591.701598726
 20
251.5616167678
 30
0.0
 11
589.7015974668
 21
253.5616059197
 31
0.0
  0
LINE
  5
51
330
1F
100
AcDbEntity
  8
0
  6
Continuous
 62
     7
370
    15
100
AcDbLine
 10
561.9015981255
 20
253.5616059197
 30
0.0
 11
559.9015968663
 21
251.5616167678
 31
0.0
  0
LINE
  5
52
330
1F
100
AcDbEntity
  8
0
  6
Continuous
 62
     7
370
    15
100
AcDbLine
 10
563.3015976099
 20
553.8850400938
 30
0.0
 11
563.3015976099
 21
553.3325646414
 31
0.0
  0
LINE
  5
53
330
1F
100
AcDbEntity
  8
0
  6
Continuous
 62
     7
370
    15
100
AcDbLine
 10
588.3015979824
 20
553.3325646414
 30
0.0
 11
588.3015979824
 21
553.8850400938
 31
0.0
  0
LINE
  5
54
330
1F
100
AcDbEntity
  8
0
  6
Continuous
 62
     7
370
    15
100
AcDbLine
 10
588.3015979824
 20
305.1381830467
 30
0.0
 11
588.3015979824
 21
305.6906584991
 31
0.0
  0
LINE
  5
55
330
1F
100
AcDbEntity
  8
0
  6
Continuous
 62
     7
370
    15
100
AcDbLine
 10
563.3015976099
 20
305.6906584991
 30
0.0
 11
563.3015976099
 21
305.1381830467
 31
0.0
  0
LINE
  5
56
330
1F
100
AcDbEntity
  8
0
  6
Continuous
 62
     7
370
    15
100
AcDbLine
 10
567.8015974162
 20
305.0616134299
 30
0.0
 11
567.8015974162
 21
304.7678742899
 31
0.0
  0
LINE
  5
57
330
1F
100
AcDbEntity
  8
0
  6
Continuous
 62
     7
370
    15
100
AcDbLine
 10
567.8015974162
 20
254.5116145505
 30
0.0
 11
567.8015974162
 21
253.5616059197
 31
0.0
  0
LINE
  5
58
330
1F
100
AcDbEntity
  8
0
  6
Continuous
 62
     7
370
    15
100
AcDbLine
 10
583.8015981761
 20
253.5616059197
 30
0.0
 11
583.8015981761
 21
254.5116145505
 31
0.0
  0
LINE
  5
59
330
1F
100
AcDbEntity
  8
0
  6
Continuous
 62
     7
370
    15
100
AcDbLine
 10
583.8015981761
 20
304.7678742899
 30
0.0
 11
583.8015981761
 21
305.0616134299
 31
0.0
  0
LINE
  5
5A
330
1F
100
AcDbEntity
  8
0
  6
Continuous
 62
     7
370
    15
100
AcDbLine
 10
583.8015981761
 20
553.9616097106
 30
0.0
 11
583.8015981761
 21
554.2553488506
 31
0.0
  0
LINE
  5
5B
330
1F
100
AcDbEntity
  8
0
  6
Continuous
 62
     7
370
    15
100
AcDbLine
 10
583.8015981761
 20
609.5116187228
 30
0.0
 11
583.8015981761
 21
618.9616073264
 31
0.0
  0
LINE
  5
5C
330
1F
100
AcDbEntity
  8
0
  6
Continuous
 62
     7
370
    15
100
AcDbLine
 10
567.8015974162
 20
618.9616073264
 30
0.0
 11
567.8015974162
 21
609.5116187228
 31
0.0
  0
LINE
  5
5D
330
1F
100
AcDbEntity
  8
0
  6
Continuous
 62
     7
370
    15
100
AcDbLine
 10
567.8015974162
 20
554.2553488506
 30
0.0
 11
567.8015974162
 21
553.9616097106
 31
0.0
  0
ARC
  5
5E
330
1F
100
AcDbEntity
  8
0
  6
Continuous
 62
     7
370
    15
100
AcDbCircle
 10
531.9266432199
 20
675.1116115702
 30
0.0
 40
2.00000000000007
100
AcDbArc
 50
197.354016184
 51
270.0
  0
ARC
  5
5F
330
1F
100
AcDbEntity
  8
0
  6
Continuous
 62
     7
370
    15
100
AcDbCircle
 10
547.5565523724
 20
675.1116115702
 30
0.0
 40
2.000000000000069
100
AcDbArc
 50
270.0
 51
319.8344135512
  0
LINE
  5
60
330
1F
100
AcDbEntity
  8
0
  6
Continuous
 62
     7
370
    15
100
AcDbLine
 10
549.4433211905
 20
674.4482118977
 30
0.0
 11
549.4660808516
 21
674.5168764485
 31
0.0
  0
LINE
  5
61
330
1F
100
AcDbEntity
  8
0
  6
Continuous
 62
     7
370
    15
100
AcDbLine
 10
531.2415974957
 20
679.5116115702
 30
0.0
 11
531.2415974957
 21
679.1116047992
 31
0.0
  0
LINE
  5
62
330
1F
100
AcDbEntity
  8
0
  6
Continuous
 62
     7
370
    15
100
AcDbLine
 10
548.2415984196
 20
679.1116047992
 30
0.0
 11
548.2415984196
 21
679.5116115702
 31
0.0
  0
LWPOLYLINE
  5
63
330
1F
100
AcDbEntity
  8
0
  6
Continuous
 62
     7
370
    15
100
AcDbPolyline
 90
        3
 70
   128
 43
0.0
 10
529.9405920131
 20
674.8758156194
 10
530.0158242506
 20
674.5210487737
 10
530.0176831705
 20
674.5150585069
  0
ARC
  5
64
330
1F
100
AcDbEntity
  8
0
  6
Continuous
 62
     7
370
    15
100
AcDbCircle
 10
604.0466432199
 20
675.1116115702
 30
0.0
 40
2.0
100
AcDbArc
 50
215.793106642
 51
270.0
  0
ARC
  5
65
330
1F
100
AcDbEntity
  8
0
  6
Continuous
 62
     7
370
    15
100
AcDbCircle
 10
619.6765523724
 20
675.1116115702
 30
0.0
 40
2.0
100
AcDbArc
 50
270.0
 51
323.2270058138
  0
LWPOLYLINE
  5
66
330
1F
100
AcDbEntity
  8
0
  6
Continuous
 62
     7
370
    15
100
AcDbPolyline
 90
        3
 70
   128
 43
0.0
 10
621.5642559153
 20
674.4508792056
 10
621.6587479038
 20
674.8453427447
 10
621.6713989896
 20
675.2550799741
  0
LINE
  5
67
330
1F
100
AcDbEntity
  8
0
  6
Continuous
 62
     7
370
    15
100
AcDbLine
 10
603.3615971727
 20
679.5116115702
 30
0.0
 11
603.3615971727
 21
679.1116047992
 31
0.0
  0
LINE
  5
68
330
1F
100
AcDbEntity
  8
0
  6
Continuous
 62
     7
370
    15
100
AcDbLine
 10
620.3615980965
 20
679.1116047992
 30
0.0
 11
620.3615980965
 21
679.5116115702
 31
0.0
  0
LWPOLYLINE
  5
69
330
1F
100
AcDbEntity
  8
0
  6
Continuous
 62
     7
370
    15
100
AcDbPolyline
 90
        3
 70
   128
 43
0.0
 10
546.355984993
 20
613.2975865496
 10
546.3136321676
 20
613.0762745036
 10
546.2960450721
 20
612.8116149796
  0
ARC
  5
6A
330
1F
100
AcDbEntity
  8
0
  6
Continuous
 62
     7
370
    15
100
AcDbCircle
 10
603.3071512956
 20
612.8116115702
 30
0.0
 40
2.0
100
AcDbArc
 50
34.3297726759
 51
90.0
  0
ARC
  5
6B
330
1F
100
AcDbEntity
  8
0
  6
Continuous
 62
     7
370
    15
100
AcDbCircle
 10
592.2960442967
 20
612.8116115702
 30
0.0
 40
2.0
100
AcDbArc
 50
90.0
 51
145.5529438572
  0
ARC
  5
6C
330
1F
100
AcDbEntity
  8
0
  6
Continuous
 62
     7
370
    15
100
AcDbCircle
 10
592.2960442967
 20
612.8116115702
 30
0.0
 40
1.999999999999961
100
AcDbArc
 50
160.5218639187
 51
184.1666471768
  0
LINE
  5
6D
330
1F
100
AcDbEntity
  8
0
  6
Continuous
 62
     7
370
    15
100
AcDbLine
 10
604.301597811
 20
609.5116187228
 30
0.0
 11
604.301597811
 21
609.9116105927
 31
0.0
  0
LINE
  5
6E
330
1F
100
AcDbEntity
  8
0
  6
Continuous
 62
     7
370
    15
100
AcDbLine
 10
591.3015975428
 20
609.9116105927
 30
0.0
 11
591.3015975428
 21
609.5116187228
 31
0.0
  0
LINE
  5
6F
330
1F
100
AcDbEntity
  8
0
  6
Continuous
 62
     7
370
    15
100
AcDbLine
 10
561.24919828
 20
613.2895846261
 30
0.0
 11
561.1521041763
 21
613.5837186469
 31
0.0
  0
ARC
  5
70
330
1F
100
AcDbEntity
  8
0
  6
Continuous
 62
     7
370
    15
100
AcDbCircle
 10
559.3071512956
 20
612.8116115702
 30
0.0
 40
2.0
100
AcDbArc
 50
35.5577069742
 51
90.0
  0
ARC
  5
71
330
1F
100
AcDbEntity
  8
0
  6
Continuous
 62
     7
370
    15
100
AcDbCircle
 10
548.2960442967
 20
612.8116115702
 30
0.0
 40
2.000000000000044
100
AcDbArc
 50
90.0
 51
165.9370840711
  0
LINE
  5
72
330
1F
100
AcDbEntity
  8
0
  6
Continuous
 62
     7
370
    15
100
AcDbLine
 10
560.3015980495
 20
609.5116187228
 30
0.0
 11
560.3015980495
 21
609.9116105927
 31
0.0
  0
LINE
  5
73
330
1F
100
AcDbEntity
  8
0
  6
Continuous
 62
     7
370
    15
100
AcDbLine
 10
547.3015977812
 20
609.9116105927
 30
0.0
 11
547.3015977812
 21
609.5116187228
 31
0.0
  0
CIRCLE
  5
74
330
1F
100
AcDbEntity
  8
0
  6
Continuous
 62
     7
370
    15
100
AcDbCircle
 10
599.8015977961
 20
709.2116115702
 30
0.0
 40
2.0
  0
CIRCLE
  5
75
330
1F
100
AcDbEntity
  8
0
  6
Continuous
 62
     7
370
    15
100
AcDbCircle
 10
575.8015977961
 20
723.5116115702
 30
0.0
 40
4.300000000000182
  0
LINE
  5
76
330
1F
100
AcDbEntity
  8
0
  6
Continuous
 62
     7
370
    15
100
AcDbLine
 10
463.3016007764
 20
745.5626178874
 30
0.0
 11
688.3015948159
 21
745.5626178874
 31
0.0
  0
LINE
  5
77
330
1F
100
AcDbEntity
  8
0
  6
Continuous
 62
     7
370
    15
100
AcDbLine
 10
688.3015948159
 20
705.260609497
 30
0.0
 11
463.3016007764
 21
705.260609497
 31
0.0
  0
CIRCLE
  5
78
330
1F
100
AcDbEntity
  8
0
  6
Continuous
 62
     7
370
    15
100
AcDbCircle
 10
599.8015977961
 20
726.9116115702
 30
0.0
 40
4.299999999999955
  0
CIRCLE
  5
79
330
1F
100
AcDbEntity
  8
0
  6
Continuous
 62
     7
370
    15
100
AcDbCircle
 10
587.8015977961
 20
709.2116115702
 30
0.0
 40
2.0
  0
CIRCLE
  5
7A
330
1F
100
AcDbEntity
  8
0
  6
Continuous
 62
     7
370
    15
100
AcDbCircle
 10
587.8015977961
 20
741.2116115702
 30
0.0
 40
2.000000000000114
  0
CIRCLE
  5
7B
330
1F
100
AcDbEntity
  8
0
  6
Continuous
 62
     7
370
    15
100
AcDbCircle
 10
575.8015977961
 20
741.2116115702
 30
0.0
 40
2.0
  0
LINE
  5
7C
330
1F
100
AcDbEntity
  8
0
  6
Continuous
 62
     7
370
    15
100
AcDbLine
 10
688.3015948159
 20
745.5626178874
 30
0.0
 11
688.3015948159
 21
705.260609497
 31
0.0
  0
LINE
  5
7D
330
1F
100
AcDbEntity
  8
0
  6
Continuous
 62
     7
370
    15
100
AcDbLine
 10
463.3016007764
 20
745.5626178874
 30
0.0
 11
463.3016007764
 21
705.260609497
 31
0.0
  0
LINE
  5
7E
330
1F
100
AcDbEntity
  8
0
  6
Continuous
 62
     7
370
    15
100
AcDbLine
 10
463.3016007764
 20
702.2720326079
 30
0.0
 11
688.3015948159
 21
702.2720326079
 31
0.0
  0
LINE
  5
7F
330
1F
100
AcDbEntity
  8
0
  6
Continuous
 62
     7
370
    15
100
AcDbLine
 10
688.3015948159
 20
705.260609497
 30
0.0
 11
688.3015948159
 21
702.2720326079
 31
0.0
  0
LINE
  5
80
330
1F
100
AcDbEntity
  8
0
  6
Continuous
 62
     7
370
    15
100
AcDbLine
 10
463.3016007764
 20
705.260609497
 30
0.0
 11
463.3016007764
 21
702.2720326079
 31
0.0
  0
LINE
  5
81
330
1F
100
AcDbEntity
  8
0
  6
Continuous
 62
     7
370
    15
100
AcDbLine
 10
688.3015948159
 20
748.5511947764
 30
0.0
 11
463.3016007764
 21
748.5511947764
 31
0.0
  0
LINE
  5
82
330
1F
100
AcDbEntity
  8
0
  6
Continuous
 62
     7
370
    15
100
AcDbLine
 10
688.3015948159
 20
748.5511947764
 30
0.0
 11
688.3015948159
 21
745.5626178874
 31
0.0
  0
LINE
  5
83
330
1F
100
AcDbEntity
  8
0
  6
Continuous
 62
     7
370
    15
100
AcDbLine
 10
463.3016007764
 20
748.5511947764
 30
0.0
 11
463.3016007764
 21
745.5626178874
 31
0.0
  0
LINE
  5
84
330
1F
100
AcDbEntity
  8
0
  6
Continuous
 62
     7
370
    15
100
AcDbLine
 10
688.3015948159
 20
748.6597050322
 30
0.0
 11
463.3016007764
 21
748.6597050322
 31
0.0
  0
LINE
  5
85
330
1F
100
AcDbEntity
  8
0
  6
Continuous
 62
     7
370
    15
100
AcDbLine
 10
688.3015948159
 20
748.5511947764
 30
0.0
 11
688.3015948159
 21
748.6597050322
 31
0.0
  0
LINE
  5
86
330
1F
100
AcDbEntity
  8
0
  6
Continuous
 62
     7
370
    15
100
AcDbLine
 10
463.3016007764
 20
748.6597050322
 30
0.0
 11
463.3016007764
 21
748.5511947764
 31
0.0
  0
LINE
  5
87
330
1F
100
AcDbEntity
  8
0
  6
Continuous
 62
     7
370
    15
100
AcDbLine
 10
463.3016007764
 20
702.0512272014
 30
0.0
 11
688.3015948159
 21
702.0512272014
 31
0.0
  0
LINE
  5
88
330
1F
100
AcDbEntity
  8
0
  6
Continuous
 62
     7
370
    15
100
AcDbLine
 10
688.3015948159
 20
702.2720326079
 30
0.0
 11
688.3015948159
 21
702.0512272014
 31
0.0
  0
LINE
  5
89
330
1F
100
AcDbEntity
  8
0
  6
Continuous
 62
     7
370
    15
100
AcDbLine
 10
463.3016007764
 20
702.2720326079
 30
0.0
 11
463.3016007764
 21
702.0512272014
 31
0.0
  0
LINE
  5
8A
330
1F
100
AcDbEntity
  8
0
  6
Continuous
 62
     7
370
    15
100
AcDbLine
 10
463.3016007764
 20
752.4581004275
 30
0.0
 11
688.3015948159
 21
752.4581004275
 31
0.0
  0
LINE
  5
8B
330
1F
100
AcDbEntity
  8
0
  6
Continuous
 62
     7
370
    15
100
AcDbLine
 10
688.3015948159
 20
752.4581004275
 30
0.0
 11
688.3015948159
 21
748.6597050322
 31
0.0
  0
LINE
  5
8C
330
1F
100
AcDbEntity
  8
0
  6
Continuous
 62
     7
370
    15
100
AcDbLine
 10
463.3016007764
 20
752.4581004275
 30
0.0
 11
463.3016007764
 21
748.6597050322
 31
0.0
  0
LINE
  5
8D
330
1F
100
AcDbEntity
  8
0
  6
Continuous
 62
     7
370
    15
100
AcDbLine
 10
463.3016007764
 20
697.5272346629
 30
0.0
 11
688.3015948159
 21
697.5272346629
 31
0.0
  0
LINE
  5
8E
330
1F
100
AcDbEntity
  8
0
  6
Continuous
 62
     7
370
    15
100
AcDbLine
 10
688.3015948159
 20
702.0512272014
 30
0.0
 11
688.3015948159
 21
697.5272346629
 31
0.0
  0
LINE
  5
8F
330
1F
100
AcDbEntity
  8
0
  6
Continuous
 62
     7
370
    15
100
AcDbLine
 10
463.3016007764
 20
702.0512272014
 30
0.0
 11
463.3016007764
 21
697.5272346629
 31
0.0
  0
LINE
  5
90
330
1F
100
AcDbEntity
  8
0
  6
Continuous
 62
     7
370
    15
100
AcDbLine
 10
456.3016014916
 20
768.0703152312
 30
0.0
 11
456.3016014916
 21
730.7253230704
 31
0.0
  0
ARC
  5
91
330
1F
100
AcDbEntity
  8
0
  6
Continuous
 62
     7
370
    15
100
AcDbCircle
 10
455.8056005389
 20
736.5070015281
 30
0.0
 40
5.802915020303221
100
AcDbArc
 50
254.9785515279
 51
274.9033079759
  0
SPLINE
  5
92
330
1F
100
AcDbEntity
  8
0
  6
Continuous
 62
     7
370
    15
100
AcDbSpline
210
0.0
220
0.0
230
1.0
 70
    24
 71
     3
 72
    12
 73
     8
 74
     0
 42
0.00000001
 43
0.00000001
 40
0.0
 40
0.0
 40
0.0
 40
0.0
 40
0.2486135513377302
 40
0.4998770708268755
 40
0.6674295974854964
 40
0.8341996674924512
 40
1.0
 40
1.0
 40
1.0
 40
1.0
 10
454.3015974385136
 20
767.1241809023707
 30
0.0
 10
454.3015974385136
 20
764.3243710741361
 30
0.0
 10
454.3015974385136
 20
758.6949082862891
 30
0.0
 10
454.3015974385135
 20
750.6058444465943
 30
0.0
 10
454.3015974385137
 20
743.3731536595793
 30
0.0
 10
454.3015974385137
 20
737.1210447073739
 30
0.0
 10
454.3015974385137
 20
732.9712338886886
 30
0.0
 10
454.3015974385137
 20
730.9023786677211
 30
0.0
  0
LWPOLYLINE
  5
93
330
1F
100
AcDbEntity
  8
0
  6
Continuous
 62
     7
370
    15
100
AcDbPolyline
 90
        9
 70
   128
 43
0.0
 10
454.3015974385
 20
767.1241809024
 10
454.3400275332
 20
767.3087764872
 10
454.4538351519
 20
767.4862493171
 10
454.6386617047
 20
767.6498342646
 10
454.8873844368
 20
767.7932132377
 10
455.1904591543
 20
767.9108728064
 10
455.5362331492
 20
767.9983128203
 10
455.9114145858
 20
768.0521358146
 10
456.3016014916
 20
768.0703152312
  0
LWPOLYLINE
  5
94
330
1F
100
AcDbEntity
  8
0
  6
Continuous
 62
     7
370
    15
100
AcDbPolyline
 90
        9
 70
   128
 43
0.0
 10
695.3015941007
 20
768.0703152312
 10
695.6917810065
 20
768.0521358146
 10
696.0669624431
 20
767.9983128203
 10
696.412736438
 20
767.9108728064
 10
696.7158111555
 20
767.7932132377
 10
696.9645338876
 20
767.6498342646
 10
697.1493604404
 20
767.4862493171
 10
697.2631680591
 20
767.3087764872
 10
697.3015981538
 20
767.1241809024
  0
SPLINE
  5
95
330
1F
100
AcDbEntity
  8
0
  6
Continuous
 62
     7
370
    15
100
AcDbSpline
210
0.0
220
0.0
230
1.0
 70
    24
 71
     3
 72
    11
 73
     7
 74
     0
 42
0.00000001
 43
0.00000001
 40
0.0
 40
0.0
 40
0.0
 40
0.0
 40
0.2490490463418547
 40
0.5000002716651235
 40
0.7509511890315117
 40
1.0
 40
1.0
 40
1.0
 40
1.0
 10
697.3015981537694
 20
736.6116095675328
 30
0.0
 10
697.3015981537693
 20
739.250577345357
 30
0.0
 10
697.3015981537693
 20
744.5486687261867
 30
0.0
 10
697.3015981537693
 20
752.3775733395357
 30
0.0
 10
697.3015981537693
 20
759.999385377421
 30
0.0
 10
697.3015981537693
 20
764.7552798755665
 30
0.0
 10
697.3015981537693
 20
767.1241809023716
 30
0.0
  0
SPLINE
  5
96
330
1F
100
AcDbEntity
  8
0
  6
Continuous
 62
     7
370
    15
100
AcDbSpline
210
0.0
220
0.0
230
1.0
 70
    24
 71
     1
 72
     4
 73
     2
 74
     0
 42
0.00000001
 43
0.00000001
 40
0.0
 40
0.0
 40
1.0
 40
1.0
 10
697.3015981537694
 20
730.9023786677219
 30
0.0
 10
697.3015981537693
 20
736.6116095675327
 30
0.0
  0
ARC
  5
97
330
1F
100
AcDbEntity
  8
0
  6
Continuous
 62
     7
370
    15
100
AcDbCircle
 10
695.7975950534
 20
736.5070015281
 30
0.0
 40
5.802915020303195
100
AcDbArc
 50
265.0966920241
 51
285.0214484721
  0
LINE
  5
98
330
1F
100
AcDbEntity
  8
0
  6
Continuous
 62
     7
370
    15
100
AcDbLine
 10
695.3015941007
 20
730.7253230704
 30
0.0
 11
695.3015941007
 21
768.0703152312
 31
0.0
  0
LINE
  5
99
330
1F
100
AcDbEntity
  8
0
  6
Continuous
 62
     7
370
    15
100
AcDbLine
 10
456.3016014916
 20
768.0703152312
 30
0.0
 11
463.3016007764
 21
768.0703152312
 31
0.0
  0
LINE
  5
9A
330
1F
100
AcDbEntity
  8
0
  6
Continuous
 62
     7
370
    15
100
AcDbLine
 10
456.3016014916
 20
730.7253230704
 30
0.0
 11
463.3016007764
 21
730.7253230704
 31
0.0
  0
LINE
  5
9B
330
1F
100
AcDbEntity
  8
0
  6
Continuous
 62
     7
370
    15
100
AcDbLine
 10
695.3015941007
 20
768.0703152312
 30
0.0
 11
688.3015948159
 21
768.0703152312
 31
0.0
  0
LINE
  5
9C
330
1F
100
AcDbEntity
  8
0
  6
Continuous
 62
     7
370
    15
100
AcDbLine
 10
688.3015948159
 20
730.7253230704
 30
0.0
 11
695.3015941007
 21
730.7253230704
 31
0.0
  0
LINE
  5
9D
330
1F
100
AcDbEntity
  8
0
  6
Continuous
 62
     7
370
    15
100
AcDbLine
 10
697.3015981538
 20
687.6230884684
 30
0.0
 11
697.3015981538
 21
730.9023786677
 31
0.0
  0
ARC
  5
9E
330
1F
100
AcDbEntity
  8
0
  6
Continuous
 62
     7
370
    15
100
AcDbCircle
 10
695.7976816347
 20
693.2277064929
 30
0.0
 40
5.80288790999764
100
AcDbArc
 50
265.0958110443
 51
285.020635184
  0
LINE
  5
9F
330
1F
100
AcDbEntity
  8
0
  6
Continuous
 62
     7
370
    15
100
AcDbLine
 10
695.3015941007
 20
730.7253230704
 30
0.0
 11
695.3015941007
 21
687.4460626735
 31
0.0
  0
LINE
  5
A0
330
1F
100
AcDbEntity
  8
0
  6
Continuous
 62
     7
370
    15
100
AcDbLine
 10
456.3016014916
 20
730.7253230704
 30
0.0
 11
456.3016014916
 21
687.4460626735
 31
0.0
  0
ARC
  5
A1
330
1F
100
AcDbEntity
  8
0
  6
Continuous
 62
     7
370
    15
100
AcDbCircle
 10
455.8055139576
 20
693.2277064929
 30
0.0
 40
5.802887909997643
100
AcDbArc
 50
254.979364816
 51
274.9041889557
  0
LINE
  5
A2
330
1F
100
AcDbEntity
  8
0
  6
Continuous
 62
     7
370
    15
100
AcDbLine
 10
454.3015974385
 20
730.9023786677
 30
0.0
 11
454.3015974385
 21
687.6230884684
 31
0.0
  0
LINE
  5
A3
330
1F
100
AcDbEntity
  8
0
  6
Continuous
 62
     7
370
    15
100
AcDbLine
 10
456.3016014916
 20
687.4460626735
 30
0.0
 11
463.3016007764
 21
687.4460626735
 31
0.0
  0
LINE
  5
A4
330
1F
100
AcDbEntity
  8
0
  6
Continuous
 62
     7
370
    15
100
AcDbLine
 10
695.3015941007
 20
687.4460626735
 30
0.0
 11
688.3015948159
 21
687.4460626735
 31
0.0
  0
LINE
  5
A5
330
1F
100
AcDbEntity
  8
0
  6
Continuous
 62
     7
370
    15
100
AcDbLine
 10
688.3015948159
 20
768.2983924044
 30
0.0
 11
463.3016007764
 21
768.2983924044
 31
0.0
  0
LINE
  5
A6
330
1F
100
AcDbEntity
  8
0
  6
Continuous
 62
     7
370
    15
100
AcDbLine
 10
688.3015948159
 20
768.2983924044
 30
0.0
 11
688.3015948159
 21
752.4581004275
 31
0.0
  0
LINE
  5
A7
330
1F
100
AcDbEntity
  8
0
  6
Continuous
 62
     7
370
    15
100
AcDbLine
 10
463.3016007764
 20
768.2983924044
 30
0.0
 11
463.3016007764
 21
752.4581004275
 31
0.0
  0
LINE
  5
A8
330
1F
100
AcDbEntity
  8
0
  6
Continuous
 62
     7
370
    15
100
AcDbLine
 10
688.3015948159
 20
687.2374464167
 30
0.0
 11
463.3016007764
 21
687.2374464167
 31
0.0
  0
LINE
  5
A9
330
1F
100
AcDbEntity
  8
0
  6
Continuous
 62
     7
370
    15
100
AcDbLine
 10
688.3015948159
 20
697.5272346629
 30
0.0
 11
688.3015948159
 21
687.2374464167
 31
0.0
  0
LINE
  5
AA
330
1F
100
AcDbEntity
  8
0
  6
Continuous
 62
     7
370
    15
100
AcDbLine
 10
463.3016007764
 20
697.5272346629
 30
0.0
 11
463.3016007764
 21
687.2374464167
 31
0.0
  0
LINE
  5
AB
330
1F
100
AcDbEntity
  8
0
  6
Continuous
 62
     7
370
    15
100
AcDbLine
 10
463.3016007764
 20
684.5116068019
 30
0.0
 11
527.8015973789
 21
684.5116068019
 31
0.0
  0
LINE
  5
AC
330
1F
100
AcDbEntity
  8
0
  6
Continuous
 62
     7
370
    15
100
AcDbLine
 10
623.8015982134
 20
684.5116068019
 30
0.0
 11
688.3015948159
 21
684.5116068019
 31
0.0
  0
LINE
  5
AD
330
1F
100
AcDbEntity
  8
0
  6
Continuous
 62
     7
370
    15
100
AcDbLine
 10
688.3015948159
 20
687.2374464167
 30
0.0
 11
688.3015948159
 21
684.5116068019
 31
0.0
  0
LINE
  5
AE
330
1F
100
AcDbEntity
  8
0
  6
Continuous
 62
     7
370
    15
100
AcDbLine
 10
463.3016007764
 20
687.2374464167
 30
0.0
 11
463.3016007764
 21
684.5116068019
 31
0.0
  0
ARC
  5
AF
330
1F
100
AcDbEntity
  8
0
  6
Continuous
 62
     7
370
    15
100
AcDbCircle
 10
695.3015977961
 20
686.7116115702
 30
0.0
 40
2.0
100
AcDbArc
 50
270.0
 51
0.0
  0
LINE
  5
B0
330
1F
100
AcDbEntity
  8
0
  6
Continuous
 62
     7
370
    15
100
AcDbLine
 10
695.3015941007
 20
684.7116101874
 30
0.0
 11
695.3015941007
 21
687.4460626735
 31
0.0
  0
SPLINE
  5
B1
330
1F
100
AcDbEntity
  8
0
  6
Continuous
 62
     7
370
    15
100
AcDbSpline
210
0.0
220
0.0
230
1.0
 70
    24
 71
     3
 72
    11
 73
     7
 74
     0
 42
0.00000001
 43
0.00000001
 40
0.0
 40
0.0
 40
0.0
 40
0.0
 40
0.241219404529309
 40
0.5000035592601916
 40
0.7587836945087005
 40
1.0
 40
1.0
 40
1.0
 40
1.0
 10
697.3015981537695
 20
686.711614240537
 30
0.0
 10
697.3015981537695
 20
686.7240696637593
 30
0.0
 10
697.3015981537695
 20
686.7498874703966
 30
0.0
 10
697.3015981537695
 20
686.9573863623189
 30
0.0
 10
697.3015981537695
 20
687.261567934179
 30
0.0
 10
697.3015981537695
 20
687.5054371624202
 30
0.0
 10
697.3015981537695
 20
687.6230884684421
 30
0.0
  0
LINE
  5
B2
330
1F
100
AcDbEntity
  8
0
  6
Continuous
 62
     7
370
    15
100
AcDbLine
 10
456.3016014916
 20
687.4460626735
 30
0.0
 11
456.3016014916
 21
684.7116101874
 31
0.0
  0
ARC
  5
B3
330
1F
100
AcDbEntity
  8
0
  6
Continuous
 62
     7
370
    15
100
AcDbCircle
 10
456.3015977961
 20
686.7116115702
 30
0.0
 40
2.0
100
AcDbArc
 50
180.0
 51
270.0
  0
SPLINE
  5
B4
330
1F
100
AcDbEntity
  8
0
  6
Continuous
 62
     7
370
    15
100
AcDbSpline
210
0.0
220
0.0
230
1.0
 70
    24
 71
     3
 72
    11
 73
     7
 74
     0
 42
0.00000001
 43
0.00000001
 40
0.0
 40
0.0
 40
0.0
 40
0.0
 40
0.2412163054912994
 40
0.4999964407398084
 40
0.7587805954706911
 40
1.0
 40
1.0
 40
1.0
 40
1.0
 10
454.3015974385139
 20
687.6230884684412
 30
0.0
 10
454.3015974385139
 20
687.5054371624192
 30
0.0
 10
454.3015974385139
 20
687.2615679341781
 30
0.0
 10
454.3015974385139
 20
686.9573863623178
 30
0.0
 10
454.3015974385139
 20
686.7498874703958
 30
0.0
 10
454.3015974385139
 20
686.7240696637583
 30
0.0
 10
454.3015974385139
 20
686.7116142405359
 30
0.0
  0
LINE
  5
B5
330
1F
100
AcDbEntity
  8
0
  6
Continuous
 62
     7
370
    15
100
AcDbLine
 10
456.3016014916
 20
684.7116101874
 30
0.0
 11
463.3016007764
 21
684.7116101874
 31
0.0
  0
LINE
  5
B6
330
1F
100
AcDbEntity
  8
0
  6
Continuous
 62
     7
370
    15
100
AcDbLine
 10
688.3015948159
 20
684.7116101874
 30
0.0
 11
695.3015941007
 21
684.7116101874
 31
0.0
  0
LINE
  5
B7
330
1F
100
AcDbEntity
  8
0
  6
Continuous
 62
     7
370
    15
100
AcDbLine
 10
463.3016007764
 20
791.9304121627
 30
0.0
 11
688.3015948159
 21
791.9304121627
 31
0.0
  0
LINE
  5
B8
330
1F
100
AcDbEntity
  8
0
  6
Continuous
 62
     7
370
    15
100
AcDbLine
 10
688.3015948159
 20
791.9304121627
 30
0.0
 11
688.3015948159
 21
768.2983924044
 31
0.0
  0
LINE
  5
B9
330
1F
100
AcDbEntity
  8
0
  6
Continuous
 62
     7
370
    15
100
AcDbLine
 10
463.3016007764
 20
791.9304121627
 30
0.0
 11
463.3016007764
 21
768.2983924044
 31
0.0
  0
LINE
  5
BA
330
1F
100
AcDbEntity
  8
0
  6
Continuous
 62
     7
370
    15
100
AcDbLine
 10
456.3016014916
 20
791.3307894362
 30
0.0
 11
456.3016014916
 21
768.0703152312
 31
0.0
  0
LWPOLYLINE
  5
BB
330
1F
100
AcDbEntity
  8
0
  6
Continuous
 62
     7
370
    15
100
AcDbPolyline
 90
        9
 70
   128
 43
0.0
 10
454.3015974385
 20
790.3846849097
 10
454.3400275332
 20
790.5692506923
 10
454.4538351519
 20
790.7467533244
 10
454.6386617047
 20
790.9103084697
 10
454.8873844368
 20
791.0536874427
 10
455.1904591543
 20
791.1713470115
 10
455.5362331492
 20
791.2587870253
 10
455.9114145858
 20
791.3126100196
 10
456.3016014916
 20
791.3307894362
  0
LINE
  5
BC
330
1F
100
AcDbEntity
  8
0
  6
Continuous
 62
     7
370
    15
100
AcDbLine
 10
454.3015974385
 20
790.3846849097
 30
0.0
 11
454.3015974385
 21
767.1241809024
 31
0.0
  0
LINE
  5
BD
330
1F
100
AcDbEntity
  8
0
  6
Continuous
 62
     7
370
    15
100
AcDbLine
 10
695.3015941007
 20
791.3307894362
 30
0.0
 11
695.3015941007
 21
768.0703152312
 31
0.0
  0
LWPOLYLINE
  5
BE
330
1F
100
AcDbEntity
  8
0
  6
Continuous
 62
     7
370
    15
100
AcDbPolyline
 90
        9
 70
   128
 43
0.0
 10
695.3015941007
 20
791.3307894362
 10
695.6917810065
 20
791.3126100196
 10
696.0669624431
 20
791.2587870253
 10
696.412736438
 20
791.1713470115
 10
696.7158111555
 20
791.0536874427
 10
696.9645338876
 20
790.9103084697
 10
697.1493604404
 20
790.7467533244
 10
697.2631680591
 20
790.5692506923
 10
697.3015981538
 20
790.3846849097
  0
LINE
  5
BF
330
1F
100
AcDbEntity
  8
0
  6
Continuous
 62
     7
370
    15
100
AcDbLine
 10
697.3015981538
 20
767.1241809024
 30
0.0
 11
697.3015981538
 21
790.3846849097
 31
0.0
  0
LINE
  5
C0
330
1F
100
AcDbEntity
  8
0
  6
Continuous
 62
     7
370
    15
100
AcDbLine
 10
456.3016014916
 20
791.3307894362
 30
0.0
 11
463.3016007764
 21
791.3307894362
 31
0.0
  0
LINE
  5
C1
330
1F
100
AcDbEntity
  8
0
  6
Continuous
 62
     7
370
    15
100
AcDbLine
 10
688.3015948159
 20
791.3307894362
 30
0.0
 11
695.3015941007
 21
791.3307894362
 31
0.0
  0
LINE
  5
C2
330
1F
100
AcDbEntity
  8
0
  6
Continuous
 62
     7
370
    15
100
AcDbLine
 10
569.8544689265
 20
801.6116071833
 30
0.0
 11
581.7487266657
 21
801.6116071833
 31
0.0
  0
LINE
  5
C3
330
1F
100
AcDbEntity
  8
0
  6
Continuous
 62
     7
370
    15
100
AcDbLine
 10
581.7487266657
 20
801.6116071833
 30
0.0
 11
583.9370637012
 21
799.0760553969
 31
0.0
  0
ARC
  5
C4
330
1F
100
AcDbEntity
  8
0
  6
Continuous
 62
     7
370
    15
100
AcDbCircle
 10
582.9570091708
 20
800.2116115702
 30
0.0
 40
1.500000000000062
100
AcDbArc
 50
270.0
 51
310.7961333222
  0
LINE
  5
C5
330
1F
100
AcDbEntity
  8
0
  6
Continuous
 62
     7
370
    15
100
AcDbLine
 10
568.6461863851
 20
798.7116027964
 30
0.0
 11
582.9570092072
 21
798.7116027964
 31
0.0
  0
ARC
  5
C6
330
1F
100
AcDbEntity
  8
0
  6
Continuous
 62
     7
370
    15
100
AcDbCircle
 10
568.6461864215
 20
800.2116115702
 30
0.0
 40
1.500000000000062
100
AcDbArc
 50
229.2038666778
 51
270.0
  0
LINE
  5
C7
330
1F
100
AcDbEntity
  8
0
  6
Continuous
 62
     7
370
    15
100
AcDbLine
 10
567.6661318911
 20
799.0760553969
 30
0.0
 11
569.8544689265
 21
801.6116071833
 31
0.0
  0
LINE
  5
C8
330
1F
100
AcDbEntity
  8
0
  6
Continuous
 62
     7
370
    15
100
AcDbLine
 10
568.6461863851
 20
797.2116221083
 30
0.0
 11
568.6461863851
 21
798.7116027964
 31
0.0
  0
LINE
  5
C9
330
1F
100
AcDbEntity
  8
0
  6
Continuous
 62
     7
370
    15
100
AcDbLine
 10
567.1623077986
 20
798.7116027964
 30
0.0
 11
567.1623077986
 21
797.2116221083
 31
0.0
  0
ELLIPSE
  5
CA
330
1F
100
AcDbEntity
  8
0
  6
Continuous
 62
     7
370
    15
100
AcDbEllipse
 10
568.6461864215
 20
800.2116115702
 30
0.0
 11
1.495964298572289
 21
1.495964298572289
 31
0.0
210
0.0
220
0.0
230
0.9999999999999998
 40
0.0735032601
 41
3.214963968432942
 42
3.926990816987468
  0
LINE
  5
CB
330
1F
100
AcDbEntity
  8
0
  6
Continuous
 62
     7
370
    15
100
AcDbLine
 10
568.6461863851
 20
797.2116221083
 30
0.0
 11
567.1623077986
 21
797.2116221083
 31
0.0
  0
LINE
  5
CC
330
1F
100
AcDbEntity
  8
0
  6
Continuous
 62
     7
370
    15
100
AcDbLine
 10
584.4408877937
 20
797.2116221083
 30
0.0
 11
584.4408877937
 21
798.7116027964
 31
0.0
  0
LINE
  5
CD
330
1F
100
AcDbEntity
  8
0
  6
Continuous
 62
     7
370
    15
100
AcDbLine
 10
582.9570092072
 20
798.7116027964
 30
0.0
 11
582.9570092072
 21
797.2116221083
 31
0.0
  0
ELLIPSE
  5
CE
330
1F
100
AcDbEntity
  8
0
  6
Continuous
 62
     7
370
    15
100
AcDbEllipse
 10
582.9570091708
 20
800.2116115702
 30
0.0
 11
1.495964298572175
 21
-1.495964298572175
 31
0.0
210
0.0
220
0.0
230
0.9999999999999998
 40
0.0735032601
 41
5.497787143782141
 42
6.209813992337837
  0
LINE
  5
CF
330
1F
100
AcDbEntity
  8
0
  6
Continuous
 62
     7
370
    15
100
AcDbLine
 10
584.4408877937
 20
797.2116221083
 30
0.0
 11
582.9570092072
 21
797.2116221083
 31
0.0
  0
LINE
  5
D0
330
1F
100
AcDbEntity
  8
0
  6
Continuous
 62
     7
370
    15
100
AcDbLine
 10
582.9570092072
 20
797.2116221083
 30
0.0
 11
568.6461863851
 21
797.2116221083
 31
0.0
  0
LINE
  5
D1
330
1F
100
AcDbEntity
  8
0
  6
Continuous
 62
     7
370
    15
100
AcDbLine
 10
564.8015978557
 20
798.7116027964
 30
0.0
 11
567.1623077986
 21
798.7116027964
 31
0.0
  0
SPLINE
  5
D2
330
1F
100
AcDbEntity
  8
0
  6
Continuous
 62
     7
370
    15
100
AcDbSpline
210
0.0
220
0.0
230
1.0
 70
    24
 71
     1
 72
     4
 73
     2
 74
     0
 42
0.00000001
 43
0.00000001
 40
0.0
 40
0.0
 40
1.0
 40
1.0
 10
564.801597855746
 20
798.7116027964445
 30
0.0
 10
567.4781742317072
 20
801.6116071833463
 30
0.0
  0
LINE
  5
D3
330
1F
100
AcDbEntity
  8
0
  6
Continuous
 62
     7
370
    15
100
AcDbLine
 10
567.4781742317
 20
801.6116071833
 30
0.0
 11
569.8544689265
 21
801.6116071833
 31
0.0
  0
LINE
  5
D4
330
1F
100
AcDbEntity
  8
0
  6
Continuous
 62
     7
370
    15
100
AcDbLine
 10
584.4408877937
 20
798.7116027964
 30
0.0
 11
586.8015977365
 21
798.7116027964
 31
0.0
  0
LINE
  5
D5
330
1F
100
AcDbEntity
  8
0
  6
Continuous
 62
     7
370
    15
100
AcDbLine
 10
581.7487266657
 20
801.6116071833
 30
0.0
 11
584.1250213606
 21
801.6116071833
 31
0.0
  0
SPLINE
  5
D6
330
1F
100
AcDbEntity
  8
0
  6
Continuous
 62
     7
370
    15
100
AcDbSpline
210
0.0
220
0.0
230
1.0
 70
    24
 71
     1
 72
     4
 73
     2
 74
     0
 42
0.00000001
 43
0.00000001
 40
0.0
 40
0.0
 40
1.0
 40
1.0
 10
584.1250213605753
 20
801.6116071833466
 30
0.0
 10
586.8015977365367
 20
798.7116027964447
 30
0.0
  0
LINE
  5
D7
330
1F
100
AcDbEntity
  8
0
  6
Continuous
 62
     7
370
    15
100
AcDbLine
 10
586.8015977365
 20
798.7116027964
 30
0.0
 11
586.8015977365
 21
797.2116221083
 31
0.0
  0
LINE
  5
D8
330
1F
100
AcDbEntity
  8
0
  6
Continuous
 62
     7
370
    15
100
AcDbLine
 10
586.8015977365
 20
797.2116221083
 30
0.0
 11
584.4408877937
 21
797.2116221083
 31
0.0
  0
LINE
  5
D9
330
1F
100
AcDbEntity
  8
0
  6
Continuous
 62
     7
370
    15
100
AcDbLine
 10
564.8015978557
 20
797.2116221083
 30
0.0
 11
564.8015978557
 21
798.7116027964
 31
0.0
  0
LINE
  5
DA
330
1F
100
AcDbEntity
  8
0
  6
Continuous
 62
     7
370
    15
100
AcDbLine
 10
567.1623077986
 20
797.2116221083
 30
0.0
 11
564.8015978557
 21
797.2116221083
 31
0.0
  0
LINE
  5
DB
330
1F
100
AcDbEntity
  8
0
  6
Continuous
 62
     7
370
    15
100
AcDbLine
 10
688.3015948159
 20
793.5116041793
 30
0.0
 11
463.3016007764
 21
793.5116041793
 31
0.0
  0
LINE
  5
DC
330
1F
100
AcDbEntity
  8
0
  6
Continuous
 62
     7
370
    15
100
AcDbLine
 10
688.3015948159
 20
793.5116041793
 30
0.0
 11
688.3015948159
 21
791.9304121627
 31
0.0
  0
LINE
  5
DD
330
1F
100
AcDbEntity
  8
0
  6
Continuous
 62
     7
370
    15
100
AcDbLine
 10
463.3016007764
 20
793.5116041793
 30
0.0
 11
463.3016007764
 21
791.9304121627
 31
0.0
  0
LINE
  5
DE
330
1F
100
AcDbEntity
  8
0
  6
Continuous
 62
     7
370
    15
100
AcDbLine
 10
695.3015941007
 20
791.3307894362
 30
0.0
 11
695.3015941007
 21
792.911623825
 31
0.0
  0
ARC
  5
DF
330
1F
100
AcDbEntity
  8
0
  6
Continuous
 62
     7
370
    15
100
AcDbCircle
 10
695.3015977961
 20
790.9116115702
 30
0.0
 40
2.0
100
AcDbArc
 50
0.0
 51
90.0
  0
SPLINE
  5
E0
330
1F
100
AcDbEntity
  8
0
  6
Continuous
 62
     7
370
    15
100
AcDbSpline
210
0.0
220
0.0
230
1.0
 70
    24
 71
     3
 72
    11
 73
     7
 74
     0
 42
0.00000001
 43
0.00000001
 40
0.0
 40
0.0
 40
0.0
 40
0.0
 40
0.2501076638665538
 40
0.4999809770143458
 40
0.7496261847307616
 40
1.0
 40
1.0
 40
1.0
 40
1.0
 10
697.3015981537692
 20
790.384684909711
 30
0.0
 10
697.3015981537692
 20
790.4608381791807
 30
0.0
 10
697.3015981537692
 20
790.6130733625558
 30
0.0
 10
697.3015981537691
 20
790.7784951452181
 30
0.0
 10
697.3015981537692
 20
790.8916295815953
 30
0.0
 10
697.3015981537692
 20
790.9049499051508
 30
0.0
 10
697.3015981537692
 20
790.9116197718479
 30
0.0
  0
LINE
  5
E1
330
1F
100
AcDbEntity
  8
0
  6
Continuous
 62
     7
370
    15
100
AcDbLine
 10
456.3016014916
 20
792.911623825
 30
0.0
 11
456.3016014916
 21
791.3307894362
 31
0.0
  0
ARC
  5
E2
330
1F
100
AcDbEntity
  8
0
  6
Continuous
 62
     7
370
    15
100
AcDbCircle
 10
456.3015977961
 20
790.9116115702
 30
0.0
 40
2.0
100
AcDbArc
 50
90.0
 51
180.0
  0
SPLINE
  5
E3
330
1F
100
AcDbEntity
  8
0
  6
Continuous
 62
     7
370
    15
100
AcDbSpline
210
0.0
220
0.0
230
1.0
 70
    24
 71
     3
 72
    11
 73
     7
 74
     0
 42
0.00000001
 43
0.00000001
 40
0.0
 40
0.0
 40
0.0
 40
0.0
 40
0.2501215341077453
 40
0.5000008184648187
 40
0.7496413826465136
 40
1.0
 40
1.0
 40
1.0
 40
1.0
 10
454.3015974385135
 20
790.911619771847
 30
0.0
 10
454.3015974385135
 20
790.9049271768619
 30
0.0
 10
454.3015974385135
 20
790.8915484688584
 30
0.0
 10
454.3015974385135
 20
790.7785875900715
 30
0.0
 10
454.3015974385135
 20
790.6132114258227
 30
0.0
 10
454.3015974385135
 20
790.4609333110558
 30
0.0
 10
454.3015974385135
 20
790.3846849097101
 30
0.0
  0
LINE
  5
E4
330
1F
100
AcDbEntity
  8
0
  6
Continuous
 62
     7
370
    15
100
AcDbLine
 10
456.3016014916
 20
792.911623825
 30
0.0
 11
463.3016007764
 21
792.911623825
 31
0.0
  0
LINE
  5
E5
330
1F
100
AcDbEntity
  8
0
  6
Continuous
 62
     7
370
    15
100
AcDbLine
 10
688.3015948159
 20
792.911623825
 30
0.0
 11
695.3015941007
 21
792.911623825
 31
0.0
  0
LINE
  5
E6
330
1F
100
AcDbEntity
  8
0
  6
Continuous
 62
     7
370
    15
100
AcDbLine
 10
575.8015977961
 20
795.2116180552
 30
0.0
 11
595.0515976918
 21
795.2116180552
 31
0.0
  0
LINE
  5
E7
330
1F
100
AcDbEntity
  8
0
  6
Continuous
 62
     7
370
    15
100
AcDbLine
 10
556.5515979004
 20
795.2116180552
 30
0.0
 11
575.8015977961
 21
795.2116180552
 31
0.0
  0
LINE
  5
E8
330
1F
100
AcDbEntity
  8
0
  6
Continuous
 62
     7
370
    15
100
AcDbLine
 10
564.8015978557
 20
798.7116027964
 30
0.0
 11
556.5515979004
 21
798.7116027964
 31
0.0
  0
LINE
  5
E9
330
1F
100
AcDbEntity
  8
0
  6
Continuous
 62
     7
370
    15
100
AcDbLine
 10
595.0515976918
 20
798.7116027964
 30
0.0
 11
586.8015977365
 21
798.7116027964
 31
0.0
  0
LINE
  5
EA
330
1F
100
AcDbEntity
  8
0
  6
Continuous
 62
     7
370
    15
100
AcDbLine
 10
567.4781742317
 20
801.6116071833
 30
0.0
 11
559.4515985621
 21
801.6116071833
 31
0.0
  0
LINE
  5
EB
330
1F
100
AcDbEntity
  8
0
  6
Continuous
 62
     7
370
    15
100
AcDbLine
 10
592.1515970302
 20
801.6116071833
 30
0.0
 11
584.1250213606
 21
801.6116071833
 31
0.0
  0
LINE
  5
EC
330
1F
100
AcDbEntity
  8
0
  6
Continuous
 62
     7
370
    15
100
AcDbLine
 10
575.8015977961
 20
794.2116011275
 30
0.0
 11
563.3015976099
 21
794.2116011275
 31
0.0
  0
LINE
  5
ED
330
1F
100
AcDbEntity
  8
0
  6
Continuous
 62
     7
370
    15
100
AcDbLine
 10
588.3015979824
 20
794.2116011275
 30
0.0
 11
575.8015977961
 21
794.2116011275
 31
0.0
  0
LINE
  5
EE
330
1F
100
AcDbEntity
  8
0
  6
Continuous
 62
     7
370
    15
100
AcDbLine
 10
588.286598101
 20
794.6116078986
 30
0.0
 11
563.3165974913
 21
794.6116078986
 31
0.0
  0
LINE
  5
EF
330
1F
100
AcDbEntity
  8
0
  6
Continuous
 62
     7
370
    15
100
AcDbLine
 10
573.8015977011
 20
809.4116200103
 30
0.0
 11
573.8015977011
 21
812.9116047515
 31
0.0
  0
LINE
  5
F0
330
1F
100
AcDbEntity
  8
0
  6
Continuous
 62
     7
370
    15
100
AcDbLine
 10
577.8015978911
 20
809.4116200103
 30
0.0
 11
573.8015977011
 21
809.4116200103
 31
0.0
  0
LINE
  5
F1
330
1F
100
AcDbEntity
  8
0
  6
Continuous
 62
     7
370
    15
100
AcDbLine
 10
577.8015978911
 20
812.9116047515
 30
0.0
 11
577.8015978911
 21
809.4116200103
 31
0.0
  0
LWPOLYLINE
  5
F2
330
1F
100
AcDbEntity
  8
0
  6
Continuous
 62
     7
370
    15
100
AcDbPolyline
 90
        3
 70
   128
 43
0.0
 10
577.8015978911
 20
812.9116047515
 10
578.0520689485
 20
813.1620932711
 10
578.3015977403
 20
813.4115983142
  0
LINE
  5
F3
330
1F
100
AcDbEntity
  8
0
  6
Continuous
 62
     7
370
    15
100
AcDbLine
 10
583.8015981761
 20
813.4115983142
 30
0.0
 11
578.3015977403
 21
813.4115983142
 31
0.0
  0
LINE
  5
F4
330
1F
100
AcDbEntity
  8
0
  6
Continuous
 62
     7
370
    15
100
AcDbLine
 10
583.8015981761
 20
801.6116071833
 30
0.0
 11
583.8015981761
 21
813.4115983142
 31
0.0
  0
LINE
  5
F5
330
1F
100
AcDbEntity
  8
0
  6
Continuous
 62
     7
370
    15
100
AcDbLine
 10
567.8015974162
 20
813.4115983142
 30
0.0
 11
567.8015974162
 21
801.6116071833
 31
0.0
  0
LINE
  5
F6
330
1F
100
AcDbEntity
  8
0
  6
Continuous
 62
     7
370
    15
100
AcDbLine
 10
573.301597852
 20
813.4115983142
 30
0.0
 11
567.8015974162
 21
813.4115983142
 31
0.0
  0
LWPOLYLINE
  5
F7
330
1F
100
AcDbEntity
  8
0
  6
Continuous
 62
     7
370
    15
100
AcDbPolyline
 90
        3
 70
   128
 43
0.0
 10
573.8015977011
 20
812.9116047515
 10
573.5511266438
 20
813.1620932711
 10
573.301597852
 20
813.4115983142
  0
SPLINE
  5
F8
330
1F
100
AcDbEntity
  8
0
  6
Continuous
 62
     7
370
    15
100
AcDbSpline
210
0.0
220
0.0
230
1.0
 70
     8
 71
     3
 72
    11
 73
     7
 74
     0
 42
0.00000001
 43
0.00000001
 40
0.0
 40
0.0
 40
0.0
 40
0.0
 40
0.2645377074890197
 40
0.5347707457534718
 40
0.7652627505668004
 40
1.0
 40
1.0
 40
1.0
 40
1.0
 10
447.3015981537694
 20
734.611605514416
 30
0.0
 10
447.0959156103384
 20
735.3058450215736
 30
0.0
 10
446.6801223074358
 20
736.7092705766607
 30
0.0
 10
446.5278263312346
 20
738.7886187975321
 30
0.0
 10
446.7509293221031
 20
740.7768314770824
 30
0.0
 10
447.1169286214212
 20
741.9963156882902
 30
0.0
 10
447.3015981537694
 20
742.6116217268793
 30
0.0
  0
SPLINE
  5
F9
330
1F
100
AcDbEntity
  8
0
  6
Continuous
 62
     7
370
    15
100
AcDbSpline
210
0.0
220
0.0
230
1.0
 70
    24
 71
     3
 72
     9
 73
     5
 74
     0
 42
0.00000001
 43
0.00000001
 40
0.0
 40
0.0
 40
0.0
 40
0.0
 40
0.4945447009719362
 40
1.0
 40
1.0
 40
1.0
 40
1.0
 10
446.5893524510259
 20
734.6116055144159
 30
0.0
 10
446.6252336403581
 20
734.6116055144158
 30
0.0
 10
446.6977876264017
 20
734.6116055144158
 30
0.0
 10
447.0988692976792
 20
734.6116055144159
 30
0.0
 10
447.3015981537694
 20
734.6116055144159
 30
0.0
  0
SPLINE
  5
FA
330
1F
100
AcDbEntity
  8
0
  6
Continuous
 62
     7
370
    15
100
AcDbSpline
210
0.0
220
0.0
230
1.0
 70
    24
 71
     3
 72
     9
 73
     5
 74
     0
 42
0.00000001
 43
0.00000001
 40
0.0
 40
0.0
 40
0.0
 40
0.0
 40
0.4954848436351043
 40
1.0
 40
1.0
 40
1.0
 40
1.0
 10
447.3015981537694
 20
750.6116081370203
 30
0.0
 10
447.1025038688607
 20
750.6116081370204
 30
0.0
 10
446.7006867649347
 20
750.6116081370204
 30
0.0
 10
446.6266866370943
 20
750.6116081370203
 30
0.0
 10
446.5893524510258
 20
750.6116081370203
 30
0.0
  0
SPLINE
  5
FB
330
1F
100
AcDbEntity
  8
0
  6
Continuous
 62
     7
370
    15
100
AcDbSpline
210
0.0
220
0.0
230
1.0
 70
     8
 71
     3
 72
    11
 73
     7
 74
     0
 42
0.00000001
 43
0.00000001
 40
0.0
 40
0.0
 40
0.0
 40
0.0
 40
0.2645357275417329
 40
0.5347694766672955
 40
0.7652648042489306
 40
1.0
 40
1.0
 40
1.0
 40
1.0
 10
447.3015981537694
 20
742.6116217268793
 30
0.0
 10
447.0959153161663
 20
743.3058509467604
 30
0.0
 10
446.6801192932754
 20
744.709262879254
 30
0.0
 10
446.527828341379
 20
746.7886090429408
 30
0.0
 10
446.7509240056417
 20
748.7768381553439
 30
0.0
 10
447.1169282471845
 20
749.9963135889234
 30
0.0
 10
447.3015981537694
 20
750.6116081370203
 30
0.0
  0
LINE
  5
FC
330
1F
100
AcDbEntity
  8
0
  6
Continuous
 62
     7
370
    15
100
AcDbLine
 10
446.3015961272
 20
750.1116145743
 30
0.0
 11
446.3015961272
 21
735.1115990771
 31
0.0
  0
LINE
  5
FD
330
1F
100
AcDbEntity
  8
0
  6
Continuous
 62
     7
370
    15
100
AcDbLine
 10
453.301595412
 20
750.611608137
 30
0.0
 11
447.3015981538
 21
750.611608137
 31
0.0
  0
SPLINE
  5
FE
330
1F
100
AcDbEntity
  8
0
  6
Continuous
 62
     7
370
    15
100
AcDbSpline
210
0.0
220
0.0
230
1.0
 70
     8
 71
     3
 72
    11
 73
     7
 74
     0
 42
0.00000001
 43
0.00000001
 40
0.0
 40
0.0
 40
0.0
 40
0.0
 40
0.2645358913706954
 40
0.5347695379213553
 40
0.765264814312651
 40
1.0
 40
1.0
 40
1.0
 40
1.0
 10
453.3015954119557
 20
750.6116081370203
 30
0.0
 10
453.5072833230964
 20
749.9173791152873
 30
0.0
 10
453.9230893924611
 20
748.5139682917501
 30
0.0
 10
454.0753497131977
 20
746.4346205212191
 30
0.0
 10
453.8522732138904
 20
744.4463915593988
 30
0.0
 10
453.486266554752
 20
743.2269162612677
 30
0.0
 10
453.3015954119557
 20
742.6116217268793
 30
0.0
  0
LINE
  5
FF
330
1F
100
AcDbEntity
  8
0
  6
Continuous
 62
     7
370
    15
100
AcDbLine
 10
447.3015981538
 20
742.6116217269
 30
0.0
 11
453.301595412
 21
742.6116217269
 31
0.0
  0
SPLINE
  5
100
330
1F
100
AcDbEntity
  8
0
  6
Continuous
 62
     7
370
    15
100
AcDbSpline
210
0.0
220
0.0
230
1.0
 70
     8
 71
     3
 72
    11
 73
     7
 74
     0
 42
0.00000001
 43
0.00000001
 40
0.0
 40
0.0
 40
0.0
 40
0.0
 40
0.2645378805119999
 40
0.5347708008258333
 40
0.7652654330464506
 40
1.0
 40
1.0
 40
1.0
 40
1.0
 10
453.3015954119557
 20
742.6116217268793
 30
0.0
 10
453.5072832084405
 20
741.9173820753815
 30
0.0
 10
453.9230869014065
 20
740.5139570018988
 30
0.0
 10
454.0753501638367
 20
738.4346050061695
 30
0.0
 10
453.8522730738557
 20
736.4463750282189
 30
0.0
 10
453.4862665174505
 20
735.2268999741059
 30
0.0
 10
453.3015954119558
 20
734.6116055144159
 30
0.0
  0
LINE
  5
101
330
1F
100
AcDbEntity
  8
0
  6
Continuous
 62
     7
370
    15
100
AcDbLine
 10
447.3015981538
 20
734.6116055144
 30
0.0
 11
453.301595412
 21
734.6116055144
 31
0.0
  0
SPLINE
  5
102
330
1F
100
AcDbEntity
  8
0
  6
Continuous
 62
     7
370
    15
100
AcDbSpline
210
0.0
220
0.0
230
1.0
 70
     8
 71
     3
 72
    11
 73
     7
 74
     0
 42
0.00000001
 43
0.00000001
 40
0.0
 40
0.0
 40
0.0
 40
0.0
 40
0.2645357152849866
 40
0.5347694642751114
 40
0.7652648164696375
 40
1.0
 40
1.0
 40
1.0
 40
1.0
 10
704.3015974385136
 20
750.6116081370212
 30
0.0
 10
704.5072802780555
 20
749.9173789162572
 30
0.0
 10
704.9230763144958
 20
748.5139669494755
 30
0.0
 10
705.0753672372199
 20
746.4346206675318
 30
0.0
 10
704.8522716225564
 20
744.446391897649
 30
0.0
 10
704.4862673474832
 20
743.2269163062058
 30
0.0
 10
704.3015974385136
 20
742.6116217268802
 30
0.0
  0
LINE
  5
103
330
1F
100
AcDbEntity
  8
0
  6
Continuous
 62
     7
370
    15
100
AcDbLine
 10
704.3015974385
 20
742.6116217269
 30
0.0
 11
698.3016001803
 21
742.6116217269
 31
0.0
  0
SPLINE
  5
104
330
1F
100
AcDbEntity
  8
0
  6
Continuous
 62
     7
370
    15
100
AcDbSpline
210
0.0
220
0.0
230
1.0
 70
     8
 71
     3
 72
    11
 73
     7
 74
     0
 42
0.00000001
 43
0.00000001
 40
0.0
 40
0.0
 40
0.0
 40
0.0
 40
0.2645359036274382
 40
0.5347695503135402
 40
0.7652648020919401
 40
1.0
 40
1.0
 40
1.0
 40
1.0
 10
698.3016001803272
 20
742.6116217268802
 30
0.0
 10
698.0959122711254
 20
743.3058507477302
 30
0.0
 10
697.6801062153098
 20
744.7092615369795
 30
0.0
 10
697.5278458654008
 20
746.7886091892535
 30
0.0
 10
697.7509224143073
 20
748.7768384935941
 30
0.0
 10
698.1169290399156
 20
749.9963136338614
 30
0.0
 10
698.3016001803272
 20
750.6116081370212
 30
0.0
  0
LINE
  5
105
330
1F
100
AcDbEntity
  8
0
  6
Continuous
 62
     7
370
    15
100
AcDbLine
 10
704.3015974385
 20
750.611608137
 30
0.0
 11
698.3016001803
 21
750.611608137
 31
0.0
  0
SPLINE
  5
106
330
1F
100
AcDbEntity
  8
0
  6
Continuous
 62
     7
370
    15
100
AcDbSpline
210
0.0
220
0.0
230
1.0
 70
    24
 71
     3
 72
     9
 73
     5
 74
     0
 42
0.00000001
 43
0.00000001
 40
0.0
 40
0.0
 40
0.0
 40
0.0
 40
0.4954848436351043
 40
1.0
 40
1.0
 40
1.0
 40
1.0
 10
704.3015974385136
 20
734.6116055144169
 30
0.0
 10
704.5006917234223
 20
734.6116055144169
 30
0.0
 10
704.9025088273484
 20
734.611605514417
 30
0.0
 10
704.9765089551887
 20
734.6116055144167
 30
0.0
 10
705.0138431412571
 20
734.6116055144169
 30
0.0
  0
SPLINE
  5
107
330
1F
100
AcDbEntity
  8
0
  6
Continuous
 62
     7
370
    15
100
AcDbSpline
210
0.0
220
0.0
230
1.0
 70
     8
 71
     3
 72
    11
 73
     7
 74
     0
 42
0.00000001
 43
0.00000001
 40
0.0
 40
0.0
 40
0.0
 40
0.0
 40
0.2645377044280476
 40
0.5347707271805958
 40
0.7652654352038436
 40
1.0
 40
1.0
 40
1.0
 40
1.0
 10
704.3015974385136
 20
742.6116217268802
 30
0.0
 10
704.5072801633677
 20
741.9173818763513
 30
0.0
 10
704.9230738233925
 20
740.5139556596321
 30
0.0
 10
705.0753676878451
 20
738.4346051524803
 30
0.0
 10
704.8522714825244
 20
736.4463753664697
 30
0.0
 10
704.4862673101826
 20
735.2269000190441
 30
0.0
 10
704.3015974385136
 20
734.6116055144169
 30
0.0
  0
SPLINE
  5
108
330
1F
100
AcDbEntity
  8
0
  6
Continuous
 62
     7
370
    15
100
AcDbSpline
210
0.0
220
0.0
230
1.0
 70
    24
 71
     3
 72
     9
 73
     5
 74
     0
 42
0.00000001
 43
0.00000001
 40
0.0
 40
0.0
 40
0.0
 40
0.0
 40
0.4945447009719362
 40
1.0
 40
1.0
 40
1.0
 40
1.0
 10
705.0138431412571
 20
750.6116081370212
 30
0.0
 10
704.9779619519248
 20
750.6116081370211
 30
0.0
 10
704.9054079658814
 20
750.6116081370211
 30
0.0
 10
704.5043262946037
 20
750.6116081370212
 30
0.0
 10
704.3015974385136
 20
750.6116081370212
 30
0.0
  0
LINE
  5
109
330
1F
100
AcDbEntity
  8
0
  6
Continuous
 62
     7
370
    15
100
AcDbLine
 10
705.3015994651
 20
742.6116217269
 30
0.0
 11
705.3015994651
 21
750.1116145743
 31
0.0
  0
LINE
  5
10A
330
1F
100
AcDbEntity
  8
0
  6
Continuous
 62
     7
370
    15
100
AcDbLine
 10
705.3015994651
 20
735.1115990771
 30
0.0
 11
705.3015994651
 21
742.6116217269
 31
0.0
  0
LINE
  5
10B
330
1F
100
AcDbEntity
  8
0
  6
Continuous
 62
     7
370
    15
100
AcDbLine
 10
704.3015974385
 20
734.6116055144
 30
0.0
 11
698.3016001803
 21
734.6116055144
 31
0.0
  0
SPLINE
  5
10C
330
1F
100
AcDbEntity
  8
0
  6
Continuous
 62
     7
370
    15
100
AcDbSpline
210
0.0
220
0.0
230
1.0
 70
     8
 71
     3
 72
    11
 73
     7
 74
     0
 42
0.00000001
 43
0.00000001
 40
0.0
 40
0.0
 40
0.0
 40
0.0
 40
0.264537883573231
 40
0.5347708193992085
 40
0.7652627484091689
 40
1.0
 40
1.0
 40
1.0
 40
1.0
 10
698.3016001803272
 20
734.6116055144169
 30
0.0
 10
698.0959125652598
 20
735.3058448225433
 30
0.0
 10
697.6801092294043
 20
736.7092692343939
 30
0.0
 10
697.5278438552064
 20
738.7886189438295
 30
0.0
 10
697.7509277307012
 20
740.7768318153427
 30
0.0
 10
698.1169294141202
 20
741.9963157332307
 30
0.0
 10
698.3016001803272
 20
742.6116217268803
 30
0.0
  0
SPLINE
  5
10D
330
1F
100
AcDbEntity
  8
0
  6
Continuous
 62
     7
370
    15
100
AcDbSpline
210
0.0
220
0.0
230
1.0
 70
    24
 71
     3
 72
     9
 73
     5
 74
     0
 42
0.00000001
 43
0.00000001
 40
0.0
 40
0.0
 40
0.0
 40
0.0
 40
0.4945447661890578
 40
1.0
 40
1.0
 40
1.0
 40
1.0
 10
454.0138485652798
 20
750.6116081370203
 30
0.0
 10
453.9779642928755
 20
750.6116081370203
 30
0.0
 10
453.905404082238
 20
750.6116081370204
 30
0.0
 10
453.5043236271562
 20
750.6116081370203
 30
0.0
 10
453.3015954119557
 20
750.6116081370203
 30
0.0
  0
SPLINE
  5
10E
330
1F
100
AcDbEntity
  8
0
  6
Continuous
 62
     7
370
    15
100
AcDbSpline
210
0.0
220
0.0
230
1.0
 70
    24
 71
     3
 72
     9
 73
     5
 74
     0
 42
0.00000001
 43
0.00000001
 40
0.0
 40
0.0
 40
0.0
 40
0.0
 40
0.495484778483008
 40
1.0
 40
1.0
 40
1.0
 40
1.0
 10
453.3015954119558
 20
734.611605514416
 30
0.0
 10
453.5006890932062
 20
734.6116055144159
 30
0.0
 10
453.9025050316494
 20
734.611605514416
 30
0.0
 10
453.9765112843201
 20
734.611605514416
 30
0.0
 10
454.0138485652799
 20
734.6116055144159
 30
0.0
  0
SPLINE
  5
10F
330
1F
100
AcDbEntity
  8
0
  6
Continuous
 62
     7
370
    15
100
AcDbSpline
210
0.0
220
0.0
230
1.0
 70
    24
 71
     3
 72
     9
 73
     5
 74
     0
 42
0.00000001
 43
0.00000001
 40
0.0
 40
0.0
 40
0.0
 40
0.0
 40
0.495484778483008
 40
1.0
 40
1.0
 40
1.0
 40
1.0
 10
698.3016001803272
 20
750.6116081370213
 30
0.0
 10
698.1025064990768
 20
750.6116081370213
 30
0.0
 10
697.7006905606337
 20
750.6116081370213
 30
0.0
 10
697.6266843079629
 20
750.6116081370212
 30
0.0
 10
697.5893470270031
 20
750.6116081370212
 30
0.0
  0
SPLINE
  5
110
330
1F
100
AcDbEntity
  8
0
  6
Continuous
 62
     7
370
    15
100
AcDbSpline
210
0.0
220
0.0
230
1.0
 70
    24
 71
     3
 72
     9
 73
     5
 74
     0
 42
0.00000001
 43
0.00000001
 40
0.0
 40
0.0
 40
0.0
 40
0.0
 40
0.4945447661890578
 40
1.0
 40
1.0
 40
1.0
 40
1.0
 10
697.5893470270031
 20
734.6116055144169
 30
0.0
 10
697.6252312994076
 20
734.6116055144169
 30
0.0
 10
697.697791510045
 20
734.611605514417
 30
0.0
 10
698.0988719651269
 20
734.6116055144169
 30
0.0
 10
698.3016001803272
 20
734.6116055144169
 30
0.0
  0
LINE
  5
111
330
1F
100
AcDbEntity
  8
0
  6
Continuous
 62
     7
370
    15
100
AcDbLine
 10
444.5015954596
 20
747.6116169585
 30
0.0
 11
444.5015954596
 21
737.6115966929
 31
0.0
  0
LINE
  5
112
330
1F
100
AcDbEntity
  8
0
  6
Continuous
 62
     7
370
    15
100
AcDbLine
 10
444.0016018969
 20
747.1116233958
 30
0.0
 11
444.0016018969
 21
738.1116200579
 31
0.0
  0
LINE
  5
113
330
1F
100
AcDbEntity
  8
0
  6
Continuous
 62
     7
370
    15
100
AcDbLine
 10
707.1016001326
 20
742.6116217269
 30
0.0
 11
707.1016001326
 21
747.6116169585
 31
0.0
  0
LINE
  5
114
330
1F
100
AcDbEntity
  8
0
  6
Continuous
 62
     7
370
    15
100
AcDbLine
 10
707.1016001326
 20
737.6115966929
 30
0.0
 11
707.1016001326
 21
742.6116217269
 31
0.0
  0
LINE
  5
115
330
1F
100
AcDbEntity
  8
0
  6
Continuous
 62
     7
370
    15
100
AcDbLine
 10
707.6015936953
 20
742.6116217269
 30
0.0
 11
707.6015936953
 21
747.1116233958
 31
0.0
  0
LINE
  5
116
330
1F
100
AcDbEntity
  8
0
  6
Continuous
 62
     7
370
    15
100
AcDbLine
 10
707.6015936953
 20
738.111620058
 30
0.0
 11
707.6015936953
 21
742.6116217269
 31
0.0
  0
LINE
  5
117
330
1F
100
AcDbEntity
  8
0
  6
Continuous
 62
     7
370
    15
100
AcDbLine
 10
555.8015982432
 20
618.9616073264
 30
0.0
 11
595.8015973491
 21
618.9616073264
 31
0.0
  0
LINE
  5
118
330
1F
100
AcDbEntity
  8
0
  6
Continuous
 62
     7
370
    15
100
AcDbLine
 10
591.2015977127
 20
244.0616090192
 30
0.0
 11
560.4015978796
 21
244.0616090192
 31
0.0
  0
LINE
  5
119
330
1F
100
AcDbEntity
  8
0
  6
Continuous
 62
     7
370
    15
100
AcDbLine
 10
556.4015972239
 20
248.0616171254
 30
0.0
 11
595.2015983683
 21
248.0616171254
 31
0.0
  0
LINE
  5
11A
330
1F
100
AcDbEntity
  8
0
  6
Continuous
 62
     7
370
    15
100
AcDbLine
 10
595.2015983683
 20
251.5616167678
 30
0.0
 11
556.4015972239
 21
251.5616167678
 31
0.0
  0
LINE
  5
11B
330
1F
100
AcDbEntity
  8
0
  6
Continuous
 62
     7
370
    15
100
AcDbLine
 10
561.9015981255
 20
253.5616059197
 30
0.0
 11
589.7015974668
 21
253.5616059197
 31
0.0
  0
SPLINE
  5
11C
330
1F
100
AcDbEntity
  8
0
  6
Continuous
 62
     7
370
    15
100
AcDbSpline
210
0.0
220
0.0
230
1.0
 70
     8
 71
     3
 72
     8
 73
     4
 74
     0
 42
0.00000001
 43
0.00000001
 40
0.0
 40
0.0
 40
0.0
 40
0.0
 40
0.0000226150302117
 40
0.0000226150302117
 40
0.0000226150302117
 40
0.0000226150302117
 10
585.5060527584324
 20
531.9602341600086
 30
0.0
 10
585.5108041227788
 20
531.9602190243601
 30
0.0
 10
585.5155509344308
 20
531.960055349492
 30
0.0
 10
585.5202876306191
 20
531.9597425061255
 30
0.0
  0
SPLINE
  5
11D
330
1F
100
AcDbEntity
  8
0
  6
Continuous
 62
     7
370
    15
100
AcDbSpline
210
0.0
220
0.0
230
1.0
 70
    24
 71
     3
 72
    14
 73
    10
 74
     0
 42
0.00000001
 43
0.00000001
 40
0.1393700509402429
 40
0.1393700509402429
 40
0.1393700509402429
 40
0.1393700509402429
 40
0.2500000000000002
 40
0.3750000000000002
 40
0.5000000000000003
 40
0.5000000000000003
 40
0.6250000000000002
 40
0.7500000000000002
 40
0.8606299490597572
 40
0.8606299490597572
 40
0.8606299490597572
 40
0.8606299490597572
 10
566.097030922259
 20
531.9616115702482
 30
0.0
 10
566.8132708246475
 20
531.9616115702482
 30
0.0
 10
568.5959392318076
 20
531.9616115702482
 30
0.0
 10
571.9505836497552
 20
531.9616115702484
 30
0.0
 10
574.5178756426444
 20
531.9616115702484
 30
0.0
 10
577.0853199496399
 20
531.9616115702484
 30
0.0
 10
579.6526119425292
 20
531.9616115702484
 30
0.0
 10
583.0072563604768
 20
531.9616115702482
 30
0.0
 10
584.789924767637
 20
531.9616115702484
 30
0.0
 10
585.5061646700254
 20
531.9616115702484
 30
0.0
  0
SPLINE
  5
11E
330
1F
100
AcDbEntity
  8
0
  6
Continuous
 62
     7
370
    15
100
AcDbSpline
210
0.0
220
0.0
230
1.0
 70
     8
 71
     3
 72
     8
 73
     4
 74
     0
 42
0.00000001
 43
0.00000001
 40
0.0
 40
0.0
 40
0.0
 40
0.0
 40
0.0000226150302117
 40
0.0000226150302117
 40
0.0000226150302117
 40
0.0000226150302117
 10
566.0829079616652
 20
531.9597425061255
 30
0.0
 10
566.0876446578536
 20
531.9600553494919
 30
0.0
 10
566.0923914695057
 20
531.9602190243601
 30
0.0
 10
566.0971428338521
 20
531.9602341600087
 30
0.0
  0
LINE
  5
11F
330
1F
100
AcDbEntity
  8
0
  6
Continuous
 62
     7
370
    15
100
AcDbLine
 10
566.0829077286
 20
550.7367972626
 30
0.0
 11
566.0829077286
 21
531.9616098298
 31
0.0
  0
SPLINE
  5
120
330
1F
100
AcDbEntity
  8
0
  6
Continuous
 62
     7
370
    15
100
AcDbSpline
210
0.0
220
0.0
230
1.0
 70
     8
 71
     3
 72
    16
 73
    12
 74
     0
 42
0.00000001
 43
0.00000001
 40
0.0
 40
0.0
 40
0.0
 40
0.0
 40
0.1249999999999999
 40
0.1249999999999999
 40
0.2499999999999998
 40
0.2499999999999998
 40
0.4999999999999999
 40
0.4999999999999999
 40
0.7499999999999999
 40
0.7499999999999999
 40
1.0
 40
1.0
 40
1.0
 40
1.0
 10
563.5301078805693
 20
553.3551137625393
 30
0.0
 10
563.5842503045797
 20
553.3604786641973
 30
0.0
 10
563.6471665076538
 20
553.340130172911
 30
0.0
 10
563.7896208433716
 20
553.2590416697947
 30
0.0
 10
563.8696896164247
 20
553.1976977601988
 30
0.0
 10
564.1302356470109
 20
552.9663002173131
 30
0.0
 10
564.3281182322297
 20
552.7529071537051
 30
0.0
 10
564.7657538528149
 20
552.2555868019939
 30
0.0
 10
565.006083462922
 20
551.9702542645032
 30
0.0
 10
565.5177309159081
 20
551.3712542157597
 30
0.0
 10
565.7913831278621
 20
551.0546447319769
 30
0.0
 10
566.0829079616652
 20
550.7368007283591
 30
0.0
  0
SPLINE
  5
121
330
1F
100
AcDbEntity
  8
0
  6
Continuous
 62
     7
370
    15
100
AcDbSpline
210
0.0
220
0.0
230
1.0
 70
     8
 71
     3
 72
    16
 73
    12
 74
     0
 42
0.00000001
 43
0.00000001
 40
0.0
 40
0.0
 40
0.0
 40
0.0
 40
0.1250000000000001
 40
0.1250000000000001
 40
0.2500000000000002
 40
0.2500000000000002
 40
0.5000000000000001
 40
0.5000000000000001
 40
0.75
 40
0.75
 40
1.0
 40
1.0
 40
1.0
 40
1.0
 10
588.073087711715
 20
553.3551137625394
 30
0.0
 10
588.0189452877046
 20
553.3604786641973
 30
0.0
 10
587.9560290846305
 20
553.340130172911
 30
0.0
 10
587.8135747489129
 20
553.2590416697947
 30
0.0
 10
587.7335059758597
 20
553.1976977601989
 30
0.0
 10
587.4729599452735
 20
552.9663002173131
 30
0.0
 10
587.2750773600545
 20
552.7529071537052
 30
0.0
 10
586.8374417394693
 20
552.2555868019939
 30
0.0
 10
586.5971121293624
 20
551.9702542645032
 30
0.0
 10
586.0854646763761
 20
551.3712542157598
 30
0.0
 10
585.8118124644217
 20
551.054644731978
 30
0.0
 10
585.5202876306191
 20
550.7368007283592
 30
0.0
  0
LINE
  5
122
330
1F
100
AcDbEntity
  8
0
  6
Continuous
 62
     7
370
    15
100
AcDbLine
 10
585.5202878637
 20
531.9616098298
 30
0.0
 11
585.5202878637
 21
550.7367972626
 31
0.0
  0
LINE
  5
123
330
1F
100
AcDbEntity
  8
0
  6
Continuous
 62
     7
370
    15
100
AcDbLine
 10
564.0884646026
 20
553.9616097106
 30
0.0
 11
587.5147309897
 21
553.9616097106
 31
0.0
  0
SPLINE
  5
124
330
1F
100
AcDbEntity
  8
0
  6
Continuous
 62
     7
370
    15
100
AcDbSpline
210
0.0
220
0.0
230
1.0
 70
     8
 71
     3
 72
    16
 73
    12
 74
     0
 42
0.00000001
 43
0.00000001
 40
0.0
 40
0.0
 40
0.0
 40
0.0
 40
0.1250000000000001
 40
0.1250000000000001
 40
0.2500000000000002
 40
0.2500000000000002
 40
0.5000000000000001
 40
0.5000000000000001
 40
0.75
 40
0.75
 40
1.0
 40
1.0
 40
1.0
 40
1.0
 10
563.5301078805702
 20
305.6681093779573
 30
0.0
 10
563.5842503045806
 20
305.6627444762993
 30
0.0
 10
563.6471665076547
 20
305.6830929675855
 30
0.0
 10
563.7896208433724
 20
305.7641814707019
 30
0.0
 10
563.8696896164256
 20
305.8255253802977
 30
0.0
 10
564.1302356470117
 20
306.0569229231835
 30
0.0
 10
564.3281182322306
 20
306.2703159867914
 30
0.0
 10
564.7657538528158
 20
306.7676363385027
 30
0.0
 10
565.0060834629228
 20
307.0529688759934
 30
0.0
 10
565.517730915909
 20
307.6519689247368
 30
0.0
 10
565.7913831278638
 20
307.9685784085179
 30
0.0
 10
566.0829079616661
 20
308.2864224121374
 30
0.0
  0
LINE
  5
125
330
1F
100
AcDbEntity
  8
0
  6
Continuous
 62
     7
370
    15
100
AcDbLine
 10
566.0829077286
 20
327.0616133107
 30
0.0
 11
566.0829077286
 21
308.2864258779
 31
0.0
  0
SPLINE
  5
126
330
1F
100
AcDbEntity
  8
0
  6
Continuous
 62
     7
370
    15
100
AcDbSpline
210
0.0
220
0.0
230
1.0
 70
     8
 71
     3
 72
     8
 73
     4
 74
     0
 42
0.00000001
 43
0.00000001
 40
0.0
 40
0.0
 40
0.0
 40
0.0
 40
0.0000226150302117
 40
0.0000226150302117
 40
0.0000226150302117
 40
0.0000226150302117
 10
566.0971428338528
 20
327.0629889804879
 30
0.0
 10
566.0923914695065
 20
327.0630041161365
 30
0.0
 10
566.0876446578543
 20
327.0631677910046
 30
0.0
 10
566.082907961666
 20
327.063480634371
 30
0.0
  0
SPLINE
  5
127
330
1F
100
AcDbEntity
  8
0
  6
Continuous
 62
     7
370
    15
100
AcDbSpline
210
0.0
220
0.0
230
1.0
 70
    24
 71
     3
 72
    22
 73
    18
 74
     0
 42
0.00000001
 43
0.00000001
 40
0.0
 40
0.0
 40
0.0
 40
0.0
 40
0.1249999999999999
 40
0.1249999999999999
 40
0.2499999999999998
 40
0.2499999999999998
 40
0.3749999999999998
 40
0.3749999999999998
 40
0.4999999999999998
 40
0.4999999999999998
 40
0.6249999999999998
 40
0.6249999999999998
 40
0.7499999999999998
 40
0.7499999999999998
 40
0.8749999999999999
 40
0.8749999999999999
 40
1.0
 40
1.0
 40
1.0
 40
1.0
 10
585.5060545026668
 20
327.0616115702483
 30
0.0
 10
584.9224649718678
 20
327.0616115702483
 30
0.0
 10
584.2587043821777
 20
327.0616115702483
 30
0.0
 10
582.8033766043923
 20
327.0616115702483
 30
0.0
 10
582.0118684215186
 20
327.0616115702483
 30
0.0
 10
580.3399607845238
 20
327.0616115702483
 30
0.0
 10
579.4596291166996
 20
327.0616115702483
 30
0.0
 10
577.6533612553981
 20
327.0616115702483
 30
0.0
 10
576.7274982957565
 20
327.0616115702483
 30
0.0
 10
574.8756972965293
 20
327.0616115702483
 30
0.0
 10
573.9498343368879
 20
327.0616115702483
 30
0.0
 10
572.1435664755863
 20
327.0616115702483
 30
0.0
 10
571.2632348077622
 20
327.0616115702483
 30
0.0
 10
569.5913271707673
 20
327.0616115702483
 30
0.0
 10
568.7998189878937
 20
327.0616115702483
 30
0.0
 10
567.3444912101081
 20
327.0616115702483
 30
0.0
 10
566.6807306204181
 20
327.0616115702483
 30
0.0
 10
566.0971410896192
 20
327.0616115702483
 30
0.0
  0
SPLINE
  5
128
330
1F
100
AcDbEntity
  8
0
  6
Continuous
 62
     7
370
    15
100
AcDbSpline
210
0.0
220
0.0
230
1.0
 70
     8
 71
     3
 72
     8
 73
     4
 74
     0
 42
0.00000001
 43
0.00000001
 40
0.0
 40
0.0
 40
0.0
 40
0.0
 40
0.0000226150302117
 40
0.0000226150302117
 40
0.0000226150302117
 40
0.0000226150302117
 10
585.5202876306199
 20
327.063480634371
 30
0.0
 10
585.5155509344316
 20
327.0631677910046
 30
0.0
 10
585.5108041227794
 20
327.0630041161365
 30
0.0
 10
585.506052758433
 20
327.0629889804879
 30
0.0
  0
LINE
  5
129
330
1F
100
AcDbEntity
  8
0
  6
Continuous
 62
     7
370
    15
100
AcDbLine
 10
585.5202878637
 20
308.2864258779
 30
0.0
 11
585.5202878637
 21
327.0616133107
 31
0.0
  0
SPLINE
  5
12A
330
1F
100
AcDbEntity
  8
0
  6
Continuous
 62
     7
370
    15
100
AcDbSpline
210
0.0
220
0.0
230
1.0
 70
     8
 71
     3
 72
    16
 73
    12
 74
     0
 42
0.00000001
 43
0.00000001
 40
0.0
 40
0.0
 40
0.0
 40
0.0
 40
0.1249999999999999
 40
0.1249999999999999
 40
0.2499999999999998
 40
0.2499999999999998
 40
0.4999999999999999
 40
0.4999999999999999
 40
0.7499999999999999
 40
0.7499999999999999
 40
1.0
 40
1.0
 40
1.0
 40
1.0
 10
588.0730877117159
 20
305.6681093779573
 30
0.0
 10
588.0189452877055
 20
305.6627444762993
 30
0.0
 10
587.9560290846314
 20
305.6830929675855
 30
0.0
 10
587.8135747489137
 20
305.7641814707019
 30
0.0
 10
587.7335059758605
 20
305.8255253802978
 30
0.0
 10
587.4729599452744
 20
306.0569229231835
 30
0.0
 10
587.2750773600554
 20
306.2703159867916
 30
0.0
 10
586.8374417394703
 20
306.7676363385027
 30
0.0
 10
586.5971121293633
 20
307.0529688759935
 30
0.0
 10
586.085464676377
 20
307.6519689247369
 30
0.0
 10
585.8118124644251
 20
307.9685784085245
 30
0.0
 10
585.5202876306199
 20
308.2864224121375
 30
0.0
  0
LINE
  5
12B
330
1F
100
AcDbEntity
  8
0
  6
Continuous
 62
     7
370
    15
100
AcDbLine
 10
564.0884646026
 20
305.0616134299
 30
0.0
 11
587.5147309897
 21
305.0616134299
 31
0.0
  0
SPLINE
  5
12C
330
1F
100
AcDbEntity
  8
0
  6
Continuous
 62
     7
370
    15
100
AcDbSpline
210
0.0
220
0.0
230
1.0
 70
     8
 71
     3
 72
    44
 73
    40
 74
     0
 42
0.00000001
 43
0.00000001
 40
0.0
 40
0.0
 40
0.0
 40
0.0
 40
0.0625
 40
0.0625
 40
0.1250000000000001
 40
0.1250000000000001
 40
0.1875000000000001
 40
0.1875000000000001
 40
0.2500000000000002
 40
0.2500000000000002
 40
0.2812500000000002
 40
0.2812500000000002
 40
0.3125000000000002
 40
0.3125000000000002
 40
0.3750000000000003
 40
0.3750000000000003
 40
0.4375000000000004
 40
0.4375000000000004
 40
0.5000000000000006
 40
0.5000000000000006
 40
0.5625000000000007
 40
0.5625000000000007
 40
0.5937500000000007
 40
0.5937500000000007
 40
0.6250000000000006
 40
0.6250000000000006
 40
0.6874999999999998
 40
0.6874999999999998
 40
0.7187499999999998
 40
0.7187499999999998
 40
0.7499999999999998
 40
0.7499999999999998
 40
0.8124999999999999
 40
0.8124999999999999
 40
0.8749999999999999
 40
0.8749999999999999
 40
0.9375
 40
0.9375
 40
1.0
 40
1.0
 40
1.0
 40
1.0
 10
585.5061646773519
 20
327.0616115702483
 30
0.0
 10
585.4342238174756
 20
327.6872655731582
 30
0.0
 10
585.3168800658499
 20
328.3081704001378
 30
0.0
 10
584.9945374718541
 20
329.5277861472457
 30
0.0
 10
584.7909736917544
 20
330.1191552998777
 30
0.0
 10
584.2933462162006
 20
331.2626485640563
 30
0.0
 10
583.9993616670188
 20
331.8148055766671
 30
0.0
 10
583.3083888863088
 20
332.8744540676855
 30
0.0
 10
582.9201928434513
 20
333.3650183410685
 30
0.0
 10
582.2744902588283
 20
334.0424913669609
 30
0.0
 10
582.0486434862523
 20
334.2585522197647
 30
0.0
 10
581.5750492531163
 20
334.6705306516121
 30
0.0
 10
581.3259385598195
 20
334.8673373339554
 30
0.0
 10
580.5579009314758
 20
335.4159133545324
 30
0.0
 10
580.0170399010794
 20
335.7285693379273
 30
0.0
 10
578.8745259838971
 20
336.242063295881
 30
0.0
 10
578.2688236880548
 20
336.4432957039777
 30
0.0
 10
577.0470163391468
 20
336.7116775529744
 30
0.0
 10
576.4249969884045
 20
336.7825021063768
 30
0.0
 10
575.1574502012336
 20
336.7809138240288
 30
0.0
 10
574.5349778449989
 20
336.708650560898
 30
0.0
 10
573.6164212244244
 20
336.5043894217006
 30
0.0
 10
573.3115679910453
 20
336.4196772323942
 30
0.0
 10
572.7126767734089
 20
336.21930533778
 30
0.0
 10
572.4210545385428
 20
336.1046091139653
 30
0.0
 10
571.5685657425252
 20
335.718971685503
 30
0.0
 10
571.0301449108681
 20
335.4063438140458
 30
0.0
 10
570.2652086243522
 20
334.8580816683874
 30
0.0
 10
570.0161753043604
 20
334.6607497742796
 30
0.0
 10
569.5430875313384
 20
334.2479144021385
 30
0.0
 10
569.3180394417504
 20
334.0319003231122
 30
0.0
 10
568.6758883971773
 20
333.356313942862
 30
0.0
 10
568.2916126605096
 20
332.8693358256002
 30
0.0
 10
567.6092859714929
 20
331.823385872422
 30
0.0
 10
567.3094577891982
 20
331.262122204682
 30
0.0
 10
566.8103746184903
 20
330.1145353057481
 30
0.0
 10
566.6075159543495
 20
329.5236403127917
 30
0.0
 10
566.2869833794097
 20
328.3105213629564
 30
0.0
 10
566.1689717700829
 20
327.6872655737288
 30
0.0
 10
566.0970309149345
 20
327.0616115702483
 30
0.0
  0
SPLINE
  5
12D
330
1F
100
AcDbEntity
  8
0
  6
Continuous
 62
     7
370
    15
100
AcDbSpline
210
0.0
220
0.0
230
1.0
 70
     8
 71
     3
 72
    44
 73
    40
 74
     0
 42
0.00000001
 43
0.00000001
 40
0.0
 40
0.0
 40
0.0
 40
0.0
 40
0.0624999999999991
 40
0.0624999999999991
 40
0.1249999999999982
 40
0.1249999999999982
 40
0.1874999999999973
 40
0.1874999999999973
 40
0.2499999999999964
 40
0.2499999999999964
 40
0.2812499999999965
 40
0.2812499999999965
 40
0.3124999999999966
 40
0.3124999999999966
 40
0.3749999999999967
 40
0.3749999999999967
 40
0.4062499999999964
 40
0.4062499999999964
 40
0.4374999999999962
 40
0.4374999999999962
 40
0.4999999999999958
 40
0.4999999999999958
 40
0.5624999999999953
 40
0.5624999999999953
 40
0.6249999999999949
 40
0.6249999999999949
 40
0.6874999999999944
 40
0.6874999999999944
 40
0.7187499999999946
 40
0.7187499999999946
 40
0.7499999999999947
 40
0.7499999999999947
 40
0.812499999999996
 40
0.812499999999996
 40
0.8749999999999973
 40
0.8749999999999973
 40
0.9374999999999987
 40
0.9374999999999987
 40
1.0
 40
1.0
 40
1.0
 40
1.0
 10
566.0970309149338
 20
531.9616115702482
 30
0.0
 10
566.1690193944409
 20
531.3355433894124
 30
0.0
 10
566.2869833870883
 20
530.7127017419238
 30
0.0
 10
566.6075159643424
 20
529.4995827964354
 30
0.0
 10
566.8103746294573
 20
528.9086878055829
 30
0.0
 10
567.3094578018164
 20
527.7611009107447
 30
0.0
 10
567.6092859847217
 20
527.1998372451826
 30
0.0
 10
568.2916126741516
 20
526.153887296596
 30
0.0
 10
568.6758884108604
 20
525.6669091814904
 30
0.0
 10
569.318039455138
 20
524.9913228041731
 30
0.0
 10
569.5430875445768
 20
524.7753087260816
 30
0.0
 10
570.0161753172059
 20
524.3624733557303
 30
0.0
 10
570.2652086368455
 20
524.1651414625696
 30
0.0
 10
571.0301449220316
 20
523.6168793196183
 30
0.0
 10
571.5685657526533
 20
523.3042514496855
 30
0.0
 10
572.4210545469056
 20
522.918614023111
 30
0.0
 10
572.7126767811468
 20
522.8039177998564
 30
0.0
 10
573.3115679974605
 20
522.6035459062266
 30
0.0
 10
573.6164212300245
 20
522.5188337173737
 30
0.0
 10
574.5349778482661
 20
522.3145725792255
 30
0.0
 10
575.1574502028943
 20
522.2423093164658
 30
0.0
 10
576.4249969867374
 20
522.2407210341216
 30
0.0
 10
577.047016335878
 20
522.3115455871559
 30
0.0
 10
578.2688236816942
 20
522.5799274347702
 30
0.0
 10
578.8745259760757
 20
522.7811598418322
 30
0.0
 10
580.0170398908978
 20
523.2946537972621
 30
0.0
 10
580.557900920259
 20
523.6073097791282
 30
0.0
 10
581.3259385472765
 20
524.1558857969949
 30
0.0
 10
581.5750492402766
 20
524.3526924784381
 30
0.0
 10
582.0486434729763
 20
524.7646709084614
 30
0.0
 10
582.2744902453825
 20
524.9807317603091
 30
0.0
 10
582.920192829651
 20
525.6582047831893
 30
0.0
 10
583.3083888722452
 20
526.1487690539263
 30
0.0
 10
583.9993616538673
 20
527.2084175409806
 30
0.0
 10
584.2933462036599
 20
527.7605745515424
 30
0.0
 10
584.7909736807753
 20
528.9040678114746
 30
0.0
 10
584.9945374618204
 20
529.495436961912
 30
0.0
 10
585.3168800581093
 20
530.7150527044522
 30
0.0
 10
585.4341761936611
 20
531.3355433899175
 30
0.0
 10
585.5061646773512
 20
531.9616115702484
 30
0.0
  0
SPLINE
  5
12E
330
1F
100
AcDbEntity
  8
0
  6
Continuous
 62
     7
370
    15
100
AcDbSpline
210
0.0
220
0.0
230
1.0
 70
     8
 71
     3
 72
    18
 73
    14
 74
     0
 42
0.00000001
 43
0.00000001
 40
0.0
 40
0.0
 40
0.0
 40
0.0
 40
0.2500000000000002
 40
0.2500000000000002
 40
0.5000000000000003
 40
0.5000000000000003
 40
0.7500000000000004
 40
0.7500000000000004
 40
0.8750000000000002
 40
0.8750000000000002
 40
0.9375000000000002
 40
0.9375000000000002
 40
1.0
 40
1.0
 40
1.0
 40
1.0
 10
585.5202876306191
 20
531.9597425061255
 30
0.0
 10
585.9913426874879
 20
531.928630852793
 30
0.0
 10
586.5179837850516
 20
531.8937243055494
 30
0.0
 10
587.6780527857977
 20
531.8163996215891
 30
0.0
 10
588.3191938814214
 20
531.7734588600531
 30
0.0
 10
589.6530332208182
 20
531.6835316568689
 30
0.0
 10
590.3502274008515
 20
531.636251263343
 30
0.0
 10
591.4429092994128
 20
531.5616005100987
 30
0.0
 10
591.8109039696444
 20
531.5363709404697
 30
0.0
 10
592.3652610379488
 20
531.4982220639343
 30
0.0
 10
592.5506144986789
 20
531.485443154862
 30
0.0
 10
592.9224618078144
 20
531.4597580046653
 30
0.0
 10
593.1109268048708
 20
531.4467126566127
 30
0.0
 10
593.2952394981991
 20
531.4339350342741
 30
0.0
  0
SPLINE
  5
12F
330
1F
100
AcDbEntity
  8
0
  6
Continuous
 62
     7
370
    15
100
AcDbSpline
210
0.0
220
0.0
230
1.0
 70
     8
 71
     3
 72
    58
 73
    54
 74
     0
 42
0.00000001
 43
0.00000001
 40
0.0
 40
0.0
 40
0.0
 40
0.0
 40
0.0156249999999991
 40
0.0156249999999991
 40
0.0312499999999983
 40
0.0312499999999983
 40
0.0624999999999973
 40
0.0624999999999973
 40
0.1249999999999963
 40
0.1249999999999963
 40
0.1562499999999957
 40
0.1562499999999957
 40
0.1874999999999951
 40
0.1874999999999951
 40
0.2499999999999946
 40
0.2499999999999946
 40
0.2812499999999946
 40
0.2812499999999946
 40
0.3124999999999946
 40
0.3124999999999946
 40
0.3749999999999947
 40
0.3749999999999947
 40
0.406249999999995
 40
0.406249999999995
 40
0.4374999999999952
 40
0.4374999999999952
 40
0.4999999999999957
 40
0.4999999999999957
 40
0.562499999999996
 40
0.562499999999996
 40
0.5937499999999962
 40
0.5937499999999962
 40
0.6249999999999963
 40
0.6249999999999963
 40
0.6874999999999967
 40
0.6874999999999967
 40
0.7187499999999971
 40
0.7187499999999971
 40
0.7499999999999974
 40
0.7499999999999974
 40
0.8124999999999984
 40
0.8124999999999984
 40
0.8437499999999986
 40
0.8437499999999986
 40
0.8749999999999988
 40
0.8749999999999988
 40
0.937499999999999
 40
0.937499999999999
 40
0.9687499999999994
 40
0.9687499999999994
 40
0.9843749999999998
 40
0.9843749999999998
 40
1.0
 40
1.0
 40
1.0
 40
1.0
 10
593.2952394982008
 20
531.4339350342743
 30
0.0
 10
593.2566663646454
 20
531.1571218064029
 30
0.0
 10
593.2219337459744
 20
530.8795919277776
 30
0.0
 10
593.1391718708992
 20
530.3271301843172
 30
0.0
 10
593.0921004663594
 20
530.0520284326724
 30
0.0
 10
592.9341710323155
 20
529.2300398635401
 30
0.0
 10
592.8066615983324
 20
528.6864570692969
 30
0.0
 10
592.3575957879837
 20
527.0689112650438
 30
0.0
 10
591.974927066405
 20
526.0260699144948
 30
0.0
 10
591.277738773789
 20
524.5197953267545
 30
0.0
 10
591.0245839338675
 20
524.0271708919537
 30
0.0
 10
590.4751172270029
 20
523.0616039300162
 30
0.0
 10
590.1774808149333
 20
522.5867984562148
 30
0.0
 10
589.2254712969152
 20
521.2077514601841
 30
0.0
 10
588.518026373608
 20
520.3548448533061
 30
0.0
 10
587.3461968620971
 20
519.1765457753753
 30
0.0
 10
586.9370415501936
 20
518.8007158438382
 30
0.0
 10
586.0799345619472
 20
518.084486285657
 30
0.0
 10
585.6328821990986
 20
517.7452367818844
 30
0.0
 10
584.2590129212128
 20
516.8019744839677
 30
0.0
 10
583.2916117738464
 20
516.2649801508029
 30
0.0
 10
581.7601482913192
 20
515.6028416717227
 30
0.0
 10
581.2331683042391
 20
515.4053068460821
 30
0.0
 10
580.1706760076929
 20
515.0671386431837
 30
0.0
 10
579.6345149424993
 20
514.925832931504
 30
0.0
 10
578.0113888261719
 20
514.5846754374533
 30
0.0
 10
576.9096218859548
 20
514.4665479981703
 30
0.0
 10
574.6653016280256
 20
514.46857131438
 30
0.0
 10
573.5625893940288
 20
514.5885924607971
 30
0.0
 10
571.9355394104925
 20
514.9339604336108
 30
0.0
 10
571.3977341323317
 20
515.076894037767
 30
0.0
 10
570.3313197881146
 20
515.4190365652735
 30
0.0
 10
569.8086286418535
 20
515.6165247851827
 30
0.0
 10
568.2850564647661
 20
516.2789615460916
 30
0.0
 10
567.3219854453051
 20
516.8155044478518
 30
0.0
 10
565.953537867626
 20
517.7576358287691
 30
0.0
 10
565.5088644671818
 20
518.0957481548741
 30
0.0
 10
564.651054822544
 20
518.8141285891733
 30
0.0
 10
564.242510091346
 20
519.1903263683331
 30
0.0
 10
563.0745730369348
 20
520.3671163306026
 30
0.0
 10
562.3724641518388
 20
521.2155595581964
 30
0.0
 10
561.4299130431732
 20
522.5806230122546
 30
0.0
 10
561.1342957211325
 20
523.0511533708943
 30
0.0
 10
560.5804599206476
 20
524.023454771125
 30
0.0
 10
560.3255081839868
 20
524.5195677952411
 30
0.0
 10
559.6259313201423
 20
526.031353117197
 30
0.0
 10
559.2447006249524
 20
527.0724296303971
 30
0.0
 10
558.7975420355984
 20
528.6826865909078
 30
0.0
 10
558.6693166880199
 20
529.2286256572856
 30
0.0
 10
558.5111574460028
 20
530.0516510465237
 30
0.0
 10
558.4640478208509
 20
530.3269751217927
 30
0.0
 10
558.38125615179
 20
530.8796241327495
 30
0.0
 10
558.3465299765578
 20
531.157116431921
 30
0.0
 10
558.3079560940838
 20
531.4339350342741
 30
0.0
  0
SPLINE
  5
130
330
1F
100
AcDbEntity
  8
0
  6
Continuous
 62
     7
370
    15
100
AcDbSpline
210
0.0
220
0.0
230
1.0
 70
     8
 71
     3
 72
    18
 73
    14
 74
     0
 42
0.00000001
 43
0.00000001
 40
0.0
 40
0.0
 40
0.0
 40
0.0
 40
0.25
 40
0.25
 40
0.5
 40
0.5
 40
0.75
 40
0.75
 40
0.8749999999999996
 40
0.8749999999999996
 40
0.9374999999999998
 40
0.9374999999999998
 40
1.0
 40
1.0
 40
1.0
 40
1.0
 10
566.0829079616652
 20
531.9597425061255
 30
0.0
 10
565.6118514157996
 20
531.9286307544496
 30
0.0
 10
565.0852105985261
 20
531.8937242244846
 30
0.0
 10
563.9251483720668
 20
531.816399993062
 30
0.0
 10
563.2840051123328
 20
531.7734590891074
 30
0.0
 10
561.9501609314763
 20
531.6835315600572
 30
0.0
 10
561.2529726577502
 20
531.6362515615399
 30
0.0
 10
560.1603162473826
 20
531.5616025600222
 30
0.0
 10
559.7923033470341
 20
531.536371746031
 30
0.0
 10
559.237939975004
 20
531.4982224376154
 30
0.0
 10
559.0525848011554
 20
531.4854434107449
 30
0.0
 10
558.6807348603386
 20
531.4597580791775
 30
0.0
 10
558.4922681402984
 20
531.446712611623
 30
0.0
 10
558.3079560940838
 20
531.4339350342742
 30
0.0
  0
SPLINE
  5
131
330
1F
100
AcDbEntity
  8
0
  6
Continuous
 62
     7
370
    15
100
AcDbSpline
210
0.0
220
0.0
230
1.0
 70
     8
 71
     3
 72
    18
 73
    14
 74
     0
 42
0.00000001
 43
0.00000001
 40
0.0
 40
0.0
 40
0.0
 40
0.0
 40
0.2499999999999999
 40
0.2499999999999999
 40
0.4999999999999998
 40
0.4999999999999998
 40
0.7499999999999997
 40
0.7499999999999997
 40
0.8749999999999998
 40
0.8749999999999998
 40
0.9374999999999999
 40
0.9374999999999999
 40
1.0
 40
1.0
 40
1.0
 40
1.0
 10
566.082907961666
 20
327.063480634371
 30
0.0
 10
565.611852904797
 20
327.0945922877036
 30
0.0
 10
565.0852118072331
 20
327.1294988349474
 30
0.0
 10
563.9251428064864
 20
327.2068235189079
 30
0.0
 10
563.2840017108623
 20
327.2497642804436
 30
0.0
 10
561.950162371465
 20
327.339691483628
 30
0.0
 10
561.2529681914314
 20
327.3869718771545
 30
0.0
 10
560.1602862928695
 20
327.4616226303989
 30
0.0
 10
559.792291622637
 20
327.4868522000174
 30
0.0
 10
559.2379345543321
 20
327.5250010765502
 30
0.0
 10
559.0525810936032
 20
327.5377799856387
 30
0.0
 10
558.6807337844676
 20
327.563465135839
 30
0.0
 10
558.4922687874183
 20
327.5765104839929
 30
0.0
 10
558.3079560940823
 20
327.5892881062222
 30
0.0
  0
SPLINE
  5
132
330
1F
100
AcDbEntity
  8
0
  6
Continuous
 62
     7
370
    15
100
AcDbSpline
210
0.0
220
0.0
230
1.0
 70
     8
 71
     3
 72
    58
 73
    54
 74
     0
 42
0.00000001
 43
0.00000001
 40
0.0
 40
0.0
 40
0.0
 40
0.0
 40
0.0156250000000003
 40
0.0156250000000003
 40
0.0312500000000006
 40
0.0312500000000006
 40
0.0625000000000012
 40
0.0625000000000012
 40
0.1250000000000018
 40
0.1250000000000018
 40
0.1562500000000017
 40
0.1562500000000017
 40
0.1875000000000016
 40
0.1875000000000016
 40
0.2500000000000014
 40
0.2500000000000014
 40
0.2812500000000014
 40
0.2812500000000014
 40
0.3125000000000013
 40
0.3125000000000013
 40
0.3750000000000012
 40
0.3750000000000012
 40
0.4062500000000011
 40
0.4062500000000011
 40
0.4375000000000011
 40
0.4375000000000011
 40
0.5000000000000009
 40
0.5000000000000009
 40
0.5625000000000008
 40
0.5625000000000008
 40
0.5937500000000006
 40
0.5937500000000006
 40
0.6250000000000004
 40
0.6250000000000004
 40
0.6875000000000001
 40
0.6875000000000001
 40
0.7187499999999999
 40
0.7187499999999999
 40
0.7499999999999998
 40
0.7499999999999998
 40
0.8124999999999999
 40
0.8124999999999999
 40
0.8437500000000002
 40
0.8437500000000002
 40
0.8750000000000007
 40
0.8750000000000007
 40
0.9375000000000008
 40
0.9375000000000008
 40
0.9687500000000008
 40
0.9687500000000008
 40
0.9843750000000004
 40
0.9843750000000004
 40
1.0
 40
1.0
 40
1.0
 40
1.0
 10
558.3079560940845
 20
327.5892881062224
 30
0.0
 10
558.34653036314
 20
327.8661094828082
 30
0.0
 10
558.3812568668449
 20
328.1436045663866
 30
0.0
 10
558.4640495949765
 20
328.6962590757495
 30
0.0
 10
558.5111598625754
 20
328.9715858804514
 30
0.0
 10
558.6693213651802
 20
329.7946193996404
 30
0.0
 10
558.7975486624368
 20
330.3405637743361
 30
0.0
 10
559.2447142594751
 20
331.9508358870379
 30
0.0
 10
559.6259512434021
 20
332.9919218709052
 30
0.0
 10
560.3255402888132
 20
334.5037203266489
 30
0.0
 10
560.58049689683
 20
334.9998381470699
 30
0.0
 10
561.1343420020677
 20
335.9721461554518
 30
0.0
 10
561.4299643367827
 20
336.4426795171953
 30
0.0
 10
562.3725315950271
 20
337.8077510520391
 30
0.0
 10
563.0746526888341
 20
338.6561984619916
 30
0.0
 10
564.2426107245499
 20
339.8329924689126
 30
0.0
 10
564.6511628992162
 20
340.2091912206367
 30
0.0
 10
565.5089885060271
 20
340.9275727018776
 30
0.0
 10
565.9536678784401
 20
341.2656832016672
 30
0.0
 10
567.3221368558726
 20
342.2078101674901
 30
0.0
 10
568.2852231355769
 20
342.7443483341019
 30
0.0
 10
569.8088201493567
 20
343.4067744829897
 30
0.0
 10
570.3315216482576
 20
343.6042590747729
 30
0.0
 10
571.3979490827357
 20
343.9463903273644
 30
0.0
 10
571.9357609811746
 20
344.0893178342038
 30
0.0
 10
573.5628311071949
 20
344.4346657915274
 30
0.0
 10
574.6655571331823
 20
344.5546713688461
 30
0.0
 10
576.9099061950216
 20
344.5566560816086
 30
0.0
 10
578.0116743136849
 20
344.4385083971
 30
0.0
 10
579.6348113993794
 20
344.0973175441796
 30
0.0
 10
580.1709760316944
 20
343.956000207971
 30
0.0
 10
581.2334752226943
 20
343.6178074007649
 30
0.0
 10
581.7604555456219
 20
343.4202606118076
 30
0.0
 10
583.2919181456501
 20
342.7580865440091
 30
0.0
 10
584.2593180832048
 20
342.2210673764085
 30
0.0
 10
585.6331839824855
 20
341.2777650371041
 30
0.0
 10
586.080235576872
 20
340.9385009892668
 30
0.0
 10
586.937333224754
 20
340.2222478786486
 30
0.0
 10
587.3464837411915
 20
339.8464060564792
 30
0.0
 10
588.5182981660032
 20
338.66807066711
 30
0.0
 10
589.2257321054844
 20
337.8151390069241
 30
0.0
 10
590.1777224997905
 20
336.4360520127022
 30
0.0
 10
590.4753491923963
 20
335.961237475214
 30
0.0
 10
591.0247979992116
 20
334.9956501618023
 30
0.0
 10
591.277943755174
 20
334.503015490183
 30
0.0
 10
591.9751040063234
 20
332.9967098318926
 30
0.0
 10
592.3577569953503
 20
331.9538328656055
 30
0.0
 10
592.8067833487361
 20
330.3362766574922
 30
0.0
 10
592.9342681716784
 20
329.7927319027696
 30
0.0
 10
593.0921584610112
 20
328.9708657231511
 30
0.0
 10
593.139216437912
 20
328.6958156862795
 30
0.0
 10
593.2219533364262
 20
328.1434801955297
 30
0.0
 10
593.256679431961
 20
327.8660075588347
 30
0.0
 10
593.2952394982015
 20
327.5892881062225
 30
0.0
  0
SPLINE
  5
133
330
1F
100
AcDbEntity
  8
0
  6
Continuous
 62
     7
370
    15
100
AcDbSpline
210
0.0
220
0.0
230
1.0
 70
     8
 71
     3
 72
    18
 73
    14
 74
     0
 42
0.00000001
 43
0.00000001
 40
0.0
 40
0.0
 40
0.0
 40
0.0
 40
0.2499999999999998
 40
0.2499999999999998
 40
0.4999999999999996
 40
0.4999999999999996
 40
0.7499999999999993
 40
0.7499999999999993
 40
0.8749999999999992
 40
0.8749999999999992
 40
0.9374999999999996
 40
0.9374999999999996
 40
1.0
 40
1.0
 40
1.0
 40
1.0
 10
585.5202876306199
 20
327.063480634371
 30
0.0
 10
585.9913441764855
 20
327.094592386047
 30
0.0
 10
586.5179849937592
 20
327.1294989160119
 30
0.0
 10
587.6780472202183
 20
327.2068231474346
 30
0.0
 10
588.3191904799525
 20
327.2497640513893
 30
0.0
 10
589.6530346608089
 20
327.3396915804395
 30
0.0
 10
590.350222934535
 20
327.3869715789561
 30
0.0
 10
591.4428793449026
 20
327.4616205804735
 30
0.0
 10
591.8108922452504
 20
327.4868513944743
 30
0.0
 10
592.3652556172804
 20
327.5250007028928
 30
0.0
 10
592.5506107911299
 20
327.5377797297499
 30
0.0
 10
592.9224607319469
 20
327.5634650613158
 30
0.0
 10
593.1109274519832
 20
327.5765105289242
 30
0.0
 10
593.2952394982015
 20
327.5892881062226
 30
0.0
  0
SPLINE
  5
134
330
1F
100
AcDbEntity
  8
0
  6
Continuous
 62
     7
370
    15
100
AcDbSpline
210
0.0
220
0.0
230
1.0
 70
     8
 71
     3
 72
    12
 73
     8
 74
     0
 42
0.00000001
 43
0.00000001
 40
0.0
 40
0.0
 40
0.0
 40
0.0
 40
0.2500000000000002
 40
0.2500000000000002
 40
0.5000000000000003
 40
0.5000000000000003
 40
1.0
 40
1.0
 40
1.0
 40
1.0
 10
588.073087711715
 20
553.3551137625394
 30
0.0
 10
588.5195907085402
 20
553.3108703672394
 30
0.0
 10
588.9766571064099
 20
553.2631318537005
 30
0.0
 10
589.9058204831074
 20
553.1606789451835
 30
0.0
 10
590.3744307899822
 20
553.106358837772
 30
0.0
 10
591.7917617444043
 20
552.933745773418
 30
0.0
 10
592.7518393434343
 20
552.8058272200691
 30
0.0
 10
593.7273590956167
 20
552.6638327513309
 30
0.0
  0
LWPOLYLINE
  5
135
330
1F
100
AcDbEntity
  8
0
  6
Continuous
 62
     7
370
    15
100
AcDbPolyline
 90
        9
 70
   128
 43
0.0
 10
593.7273594362
 20
552.6638303293
 10
593.7190557641
 20
552.6067886843
 10
593.6944651229
 20
552.4378542198
 10
593.6545337362
 20
552.1635163916
 10
593.600794561
 20
551.7943177713
 10
593.5353114081
 20
551.3444442643
 10
593.4606044365
 20
550.8311961187
 10
593.3795421196
 20
550.2742875708
 10
593.2952388001
 20
549.6951166881
  0
SPLINE
  5
136
330
1F
100
AcDbEntity
  8
0
  6
Continuous
 62
     7
370
    15
100
AcDbSpline
210
0.0
220
0.0
230
1.0
 70
     8
 71
     3
 72
    16
 73
    12
 74
     0
 42
0.00000001
 43
0.00000001
 40
0.0
 40
0.0
 40
0.0
 40
0.0
 40
0.2500000000000004
 40
0.2500000000000004
 40
0.3750000000000003
 40
0.3750000000000003
 40
0.5000000000000002
 40
0.5000000000000002
 40
0.7500000000000001
 40
0.7500000000000001
 40
1.0
 40
1.0
 40
1.0
 40
1.0
 10
593.2952394982007
 20
549.695117094093
 30
0.0
 10
592.554438636589
 20
549.8352952011126
 30
0.0
 10
591.8252183645242
 20
549.961468701097
 30
0.0
 10
590.748614289723
 20
550.131531370415
 30
0.0
 10
590.3926462218708
 20
550.1850124631854
 30
0.0
 10
589.6868554420106
 20
550.2858028959959
 30
0.0
 10
589.3422421685959
 20
550.3323607007455
 30
0.0
 10
588.3394916033722
 20
550.4609263639633
 30
0.0
 10
587.7090273558115
 20
550.5323134363736
 30
0.0
 10
586.5281921548798
 20
550.6523002515635
 30
0.0
 10
585.9939857053637
 20
550.6992798137766
 30
0.0
 10
585.5202876306191
 20
550.7368007283592
 30
0.0
  0
SPLINE
  5
137
330
1F
100
AcDbEntity
  8
0
  6
Continuous
 62
     7
370
    15
100
AcDbSpline
210
0.0
220
0.0
230
1.0
 70
     8
 71
     3
 72
    16
 73
    12
 74
     0
 42
0.00000001
 43
0.00000001
 40
0.0
 40
0.0
 40
0.0
 40
0.0
 40
0.2500000000000004
 40
0.2500000000000004
 40
0.3750000000000004
 40
0.3750000000000004
 40
0.5000000000000003
 40
0.5000000000000003
 40
0.7500000000000002
 40
0.7500000000000002
 40
1.0
 40
1.0
 40
1.0
 40
1.0
 10
558.3079560940846
 20
309.3281060464036
 30
0.0
 10
559.0487569556963
 20
309.1879279393841
 30
0.0
 10
559.777977227761
 20
309.0617544393995
 30
0.0
 10
560.8545813025621
 20
308.8916917700816
 30
0.0
 10
561.2105493704144
 20
308.8382106773113
 30
0.0
 10
561.9163401502746
 20
308.7374202445008
 30
0.0
 10
562.2609534236892
 20
308.6908624397511
 30
0.0
 10
563.263703988913
 20
308.5622967765333
 30
0.0
 10
563.8941682364738
 20
308.4909097041229
 30
0.0
 10
565.0750034374055
 20
308.370922888933
 30
0.0
 10
565.6092098869216
 20
308.3239433267201
 30
0.0
 10
566.082907961666
 20
308.2864224121374
 30
0.0
  0
LINE
  5
138
330
1F
100
AcDbEntity
  8
0
  6
Continuous
 62
     7
370
    15
100
AcDbLine
 10
558.3079567922
 20
309.3281064524
 30
0.0
 11
558.3079567922
 21
327.5892857803
 31
0.0
  0
LINE
  5
139
330
1F
100
AcDbEntity
  8
0
  6
Continuous
 62
     7
370
    15
100
AcDbLine
 10
593.2952388001
 20
549.6951166881
 30
0.0
 11
593.2952388001
 21
531.4339373602
 31
0.0
  0
SPLINE
  5
13A
330
1F
100
AcDbEntity
  8
0
  6
Continuous
 62
     7
370
    15
100
AcDbSpline
210
0.0
220
0.0
230
1.0
 70
     8
 71
     3
 72
    12
 73
     8
 74
     0
 42
0.00000001
 43
0.00000001
 40
0.0
 40
0.0
 40
0.0
 40
0.0
 40
0.25
 40
0.25
 40
0.5
 40
0.5
 40
1.0
 40
1.0
 40
1.0
 40
1.0
 10
563.5301078805702
 20
305.6681093779573
 30
0.0
 10
563.083604883745
 20
305.7123527732571
 30
0.0
 10
562.6265384858752
 20
305.7600912867961
 30
0.0
 10
561.6973751091779
 20
305.862544195313
 30
0.0
 10
561.228764802303
 20
305.9168643027247
 30
0.0
 10
559.811433847881
 20
306.0894773670788
 30
0.0
 10
558.8513562488508
 20
306.2173959204275
 30
0.0
 10
557.8758364966685
 20
306.3593903891658
 30
0.0
  0
LWPOLYLINE
  5
13B
330
1F
100
AcDbEntity
  8
0
  6
Continuous
 62
     7
370
    15
100
AcDbPolyline
 90
        9
 70
   128
 43
0.0
 10
557.8758361561
 20
306.3593928112
 10
557.8841398281
 20
306.4164344562
 10
557.9087304694
 20
306.5853689207
 10
557.9486618561
 20
306.8597067489
 10
558.0024010313
 20
307.2289053692
 10
558.0678841842
 20
307.6787788762
 10
558.1425911558
 20
308.1920270218
 10
558.2236534727
 20
308.7489355697
 10
558.3079567922
 20
309.3281064524
  0
LINE
  5
13C
330
1F
100
AcDbEntity
  8
0
  6
Continuous
 62
     7
370
    15
100
AcDbLine
 10
593.2952388001
 20
327.5892857803
 30
0.0
 11
593.2952388001
 21
309.3281064524
 31
0.0
  0
SPLINE
  5
13D
330
1F
100
AcDbEntity
  8
0
  6
Continuous
 62
     7
370
    15
100
AcDbSpline
210
0.0
220
0.0
230
1.0
 70
     8
 71
     3
 72
    16
 73
    12
 74
     0
 42
0.00000001
 43
0.00000001
 40
0.0
 40
0.0
 40
0.0
 40
0.0
 40
0.25
 40
0.25
 40
0.5
 40
0.5
 40
0.6249999999999999
 40
0.6249999999999999
 40
0.7499999999999998
 40
0.7499999999999998
 40
1.0
 40
1.0
 40
1.0
 40
1.0
 10
585.5202876306199
 20
308.2864224121375
 30
0.0
 10
585.9939919884982
 20
308.3239438243978
 30
0.0
 10
586.5283317389168
 20
308.3709364194204
 30
0.0
 10
587.7090452913736
 20
308.4909121795761
 30
0.0
 10
588.3393922286256
 20
308.5622867630619
 30
0.0
 10
589.34185833031
 20
308.6908118637436
 30
0.0
 10
589.6861414743424
 20
308.7373212441249
 30
0.0
 10
590.392178429922
 20
308.8381409214841
 30
0.0
 10
590.7482509893368
 20
308.8916358012656
 30
0.0
 10
591.8251116188136
 20
309.0617347414947
 30
0.0
 10
592.5544277584081
 20
309.1879258809594
 30
0.0
 10
593.2952394982015
 20
309.3281060464037
 30
0.0
  0
SPLINE
  5
13E
330
1F
100
AcDbEntity
  8
0
  6
Continuous
 62
     7
370
    15
100
AcDbSpline
210
0.0
220
0.0
230
1.0
 70
     8
 71
     3
 72
    10
 73
     6
 74
     0
 42
0.00000001
 43
0.00000001
 40
0.0
 40
0.0
 40
0.0
 40
0.0
 40
0.5000000000000004
 40
0.5000000000000004
 40
1.0
 40
1.0
 40
1.0
 40
1.0
 10
593.7273590956175
 20
306.3593903891659
 30
0.0
 10
592.7519529453986
 20
306.2174124560748
 30
0.0
 10
591.7918791971036
 20
306.0894918571853
 30
0.0
 10
589.9019175664359
 20
305.8593179557623
 30
0.0
 10
588.9659866841206
 20
305.7565855639624
 30
0.0
 10
588.0730877117159
 20
305.6681093779573
 30
0.0
  0
LWPOLYLINE
  5
13F
330
1F
100
AcDbEntity
  8
0
  6
Continuous
 62
     7
370
    15
100
AcDbPolyline
 90
        9
 70
   128
 43
0.0
 10
593.7273594362
 20
306.3593928112
 10
593.7190557641
 20
306.4164344562
 10
593.6944651229
 20
306.5853689207
 10
593.6545337362
 20
306.8597067489
 10
593.600794561
 20
307.2289053692
 10
593.5353114081
 20
307.6787788762
 10
593.4606044365
 20
308.1920270218
 10
593.3795421196
 20
308.7489355697
 10
593.2952388001
 20
309.3281064524
  0
LINE
  5
140
330
1F
100
AcDbEntity
  8
0
  6
Continuous
 62
     7
370
    15
100
AcDbLine
 10
558.3079567922
 20
531.4339373602
 30
0.0
 11
558.3079567922
 21
549.6951166881
 31
0.0
  0
SPLINE
  5
141
330
1F
100
AcDbEntity
  8
0
  6
Continuous
 62
     7
370
    15
100
AcDbSpline
210
0.0
220
0.0
230
1.0
 70
     8
 71
     3
 72
    16
 73
    12
 74
     0
 42
0.00000001
 43
0.00000001
 40
0.0
 40
0.0
 40
0.0
 40
0.0
 40
0.2500000000000005
 40
0.2500000000000005
 40
0.500000000000001
 40
0.500000000000001
 40
0.6250000000000006
 40
0.6250000000000006
 40
0.7500000000000001
 40
0.7500000000000001
 40
1.0
 40
1.0
 40
1.0
 40
1.0
 10
566.0829079616652
 20
550.7368007283591
 30
0.0
 10
565.609203603787
 20
550.6992793160989
 30
0.0
 10
565.0748638533684
 20
550.6522867210762
 30
0.0
 10
563.8941503009116
 20
550.5323109609204
 30
0.0
 10
563.2638033636597
 20
550.4609363774347
 30
0.0
 10
562.2613372619752
 20
550.332411276753
 30
0.0
 10
561.9170541179428
 20
550.2859018963717
 30
0.0
 10
561.2110171623632
 20
550.1850822190124
 30
0.0
 10
560.8549446029484
 20
550.1315873392309
 30
0.0
 10
559.7780839734717
 20
549.961488399002
 30
0.0
 10
559.048767833877
 20
549.8352972595371
 30
0.0
 10
558.3079560940837
 20
549.6951170940929
 30
0.0
  0
SPLINE
  5
142
330
1F
100
AcDbEntity
  8
0
  6
Continuous
 62
     7
370
    15
100
AcDbSpline
210
0.0
220
0.0
230
1.0
 70
     8
 71
     3
 72
    10
 73
     6
 74
     0
 42
0.00000001
 43
0.00000001
 40
0.0
 40
0.0
 40
0.0
 40
0.0
 40
0.5
 40
0.5
 40
1.0
 40
1.0
 40
1.0
 40
1.0
 10
557.8758364966676
 20
552.6638327513307
 30
0.0
 10
558.8512426468868
 20
552.8058106844218
 30
0.0
 10
559.8113163951815
 20
552.9337312833113
 30
0.0
 10
561.7012780258492
 20
553.1639051847343
 30
0.0
 10
562.6372089081646
 20
553.2666375765342
 30
0.0
 10
563.5301078805693
 20
553.3551137625393
 30
0.0
  0
LWPOLYLINE
  5
143
330
1F
100
AcDbEntity
  8
0
  6
Continuous
 62
     7
370
    15
100
AcDbPolyline
 90
        9
 70
   128
 43
0.0
 10
557.8758361561
 20
552.6638303293
 10
557.8841398281
 20
552.6067886843
 10
557.9087304694
 20
552.4378542198
 10
557.9486618561
 20
552.1635163916
 10
558.0024010313
 20
551.7943177713
 10
558.0678841842
 20
551.3444442643
 10
558.1425911558
 20
550.8311961187
 10
558.2236534727
 20
550.2742875708
 10
558.3079567922
 20
549.6951166881
  0
ARC
  5
144
330
1F
100
AcDbEntity
  8
0
  6
Continuous
 62
     7
370
    15
100
AcDbCircle
 10
575.8015977961
 20
429.5116115702
 30
0.0
 40
124.45
100
AcDbArc
 50
98.281683904
 51
261.718316096
  0
ARC
  5
145
330
1F
100
AcDbEntity
  8
0
  6
Continuous
 62
     7
370
    15
100
AcDbCircle
 10
575.8015977961
 20
429.5116115702
 30
0.0
 40
121.45
100
AcDbArc
 50
98.281683904
 51
261.718316096
  0
ARC
  5
146
330
1F
100
AcDbEntity
  8
0
  6
Continuous
 62
     7
370
    15
100
AcDbCircle
 10
575.8015977961
 20
429.5116115702
 30
0.0
 40
121.45
100
AcDbArc
 50
278.281683904
 51
81.718316096
  0
ARC
  5
147
330
1F
100
AcDbEntity
  8
0
  6
Continuous
 62
     7
370
    15
100
AcDbCircle
 10
575.8015977961
 20
429.5116115702
 30
0.0
 40
124.4500000000001
100
AcDbArc
 50
278.281683904
 51
81.718316096
  0
CIRCLE
  5
148
330
1F
100
AcDbEntity
  8
0
  6
Continuous
 62
     7
370
    15
100
AcDbCircle
 10
575.8015977961
 20
429.5116115702
 30
0.0
 40
165.0000000000001
  0
CIRCLE
  5
149
330
1F
100
AcDbEntity
  8
0
  6
Continuous
 62
     7
370
    15
100
AcDbCircle
 10
420.8015977961
 20
429.5116115702
 30
0.0
 40
5.5
  0
CIRCLE
  5
14A
330
1F
100
AcDbEntity
  8
0
  6
Continuous
 62
     7
370
    15
100
AcDbCircle
 10
498.3015977961
 20
563.7455491568
 30
0.0
 40
5.5
  0
CIRCLE
  5
14B
330
1F
100
AcDbEntity
  8
0
  6
Continuous
 62
     7
370
    15
100
AcDbCircle
 10
730.8015977961
 20
429.5116115702
 30
0.0
 40
5.5
  0
CIRCLE
  5
14C
330
1F
100
AcDbEntity
  8
0
  6
Continuous
 62
     7
370
    15
100
AcDbCircle
 10
498.3015977961
 20
295.2776739837
 30
0.0
 40
5.5
  0
CIRCLE
  5
14D
330
1F
100
AcDbEntity
  8
0
  6
Continuous
 62
     7
370
    15
100
AcDbCircle
 10
653.3015977961
 20
295.2776739837
 30
0.0
 40
5.499999999999943
  0
CIRCLE
  5
14E
330
1F
100
AcDbEntity
  8
0
  6
Continuous
 62
     7
370
    15
100
AcDbCircle
 10
653.3015977961
 20
563.7455491568
 30
0.0
 40
5.499999999999886
  0
CIRCLE
  5
14F
330
1F
100
AcDbEntity
  8
0
  6
Continuous
 62
     7
370
    15
100
AcDbCircle
 10
575.8015977961
 20
429.5116115702
 30
0.0
 40
125.5000000000002
  0
CIRCLE
  5
150
330
1F
100
AcDbEntity
  8
0
  6
Continuous
 62
     7
370
    15
100
AcDbCircle
 10
575.8015977961
 20
429.5116115702
 30
0.0
 40
125.0
  0
LINE
  5
151
330
1F
100
AcDbEntity
  8
0
  6
Continuous
 62
     7
370
    15
100
AcDbLine
 10
543.8015962762
 20
254.5116145505
 30
0.0
 11
607.8015993161
 21
254.5116145505
 31
0.0
  0
ARC
  5
152
330
1F
100
AcDbEntity
  8
0
  6
Continuous
 62
     7
370
    15
100
AcDbCircle
 10
575.8015977961
 20
429.5116115702
 30
0.0
 40
170.0
100
AcDbArc
 50
192.9863608541
 51
257.0136391459
  0
ARC
  5
153
330
1F
100
AcDbEntity
  8
0
  6
Continuous
 62
     7
370
    15
100
AcDbCircle
 10
402.35419943
 20
389.5116115702
 30
0.0
 40
8.0
100
AcDbArc
 50
12.9863608541
 51
90.0
  0
LINE
  5
154
330
1F
100
AcDbEntity
  8
0
  6
Continuous
 62
     7
370
    15
100
AcDbLine
 10
400.8016007764
 20
397.5116100503
 30
0.0
 11
402.3541974646
 21
397.5116100503
 31
0.0
  0
LINE
  5
155
330
1F
100
AcDbEntity
  8
0
  6
Continuous
 62
     7
370
    15
100
AcDbLine
 10
400.8016007764
 20
461.5116130902
 30
0.0
 11
400.8016007764
 21
397.5116100503
 31
0.0
  0
LINE
  5
156
330
1F
100
AcDbEntity
  8
0
  6
Continuous
 62
     7
370
    15
100
AcDbLine
 10
402.3541974646
 20
461.5116130902
 30
0.0
 11
400.8016007764
 21
461.5116130902
 31
0.0
  0
ARC
  5
157
330
1F
100
AcDbEntity
  8
0
  6
Continuous
 62
     7
370
    15
100
AcDbCircle
 10
402.35419943
 20
469.5116115702
 30
0.0
 40
8.000000000000064
100
AcDbArc
 50
270.0
 51
347.0136391459
  0
ARC
  5
158
330
1F
100
AcDbEntity
  8
0
  6
Continuous
 62
     7
370
    15
100
AcDbCircle
 10
575.8015977961
 20
429.5116115702
 30
0.0
 40
170.0000000000001
100
AcDbArc
 50
102.9863608541
 51
167.0136391459
  0
ARC
  5
159
330
1F
100
AcDbEntity
  8
0
  6
Continuous
 62
     7
370
    15
100
AcDbCircle
 10
535.8015977961
 20
602.9590099364
 30
0.0
 40
8.0
100
AcDbArc
 50
282.9863608541
 51
0.0
  0
LINE
  5
15A
330
1F
100
AcDbEntity
  8
0
  6
Continuous
 62
     7
370
    15
100
AcDbLine
 10
543.8015962762
 20
604.51160859
 30
0.0
 11
543.8015962762
 21
602.9590119017
 31
0.0
  0
LINE
  5
15B
330
1F
100
AcDbEntity
  8
0
  6
Continuous
 62
     7
370
    15
100
AcDbLine
 10
607.8015993161
 20
604.51160859
 30
0.0
 11
543.8015962762
 21
604.51160859
 31
0.0
  0
LINE
  5
15C
330
1F
100
AcDbEntity
  8
0
  6
Continuous
 62
     7
370
    15
100
AcDbLine
 10
607.8015993161
 20
602.9590119017
 30
0.0
 11
607.8015993161
 21
604.51160859
 31
0.0
  0
ARC
  5
15D
330
1F
100
AcDbEntity
  8
0
  6
Continuous
 62
     7
370
    15
100
AcDbCircle
 10
615.8015977961
 20
602.9590099364
 30
0.0
 40
7.999999999999927
100
AcDbArc
 50
180.0
 51
257.0136391459
  0
ARC
  5
15E
330
1F
100
AcDbEntity
  8
0
  6
Continuous
 62
     7
370
    15
100
AcDbCircle
 10
575.8015977961
 20
429.5116115702
 30
0.0
 40
170.0000000000001
100
AcDbArc
 50
12.9863608541
 51
77.0136391459
  0
ARC
  5
15F
330
1F
100
AcDbEntity
  8
0
  6
Continuous
 62
     7
370
    15
100
AcDbCircle
 10
749.2489961623
 20
469.5116115702
 30
0.0
 40
8.0
100
AcDbArc
 50
192.9863608541
 51
270.0
  0
LINE
  5
160
330
1F
100
AcDbEntity
  8
0
  6
Continuous
 62
     7
370
    15
100
AcDbLine
 10
750.8015948159
 20
461.5116130902
 30
0.0
 11
749.2489981276
 21
461.5116130902
 31
0.0
  0
ARC
  5
161
330
1F
100
AcDbEntity
  8
0
  6
Continuous
 62
     7
370
    15
100
AcDbCircle
 10
749.2489961623
 20
389.5116115702
 30
0.0
 40
8.000000000000052
100
AcDbArc
 50
90.0
 51
167.0136391459
  0
ARC
  5
162
330
1F
100
AcDbEntity
  8
0
  6
Continuous
 62
     7
370
    15
100
AcDbCircle
 10
615.8015977961
 20
256.0642132041
 30
0.0
 40
8.0
100
AcDbArc
 50
102.9863608541
 51
180.0
  0
LINE
  5
163
330
1F
100
AcDbEntity
  8
0
  6
Continuous
 62
     7
370
    15
100
AcDbLine
 10
607.8015993161
 20
254.5116145505
 30
0.0
 11
607.8015993161
 21
256.0642112388
 31
0.0
  0
CIRCLE
  5
164
330
1F
100
AcDbEntity
  8
0
  6
Continuous
 62
     7
370
    15
100
AcDbCircle
 10
498.3015977961
 20
563.7455491568
 30
0.0
 40
5.0
  0
CIRCLE
  5
165
330
1F
100
AcDbEntity
  8
0
  6
Continuous
 62
     7
370
    15
100
AcDbCircle
 10
653.3015977961
 20
563.7455491568
 30
0.0
 40
5.0
  0
CIRCLE
  5
166
330
1F
100
AcDbEntity
  8
0
  6
Continuous
 62
     7
370
    15
100
AcDbCircle
 10
420.8015977961
 20
429.5116115702
 30
0.0
 40
5.0
  0
CIRCLE
  5
167
330
1F
100
AcDbEntity
  8
0
  6
Continuous
 62
     7
370
    15
100
AcDbCircle
 10
498.3015977961
 20
295.2776739837
 30
0.0
 40
5.0
  0
CIRCLE
  5
168
330
1F
100
AcDbEntity
  8
0
  6
Continuous
 62
     7
370
    15
100
AcDbCircle
 10
730.8015977961
 20
429.5116115702
 30
0.0
 40
5.0
  0
ARC
  5
169
330
1F
100
AcDbEntity
  8
0
  6
Continuous
 62
     7
370
    15
100
AcDbCircle
 10
575.8015977961
 20
429.5116115702
 30
0.0
 40
170.0
100
AcDbArc
 50
282.9863608541
 51
347.0136391459
  0
LINE
  5
16A
330
1F
100
AcDbEntity
  8
0
  6
Continuous
 62
     7
370
    15
100
AcDbLine
 10
749.2489981276
 20
397.5116100503
 30
0.0
 11
750.8015948159
 21
397.5116100503
 31
0.0
  0
LINE
  5
16B
330
1F
100
AcDbEntity
  8
0
  6
Continuous
 62
     7
370
    15
100
AcDbLine
 10
543.8015962762
 20
256.0642112388
 30
0.0
 11
543.8015962762
 21
254.5116145505
 31
0.0
  0
LINE
  5
16C
330
1F
100
AcDbEntity
  8
0
  6
Continuous
 62
     7
370
    15
100
AcDbLine
 10
750.8015948159
 20
397.5116100503
 30
0.0
 11
750.8015948159
 21
461.5116130902
 31
0.0
  0
ARC
  5
16D
330
1F
100
AcDbEntity
  8
0
  6
Continuous
 62
     7
370
    15
100
AcDbCircle
 10
535.8015977961
 20
256.0642132041
 30
0.0
 40
8.000000000000064
100
AcDbArc
 50
0.0
 51
77.0136391459
  0
CIRCLE
  5
16E
330
1F
100
AcDbEntity
  8
0
  6
Continuous
 62
     7
370
    15
100
AcDbCircle
 10
653.3015977961
 20
295.2776739837
 30
0.0
 40
5.0
  0
SPLINE
  5
16F
330
1F
100
AcDbEntity
  8
0
  6
Continuous
 62
     7
370
    15
100
AcDbSpline
210
0.0
220
0.0
230
1.0
 70
     8
 71
     3
 72
    10
 73
     6
 74
     0
 42
0.00000001
 43
0.00000001
 40
0.0
 40
0.0
 40
0.0
 40
0.0
 40
0.122412227082006
 40
0.7038229206426485
 40
0.9999999999999999
 40
0.9999999999999999
 40
0.9999999999999999
 40
0.9999999999999999
 10
530.02308856672
 20
674.5171893729063
 30
0.0
 10
530.014911991624
 20
674.5369832224403
 30
0.0
 10
529.9678998499268
 20
674.6507901951738
 30
0.0
 10
529.9360376791669
 20
674.8642610665773
 30
0.0
 10
529.9300508343185
 20
675.049197425976
 30
0.0
 10
529.9280303341742
 20
675.11161159409
 30
0.0
  0
SPLINE
  5
170
330
1F
100
AcDbEntity
  8
0
  6
Continuous
 62
     7
370
    15
100
AcDbSpline
210
0.0
220
0.0
230
1.0
 70
     8
 71
     3
 72
    19
 73
    15
 74
     0
 42
0.00000001
 43
0.00000001
 40
0.0
 40
0.0
 40
0.0
 40
0.0
 40
0.0172341632066817
 40
0.047043053453246
 40
0.0896566403453518
 40
0.1563143393199682
 40
0.2853318718128977
 40
0.5000761487850528
 40
0.7435217794631391
 40
0.8659880097483498
 40
0.9101180962254853
 40
0.9545662960663704
 40
0.9863565109793696
 40
1.0
 40
1.0
 40
1.0
 40
1.0
 10
529.9280303341742
 20
675.11161159409
 30
0.0
 10
529.930015731914
 20
675.0462936949394
 30
0.0
 10
529.9354351521015
 20
674.8679993742728
 30
0.0
 10
530.0002587173739
 20
674.5449636718077
 30
0.0
 10
530.1748657390814
 20
674.1318548946997
 30
0.0
 10
530.5772029176135
 20
673.6521711029454
 30
0.0
 10
531.3637589746324
 20
673.2798144249759
 30
0.0
 10
532.5083907349588
 20
673.2017833041116
 30
0.0
 10
533.6425288742533
 20
673.2803515743526
 30
0.0
 10
534.4222917212182
 20
673.736474640795
 30
0.0
 10
534.7609007593207
 20
674.2004983716913
 30
0.0
 10
534.9116688693248
 20
674.5598450642187
 30
0.0
 10
534.9722012687457
 20
674.88784417933
 30
0.0
 10
534.976388907817
 20
675.0599339819053
 30
0.0
 10
534.9776464325781
 20
675.11161159409
 30
0.0
  0
SPLINE
  5
171
330
1F
100
AcDbEntity
  8
0
  6
Continuous
 62
     7
370
    15
100
AcDbSpline
210
0.0
220
0.0
230
1.0
 70
     8
 71
     3
 72
    19
 73
    15
 74
     0
 42
0.00000001
 43
0.00000001
 40
0.0
 40
0.0
 40
0.0
 40
0.0
 40
0.0311203141669258
 40
0.0621217825674031
 40
0.1119869578169245
 40
0.1960884168201702
 40
0.4345866014004983
 40
0.5975160901330618
 40
0.755945504555225
 40
0.8510485721112759
 40
0.9092788178562907
 40
0.9508548062763196
 40
0.9834140082001117
 40
1.0
 40
1.0
 40
1.0
 40
1.0
 10
534.9776464325781
 20
675.11161159409
 30
0.0
 10
534.9901817699238
 20
674.9933071779033
 30
0.0
 10
535.0152045732544
 20
674.7571501397805
 30
0.0
 10
535.2305382391903
 20
674.3808632168107
 30
0.0
 10
535.6925087527726
 20
673.948189177547
 30
0.0
 10
537.0003012575371
 20
673.3621180521816
 30
0.0
 10
538.8645231469872
 20
673.2241004416248
 30
0.0
 10
540.9769469458238
 20
673.2308250709051
 30
0.0
 10
542.5542385565333
 20
673.3853883218466
 30
0.0
 10
543.6899078059676
 20
673.7432119004906
 30
0.0
 10
544.3192645883433
 20
674.1469645573306
 30
0.0
 10
544.6460422231513
 20
674.5356566197435
 30
0.0
 10
544.776981318986
 20
674.8625192896997
 30
0.0
 10
544.7876227004832
 20
675.0487579746836
 30
0.0
 10
544.7912140560742
 20
675.11161159409
 30
0.0
  0
SPLINE
  5
172
330
1F
100
AcDbEntity
  8
0
  6
Continuous
 62
     7
370
    15
100
AcDbSpline
210
0.0
220
0.0
230
1.0
 70
     8
 71
     3
 72
    19
 73
    15
 74
     0
 42
0.00000001
 43
0.00000001
 40
0.0
 40
0.0
 40
0.0
 40
0.0
 40
0.0311203485430343
 40
0.0621216417533183
 40
0.1119868297481868
 40
0.1960886372176298
 40
0.4345867411722787
 40
0.5975162854604472
 40
0.755945368222184
 40
0.8510487553620316
 40
0.9092788341044797
 40
0.9508548142520806
 40
0.9834140016660058
 40
1.0
 40
1.0
 40
1.0
 40
1.0
 10
544.7912140560742
 20
675.11161159409
 30
0.0
 10
544.7973001734189
 20
674.9933073851403
 30
0.0
 10
544.8094491247981
 20
674.7571515568683
 30
0.0
 10
544.9139789343384
 20
674.3808615930582
 30
0.0
 10
545.1382408154574
 20
673.9481887401333
 30
0.0
 10
545.7731046590144
 20
673.3621198879756
 30
0.0
 10
546.6780809724015
 20
673.2241002749812
 30
0.0
 10
547.7035483241721
 20
673.2308244791234
 30
0.0
 10
548.4692373817281
 20
673.3853901797622
 30
0.0
 10
549.0205428694287
 20
673.7432101218752
 30
0.0
 10
549.3260594122925
 20
674.1469652743117
 30
0.0
 10
549.4846945530658
 20
674.5356564832097
 30
0.0
 10
549.5482571678817
 20
674.8625194355668
 30
0.0
 10
549.5534237687712
 20
675.0487579853503
 30
0.0
 10
549.5551674438115
 20
675.11161159409
 30
0.0
  0
LINE
  5
173
330
1F
100
AcDbEntity
  8
0
  6
Continuous
 62
     7
370
    15
100
AcDbLine
 10
531.926644854
 20
673.111607541
 30
0.0
 11
547.556552924
 21
673.111607541
 31
0.0
  0
LINE
  5
174
330
1F
100
AcDbEntity
  8
0
  6
Continuous
 62
     7
370
    15
100
AcDbLine
 10
539.8844311756
 20
679.1116047992
 30
0.0
 11
544.7912140561
 21
679.1116047992
 31
0.0
  0
LINE
  5
175
330
1F
100
AcDbEntity
  8
0
  6
Continuous
 62
     7
370
    15
100
AcDbLine
 10
544.7912140561
 20
675.1116115941
 30
0.0
 11
544.7912140561
 21
679.1116047992
 31
0.0
  0
LINE
  5
176
330
1F
100
AcDbEntity
  8
0
  6
Continuous
 62
     7
370
    15
100
AcDbLine
 10
534.9776464326
 20
675.1116115941
 30
0.0
 11
534.9776464326
 21
679.1116047992
 31
0.0
  0
LINE
  5
177
330
1F
100
AcDbEntity
  8
0
  6
Continuous
 62
     7
370
    15
100
AcDbLine
 10
534.9776464326
 20
679.1116047992
 30
0.0
 11
539.8844311756
 21
679.1116047992
 31
0.0
  0
LINE
  5
178
330
1F
100
AcDbEntity
  8
0
  6
Continuous
 62
     7
370
    15
100
AcDbLine
 10
547.1731907499
 20
679.1116047992
 30
0.0
 11
549.5551674438
 21
679.1116047992
 31
0.0
  0
LINE
  5
179
330
1F
100
AcDbEntity
  8
0
  6
Continuous
 62
     7
370
    15
100
AcDbLine
 10
549.5551674438
 20
675.1116115941
 30
0.0
 11
549.5551674438
 21
679.1116047992
 31
0.0
  0
LINE
  5
17A
330
1F
100
AcDbEntity
  8
0
  6
Continuous
 62
     7
370
    15
100
AcDbLine
 10
544.7912140561
 20
679.1116047992
 30
0.0
 11
547.1731907499
 21
679.1116047992
 31
0.0
  0
LINE
  5
17B
330
1F
100
AcDbEntity
  8
0
  6
Continuous
 62
     7
370
    15
100
AcDbLine
 10
529.9280303342
 20
675.1116115941
 30
0.0
 11
529.9280303342
 21
679.1116047992
 31
0.0
  0
LINE
  5
17C
330
1F
100
AcDbEntity
  8
0
  6
Continuous
 62
     7
370
    15
100
AcDbLine
 10
529.9280303342
 20
679.1116047992
 30
0.0
 11
532.4528383834
 21
679.1116047992
 31
0.0
  0
LINE
  5
17D
330
1F
100
AcDbEntity
  8
0
  6
Continuous
 62
     7
370
    15
100
AcDbLine
 10
532.4528383834
 20
679.1116047992
 30
0.0
 11
534.9776464326
 21
679.1116047992
 31
0.0
  0
LINE
  5
17E
330
1F
100
AcDbEntity
  8
0
  6
Continuous
 62
     7
370
    15
100
AcDbLine
 10
549.5551674438
 20
679.1116047992
 30
0.0
 11
549.5564917845
 21
679.1116047992
 31
0.0
  0
LINE
  5
17F
330
1F
100
AcDbEntity
  8
0
  6
Continuous
 62
     7
370
    15
100
AcDbLine
 10
549.5564917845
 20
675.1116115941
 30
0.0
 11
549.5564917845
 21
679.1116047992
 31
0.0
  0
LINE
  5
180
330
1F
100
AcDbEntity
  8
0
  6
Continuous
 62
     7
370
    15
100
AcDbLine
 10
529.9267041308
 20
675.1116115941
 30
0.0
 11
529.9267041308
 21
679.1116047992
 31
0.0
  0
LINE
  5
181
330
1F
100
AcDbEntity
  8
0
  6
Continuous
 62
     7
370
    15
100
AcDbLine
 10
529.9267041308
 20
679.1116047992
 30
0.0
 11
529.9280303342
 21
679.1116047992
 31
0.0
  0
SPLINE
  5
182
330
1F
100
AcDbEntity
  8
0
  6
Continuous
 62
     7
370
    15
100
AcDbSpline
210
0.0
220
0.0
230
1.0
 70
     8
 71
     3
 72
    19
 73
    15
 74
     0
 42
0.00000001
 43
0.00000001
 40
0.0
 40
0.0
 40
0.0
 40
0.0
 40
0.0172341694484354
 40
0.0470430131084849
 40
0.0896567058471935
 40
0.1563144136899144
 40
0.2853315634064828
 40
0.5000758605707976
 40
0.7435217387541133
 40
0.8659879610207529
 40
0.9101180840211542
 40
0.9545663155693568
 40
0.9863565086118453
 40
1.0
 40
1.0
 40
1.0
 40
1.0
 10
602.046644203126
 20
675.1116115940903
 30
0.0
 10
602.0485737911532
 20
675.0462937276524
 30
0.0
 10
602.0538408645172
 20
674.8679997137604
 30
0.0
 10
602.1168105276214
 20
674.5449626484283
 30
0.0
 10
602.2864297884204
 20
674.1318558185453
 30
0.0
 10
602.6772781390302
 20
673.6521715677272
 30
0.0
 10
603.4413669077375
 20
673.2798136279297
 30
0.0
 10
604.5533101101432
 20
673.2017836994407
 30
0.0
 10
605.6550593934146
 20
673.280351107363
 30
0.0
 10
606.4125481918647
 20
673.7364748627429
 30
0.0
 10
606.7414875091417
 20
674.200498416648
 30
0.0
 10
606.8879532333539
 20
674.5598446806712
 30
0.0
 10
606.9467552856936
 20
674.8878443218845
 30
0.0
 10
606.9508219428927
 20
675.0599339908707
 30
0.0
 10
606.9520431382056
 20
675.1116115940903
 30
0.0
  0
SPLINE
  5
183
330
1F
100
AcDbEntity
  8
0
  6
Continuous
 62
     7
370
    15
100
AcDbSpline
210
0.0
220
0.0
230
1.0
 70
     8
 71
     3
 72
    19
 73
    15
 74
     0
 42
0.00000001
 43
0.00000001
 40
0.0
 40
0.0
 40
0.0
 40
0.0
 40
0.0311203549224633
 40
0.0621217844049163
 40
0.1119868796119493
 40
0.1960885136409
 40
0.4345868597486812
 40
0.5975163291939587
 40
0.7559455514713163
 40
0.8510487321510576
 40
0.9092787826523064
 40
0.950854822517195
 40
0.9834139814451249
 40
1.0
 40
1.0
 40
1.0
 40
1.0
 10
606.9520431382056
 20
675.1116115940903
 30
0.0
 10
606.9645813608078
 20
674.9933072445804
 30
0.0
 10
606.9896098915959
 20
674.7571506418445
 30
0.0
 10
607.2049713924392
 20
674.3808632142308
 30
0.0
 10
607.6670072424818
 20
673.9481881834322
 30
0.0
 10
608.9749862559655
 20
673.3621192869933
 30
0.0
 10
610.8394716517847
 20
673.2241003569868
 30
0.0
 10
612.9521938074761
 20
673.2308246957467
 30
0.0
 10
614.5297065351865
 20
673.3853895242186
 30
0.0
 10
615.6655370011883
 20
673.7432103056757
 30
0.0
 10
616.2949793865309
 20
674.1469658926658
 30
0.0
 10
616.6218058909216
 20
674.5356558341496
 30
0.0
 10
616.7527586917621
 20
674.862519804885
 30
0.0
 10
616.7634053043311
 20
675.0487580133452
 30
0.0
 10
616.7669984323378
 20
675.1116115940903
 30
0.0
  0
SPLINE
  5
184
330
1F
100
AcDbEntity
  8
0
  6
Continuous
 62
     7
370
    15
100
AcDbSpline
210
0.0
220
0.0
230
1.0
 70
     8
 71
     3
 72
    19
 73
    15
 74
     0
 42
0.00000001
 43
0.00000001
 40
0.0
 40
0.0
 40
0.0
 40
0.0
 40
0.0311203593189909
 40
0.0621217607706675
 40
0.1119869729407843
 40
0.196088425298556
 40
0.4345868382034648
 40
0.5975162155005561
 40
0.7559455037359832
 40
0.8510486611219386
 40
0.9092788990343796
 40
0.9508548820851876
 40
0.9834140105311768
 40
0.9999999999999999
 40
0.9999999999999999
 40
0.9999999999999999
 40
0.9999999999999999
 10
616.7669984323378
 20
675.1116115940903
 30
0.0
 10
616.7732703934312
 20
674.9933072889324
 30
0.0
 10
616.7857903409874
 20
674.7571508979404
 30
0.0
 10
616.8935136232263
 20
674.380862387923
 30
0.0
 10
617.1246328908619
 20
673.948189731055
 30
0.0
 10
617.7788978725922
 20
673.3621171545258
 30
0.0
 10
618.7115335145194
 20
673.2241007854933
 30
0.0
 10
619.7683430213889
 20
673.2308248532931
 30
0.0
 10
620.557430929363
 20
673.3853888447566
 30
0.0
 10
621.1255914212734
 20
673.7432115439755
 30
0.0
 10
621.4404446524869
 20
674.1469647291252
 30
0.0
 10
621.6039243024888
 20
674.5356560311543
 30
0.0
 10
621.6694312172949
 20
674.862519659267
 30
0.0
 10
621.674754508245
 20
675.0487580020516
 30
0.0
 10
621.6765510661002
 20
675.1116115940903
 30
0.0
  0
LINE
  5
185
330
1F
100
AcDbEntity
  8
0
  6
Continuous
 62
     7
370
    15
100
AcDbLine
 10
604.0466426683
 20
673.111607541
 30
0.0
 11
619.6765507383
 21
673.111607541
 31
0.0
  0
LINE
  5
186
330
1F
100
AcDbEntity
  8
0
  6
Continuous
 62
     7
370
    15
100
AcDbLine
 10
611.8595207853
 20
679.1116047992
 30
0.0
 11
616.7669984323
 21
679.1116047992
 31
0.0
  0
LINE
  5
187
330
1F
100
AcDbEntity
  8
0
  6
Continuous
 62
     7
370
    15
100
AcDbLine
 10
616.7669984323
 20
675.1116115941
 30
0.0
 11
616.7669984323
 21
679.1116047992
 31
0.0
  0
LINE
  5
188
330
1F
100
AcDbEntity
  8
0
  6
Continuous
 62
     7
370
    15
100
AcDbLine
 10
606.9520431382
 20
675.1116115941
 30
0.0
 11
606.9520431382
 21
679.1116047992
 31
0.0
  0
LINE
  5
189
330
1F
100
AcDbEntity
  8
0
  6
Continuous
 62
     7
370
    15
100
AcDbLine
 10
606.9520431382
 20
679.1116047992
 30
0.0
 11
611.8595207853
 21
679.1116047992
 31
0.0
  0
LINE
  5
18A
330
1F
100
AcDbEntity
  8
0
  6
Continuous
 62
     7
370
    15
100
AcDbLine
 10
619.2217747492
 20
679.1116047992
 30
0.0
 11
621.6765510661
 21
679.1116047992
 31
0.0
  0
LINE
  5
18B
330
1F
100
AcDbEntity
  8
0
  6
Continuous
 62
     7
370
    15
100
AcDbLine
 10
621.6765510661
 20
675.1116115941
 30
0.0
 11
621.6765510661
 21
679.1116047992
 31
0.0
  0
LINE
  5
18C
330
1F
100
AcDbEntity
  8
0
  6
Continuous
 62
     7
370
    15
100
AcDbLine
 10
616.7669984323
 20
679.1116047992
 30
0.0
 11
619.2217747492
 21
679.1116047992
 31
0.0
  0
LINE
  5
18D
330
1F
100
AcDbEntity
  8
0
  6
Continuous
 62
     7
370
    15
100
AcDbLine
 10
602.0466442031
 20
675.1116115941
 30
0.0
 11
602.0466442031
 21
679.1116047992
 31
0.0
  0
LINE
  5
18E
330
1F
100
AcDbEntity
  8
0
  6
Continuous
 62
     7
370
    15
100
AcDbLine
 10
602.0466442031
 20
679.1116047992
 30
0.0
 11
604.4993436707
 21
679.1116047992
 31
0.0
  0
LINE
  5
18F
330
1F
100
AcDbEntity
  8
0
  6
Continuous
 62
     7
370
    15
100
AcDbLine
 10
604.4993436707
 20
679.1116047992
 30
0.0
 11
606.9520431382
 21
679.1116047992
 31
0.0
  0
ARC
  5
190
330
1F
100
AcDbEntity
  8
0
  6
Continuous
 62
     7
370
    15
100
AcDbCircle
 10
527.8015977961
 20
616.5116115702
 30
0.0
 40
12.00000000000011
100
AcDbArc
 50
180.0
 51
270.0
  0
LINE
  5
191
330
1F
100
AcDbEntity
  8
0
  6
Continuous
 62
     7
370
    15
100
AcDbLine
 10
515.8015991372
 20
672.5116122855
 30
0.0
 11
515.8015991372
 21
616.5116180075
 31
0.0
  0
ARC
  5
192
330
1F
100
AcDbEntity
  8
0
  6
Continuous
 62
     7
370
    15
100
AcDbCircle
 10
623.8015977961
 20
672.5116115702
 30
0.0
 40
12.0
100
AcDbArc
 50
0.0
 51
90.0
  0
LINE
  5
193
330
1F
100
AcDbEntity
  8
0
  6
Continuous
 62
     7
370
    15
100
AcDbLine
 10
635.801596455
 20
672.5116122855
 30
0.0
 11
635.801596455
 21
616.5116180076
 31
0.0
  0
ARC
  5
194
330
1F
100
AcDbEntity
  8
0
  6
Continuous
 62
     7
370
    15
100
AcDbCircle
 10
623.8015977961
 20
616.5116115702
 30
0.0
 40
12.0
100
AcDbArc
 50
270.0
 51
0.0
  0
LINE
  5
195
330
1F
100
AcDbEntity
  8
0
  6
Continuous
 62
     7
370
    15
100
AcDbLine
 10
623.8015982134
 20
604.51160859
 30
0.0
 11
527.8015973789
 21
604.51160859
 31
0.0
  0
LINE
  5
196
330
1F
100
AcDbEntity
  8
0
  6
Continuous
 62
     7
370
    15
100
AcDbLine
 10
623.8015982134
 20
609.5116187228
 30
0.0
 11
527.8015973789
 21
609.5116187228
 31
0.0
  0
ARC
  5
197
330
1F
100
AcDbEntity
  8
0
  6
Continuous
 62
     7
370
    15
100
AcDbCircle
 10
623.8015977961
 20
616.5116115702
 30
0.0
 40
7.0
100
AcDbArc
 50
270.0
 51
0.0
  0
LINE
  5
198
330
1F
100
AcDbEntity
  8
0
  6
Continuous
 62
     7
370
    15
100
AcDbLine
 10
630.8015974981
 20
672.5116122855
 30
0.0
 11
630.8015974981
 21
616.5116180076
 31
0.0
  0
ARC
  5
199
330
1F
100
AcDbEntity
  8
0
  6
Continuous
 62
     7
370
    15
100
AcDbCircle
 10
623.8015977961
 20
672.5116115702
 30
0.0
 40
7.0
100
AcDbArc
 50
0.0
 51
90.0
  0
LINE
  5
19A
330
1F
100
AcDbEntity
  8
0
  6
Continuous
 62
     7
370
    15
100
AcDbLine
 10
527.8015973789
 20
679.5116115702
 30
0.0
 11
623.8015982134
 21
679.5116115702
 31
0.0
  0
ARC
  5
19B
330
1F
100
AcDbEntity
  8
0
  6
Continuous
 62
     7
370
    15
100
AcDbCircle
 10
527.8015977961
 20
672.5116115702
 30
0.0
 40
7.000000000000114
100
AcDbArc
 50
90.0
 51
180.0
  0
LINE
  5
19C
330
1F
100
AcDbEntity
  8
0
  6
Continuous
 62
     7
370
    15
100
AcDbLine
 10
520.8015980942
 20
616.5116180075
 30
0.0
 11
520.8015980942
 21
672.5116122855
 31
0.0
  0
ARC
  5
19D
330
1F
100
AcDbEntity
  8
0
  6
Continuous
 62
     7
370
    15
100
AcDbCircle
 10
527.8015977961
 20
616.5116115702
 30
0.0
 40
7.000000000000114
100
AcDbArc
 50
180.0
 51
270.0
  0
LINE
  5
19E
330
1F
100
AcDbEntity
  8
0
  6
Continuous
 62
     7
370
    15
100
AcDbLine
 10
623.8015982134
 20
684.5116068019
 30
0.0
 11
527.8015973789
 21
684.5116068019
 31
0.0
  0
ARC
  5
19F
330
1F
100
AcDbEntity
  8
0
  6
Continuous
 62
     7
370
    15
100
AcDbCircle
 10
527.8015977961
 20
672.5116115702
 30
0.0
 40
12.0
100
AcDbArc
 50
90.0
 51
180.0
  0
LINE
  5
1A0
330
1F
100
AcDbEntity
  8
0
  6
Continuous
 62
     7
370
    15
100
AcDbLine
 10
561.3071516899
 20
612.8116149796
 30
0.0
 11
561.3071516899
 21
609.9116105927
 31
0.0
  0
LINE
  5
1A1
330
1F
100
AcDbEntity
  8
0
  6
Continuous
 62
     7
370
    15
100
AcDbLine
 10
561.3071516899
 20
609.9116105927
 30
0.0
 11
561.3063134996
 21
609.9116105927
 31
0.0
  0
LINE
  5
1A2
330
1F
100
AcDbEntity
  8
0
  6
Continuous
 62
     7
370
    15
100
AcDbLine
 10
546.2968813998
 20
609.9116105927
 30
0.0
 11
546.2960450721
 21
609.9116105927
 31
0.0
  0
LINE
  5
1A3
330
1F
100
AcDbEntity
  8
0
  6
Continuous
 62
     7
370
    15
100
AcDbLine
 10
546.2960450721
 20
612.8116149796
 30
0.0
 11
546.2960450721
 21
609.9116105927
 31
0.0
  0
SPLINE
  5
1A4
330
1F
100
AcDbEntity
  8
0
  6
Continuous
 62
     7
370
    15
100
AcDbSpline
210
0.0
220
0.0
230
1.0
 70
     8
 71
     3
 72
    18
 73
    14
 74
     0
 42
0.00000001
 43
0.00000001
 40
0.0
 40
0.0
 40
0.0
 40
0.0
 40
0.0391144656671511
 40
0.0780920545467926
 40
0.1389199205310571
 40
0.2382982484649744
 40
0.4914348891993921
 40
0.7614774911861998
 40
0.8314863511292732
 40
0.9019336529911001
 40
0.9480415552569749
 40
0.9875254436787556
 40
1.0
 40
1.0
 40
1.0
 40
1.0
 10
605.3071505201457
 20
612.8116149796341
 30
0.0
 10
605.300954283967
 20
612.9293349918701
 30
0.0
 10
605.2885834946592
 20
613.1643630680554
 30
0.0
 10
605.1828233818891
 20
613.5340496251064
 30
0.0
 10
604.961671319998
 20
613.946999972008
 30
0.0
 10
604.3855122509199
 20
614.4580963815431
 30
0.0
 10
603.4451088918896
 20
614.6044857617766
 30
0.0
 10
602.5417332295647
 20
614.4828788052275
 30
0.0
 10
601.9700734541053
 20
614.0122621524195
 30
0.0
 10
601.7396900974081
 20
613.6782524775076
 30
0.0
 10
601.6020460898444
 20
613.292310257041
 30
0.0
 10
601.5577150260671
 20
613.00472358159
 30
0.0
 10
601.5550216700941
 20
612.8490017859511
 30
0.0
 10
601.5543750298617
 20
612.8116149796341
 30
0.0
  0
SPLINE
  5
1A5
330
1F
100
AcDbEntity
  8
0
  6
Continuous
 62
     7
370
    15
100
AcDbSpline
210
0.0
220
0.0
230
1.0
 70
     8
 71
     3
 72
    18
 73
    14
 74
     0
 42
0.00000001
 43
0.00000001
 40
0.0
 40
0.0
 40
0.0
 40
0.0
 40
0.0391144757665131
 40
0.0780921329627726
 40
0.1389199318242439
 40
0.2382982173529071
 40
0.4914347863676101
 40
0.761477633266987
 40
0.8314862561348302
 40
0.901933541266033
 40
0.9480416005404128
 40
0.9875254267613202
 40
1.0
 40
1.0
 40
1.0
 40
1.0
 10
601.5543750298617
 20
612.8116149796341
 30
0.0
 10
601.5419829379907
 20
612.9293350449959
 30
0.0
 10
601.5172421005611
 20
613.1643634025662
 30
0.0
 10
601.3057150449455
 20
613.5340489166674
 30
0.0
 10
600.8634163560729
 20
613.9470003942204
 30
0.0
 10
599.7110985396882
 20
614.4580961495143
 30
0.0
 10
597.8302902994454
 20
614.604485377531
 30
0.0
 10
596.0235404395982
 20
614.4828802228726
 30
0.0
 10
594.8802200430152
 20
614.0122618310114
 30
0.0
 10
594.4194547491825
 20
613.6782512957056
 30
0.0
 10
594.1441635617606
 20
613.292311523908
 30
0.0
 10
594.0555039213981
 20
613.0047231339362
 30
0.0
 10
594.0501143047359
 20
612.8490017664443
 30
0.0
 10
594.0488203240035
 20
612.8116149796341
 30
0.0
  0
SPLINE
  5
1A6
330
1F
100
AcDbEntity
  8
0
  6
Continuous
 62
     7
370
    15
100
AcDbSpline
210
0.0
220
0.0
230
1.0
 70
     8
 71
     3
 72
    18
 73
    14
 74
     0
 42
0.00000001
 43
0.00000001
 40
0.0
 40
0.0
 40
0.0
 40
0.0
 40
0.0344336903070499
 40
0.0724914898468626
 40
0.1306346467259137
 40
0.2236187466056474
 40
0.4104357918185376
 40
0.5001958143645441
 40
0.7376509180047488
 40
0.8568708291168691
 40
0.9094916711534538
 40
0.962570251763497
 40
1.0
 40
1.0
 40
1.0
 40
1.0
 10
594.0488203240035
 20
612.8116149796341
 30
0.0
 10
594.0440232889871
 20
612.9152064852904
 30
0.0
 10
594.0339243361277
 20
613.1332923922477
 30
0.0
 10
593.9416266470893
 20
613.4886034719949
 30
0.0
 10
593.738786440557
 20
613.8966660286104
 30
0.0
 10
593.2761306466928
 20
614.3495315801645
 30
0.0
 10
592.7207837600647
 20
614.517843433031
 30
0.0
 10
591.9519078556698
 20
614.5696994866875
 30
0.0
 10
591.2770033069013
 20
614.4706902185753
 30
0.0
 10
590.6926786697749
 20
614.015026449376
 30
0.0
 10
590.435692540049
 20
613.5722405002967
 30
0.0
 10
590.3157799214122
 20
613.196664634726
 30
0.0
 10
590.3018179005669
 20
612.9242656617238
 30
0.0
 10
590.296043902397
 20
612.8116149796341
 30
0.0
  0
LINE
  5
1A7
330
1F
100
AcDbEntity
  8
0
  6
Continuous
 62
     7
370
    15
100
AcDbLine
 10
593.0336489154
 20
614.8116041316
 30
0.0
 11
592.2960451615
 21
614.8116041316
 31
0.0
  0
LINE
  5
1A8
330
1F
100
AcDbEntity
  8
0
  6
Continuous
 62
     7
370
    15
100
AcDbLine
 10
603.307152055
 20
614.8116041316
 30
0.0
 11
593.0336489154
 21
614.8116041316
 31
0.0
  0
LINE
  5
1A9
330
1F
100
AcDbEntity
  8
0
  6
Continuous
 62
     7
370
    15
100
AcDbLine
 10
597.8015976769
 20
609.9116105927
 30
0.0
 11
594.048820324
 21
609.9116105927
 31
0.0
  0
LINE
  5
1AA
330
1F
100
AcDbEntity
  8
0
  6
Continuous
 62
     7
370
    15
100
AcDbLine
 10
594.048820324
 20
612.8116149796
 30
0.0
 11
594.048820324
 21
609.9116105927
 31
0.0
  0
LINE
  5
1AB
330
1F
100
AcDbEntity
  8
0
  6
Continuous
 62
     7
370
    15
100
AcDbLine
 10
601.5543750299
 20
612.8116149796
 30
0.0
 11
601.5543750299
 21
609.9116105927
 31
0.0
  0
LINE
  5
1AC
330
1F
100
AcDbEntity
  8
0
  6
Continuous
 62
     7
370
    15
100
AcDbLine
 10
601.5543750299
 20
609.9116105927
 30
0.0
 11
597.8015976769
 21
609.9116105927
 31
0.0
  0
LINE
  5
1AD
330
1F
100
AcDbEntity
  8
0
  6
Continuous
 62
     7
370
    15
100
AcDbLine
 10
605.3071505201
 20
612.8116149796
 30
0.0
 11
605.3071505201
 21
609.9116105927
 31
0.0
  0
LINE
  5
1AE
330
1F
100
AcDbEntity
  8
0
  6
Continuous
 62
     7
370
    15
100
AcDbLine
 10
605.3071505201
 20
609.9116105927
 30
0.0
 11
603.430762775
 21
609.9116105927
 31
0.0
  0
LINE
  5
1AF
330
1F
100
AcDbEntity
  8
0
  6
Continuous
 62
     7
370
    15
100
AcDbLine
 10
603.430762775
 20
609.9116105927
 30
0.0
 11
601.5543750299
 21
609.9116105927
 31
0.0
  0
LINE
  5
1B0
330
1F
100
AcDbEntity
  8
0
  6
Continuous
 62
     7
370
    15
100
AcDbLine
 10
592.1724325789
 20
609.9116105927
 30
0.0
 11
590.2960439024
 21
609.9116105927
 31
0.0
  0
LINE
  5
1B1
330
1F
100
AcDbEntity
  8
0
  6
Continuous
 62
     7
370
    15
100
AcDbLine
 10
590.2960439024
 20
612.8116149796
 30
0.0
 11
590.2960439024
 21
609.9116105927
 31
0.0
  0
LINE
  5
1B2
330
1F
100
AcDbEntity
  8
0
  6
Continuous
 62
     7
370
    15
100
AcDbLine
 10
594.048820324
 20
609.9116105927
 30
0.0
 11
592.1724325789
 21
609.9116105927
 31
0.0
  0
SPLINE
  5
1B3
330
1F
100
AcDbEntity
  8
0
  6
Continuous
 62
     7
370
    15
100
AcDbSpline
210
0.0
220
0.0
230
1.0
 70
     8
 71
     3
 72
    18
 73
    14
 74
     0
 42
0.00000001
 43
0.00000001
 40
0.0
 40
0.0
 40
0.0
 40
0.0
 40
0.0391144796680026
 40
0.0780920976379559
 40
0.1389198759869062
 40
0.2382982584123946
 40
0.4914348780923337
 40
0.7614776720784642
 40
0.8314863167084541
 40
0.9019335865316648
 40
0.9480415627293991
 40
0.9875254328092082
 40
1.0
 40
1.0
 40
1.0
 40
1.0
 10
561.3063134995697
 20
612.8116149796339
 30
0.0
 10
561.3002782962606
 20
612.9293350127319
 30
0.0
 10
561.2882290068393
 20
613.1643631761299
 30
0.0
 10
561.1852153687737
 20
613.5340491032352
 30
0.0
 10
560.9698147383052
 20
613.9470006636303
 30
0.0
 10
560.4086308046997
 20
614.4580957447821
 30
0.0
 10
559.4926718901529
 20
614.6044855501448
 30
0.0
 10
558.6127786864836
 20
614.4828801450673
 30
0.0
 10
558.0559747521737
 20
614.0122617985921
 30
0.0
 10
557.8315826202553
 20
613.6782518665478
 30
0.0
 10
557.6975161287597
 20
613.2923107929178
 30
0.0
 10
557.6543342338557
 20
613.0047233784536
 30
0.0
 10
557.6517116025653
 20
612.8490017772281
 30
0.0
 10
557.6510819417832
 20
612.811614979634
 30
0.0
  0
SPLINE
  5
1B4
330
1F
100
AcDbEntity
  8
0
  6
Continuous
 62
     7
370
    15
100
AcDbSpline
210
0.0
220
0.0
230
1.0
 70
     8
 71
     3
 72
    18
 73
    14
 74
     0
 42
0.00000001
 43
0.00000001
 40
0.0
 40
0.0
 40
0.0
 40
0.0
 40
0.0391144633890009
 40
0.0780921107735776
 40
0.1389198384690526
 40
0.2382983333259409
 40
0.4914347303208508
 40
0.76147764998611
 40
0.8314863911390115
 40
0.9019335381011974
 40
0.948041612338803
 40
0.987525433985137
 40
1.0
 40
1.0
 40
1.0
 40
1.0
 10
557.6510819417832
 20
612.8116149796339
 30
0.0
 10
557.6386914991388
 20
612.9293350523183
 30
0.0
 10
557.6139539535944
 20
613.1643634321
 30
0.0
 10
557.4024505728389
 20
613.5340486834288
 30
0.0
 10
556.9602018158054
 20
613.9470013285721
 30
0.0
 10
555.8080113375157
 20
614.4580946132811
 30
0.0
 10
553.927413564893
 20
614.6044863525427
 30
0.0
 10
552.1208658227774
 20
614.4828791402472
 30
0.0
 10
550.9776719412929
 20
614.0122626379015
 30
0.0
 10
550.5169589849922
 20
613.6782506897067
 30
0.0
 10
550.2416989425387
 20
613.292311635269
 30
0.0
 10
550.1530478982537
 20
613.0047231958469
 30
0.0
 10
550.147660690754
 20
612.849001767818
 30
0.0
 10
550.1463672888873
 20
612.8116149796339
 30
0.0
  0
SPLINE
  5
1B5
330
1F
100
AcDbEntity
  8
0
  6
Continuous
 62
     7
370
    15
100
AcDbSpline
210
0.0
220
0.0
230
1.0
 70
     8
 71
     3
 72
    18
 73
    14
 74
     0
 42
0.00000001
 43
0.00000001
 40
0.0
 40
0.0
 40
0.0
 40
0.0
 40
0.0344337065899659
 40
0.0724914972958797
 40
0.1306345980037719
 40
0.2236186996048058
 40
0.4104357587846659
 40
0.5001958569445164
 40
0.7376508982261283
 40
0.8568708713986536
 40
0.9094916630577489
 40
0.962570246934568
 40
1.0
 40
1.0
 40
1.0
 40
1.0
 10
550.1463672888873
 20
612.8116149796339
 30
0.0
 10
550.1414461362558
 20
612.9152064721168
 30
0.0
 10
550.1310858887537
 20
613.1332922706229
 30
0.0
 10
550.0364117975274
 20
613.4886033294515
 30
0.0
 10
549.8283418144572
 20
613.8966663226115
 30
0.0
 10
549.3537642859343
 20
614.349531448839
 30
0.0
 10
548.7841044632662
 20
614.5178434658951
 30
0.0
 10
547.9954198592684
 20
614.5696995103837
 30
0.0
 10
547.303118398152
 20
614.4706897080024
 30
0.0
 10
546.703737353014
 20
614.015026934739
 30
0.0
 10
546.4401280447555
 20
613.5722402645712
 30
0.0
 10
546.3171260297153
 20
613.196664635242
 30
0.0
 10
546.3028041980808
 20
612.9242656650277
 30
0.0
 10
546.2968813998101
 20
612.8116149796339
 30
0.0
  0
SPLINE
  5
1B6
330
1F
100
AcDbEntity
  8
0
  6
Continuous
 62
     7
370
    15
100
AcDbSpline
210
0.0
220
0.0
230
1.0
 70
     8
 71
     3
 72
     9
 73
     5
 74
     0
 42
0.00000001
 43
0.00000001
 40
0.0
 40
0.0
 40
0.0
 40
0.0
 40
0.6925334315755821
 40
1.0
 40
1.0
 40
1.0
 40
1.0
 10
546.2968813998101
 20
612.8116149796339
 30
0.0
 10
546.3008500257425
 20
612.9312424529226
 30
0.0
 10
546.3065806168612
 20
613.1039813675138
 30
0.0
 10
546.349226341142
 20
613.2505535503027
 30
0.0
 10
546.3623384756444
 20
613.2956195963712
 30
0.0
  0
LINE
  5
1B7
330
1F
100
AcDbEntity
  8
0
  6
Continuous
 62
     7
370
    15
100
AcDbLine
 10
549.0753146631
 20
614.8116041316
 30
0.0
 11
548.2960435373
 21
614.8116041316
 31
0.0
  0
LINE
  5
1B8
330
1F
100
AcDbEntity
  8
0
  6
Continuous
 62
     7
370
    15
100
AcDbLine
 10
559.3071504307
 20
614.8116041316
 30
0.0
 11
549.0753146631
 21
614.8116041316
 31
0.0
  0
LINE
  5
1B9
330
1F
100
AcDbEntity
  8
0
  6
Continuous
 62
     7
370
    15
100
AcDbLine
 10
553.898723684
 20
609.9116105927
 30
0.0
 11
550.1463672889
 21
609.9116105927
 31
0.0
  0
LINE
  5
1BA
330
1F
100
AcDbEntity
  8
0
  6
Continuous
 62
     7
370
    15
100
AcDbLine
 10
550.1463672889
 20
612.8116149796
 30
0.0
 11
550.1463672889
 21
609.9116105927
 31
0.0
  0
LINE
  5
1BB
330
1F
100
AcDbEntity
  8
0
  6
Continuous
 62
     7
370
    15
100
AcDbLine
 10
557.6510819418
 20
612.8116149796
 30
0.0
 11
557.6510819418
 21
609.9116105927
 31
0.0
  0
LINE
  5
1BC
330
1F
100
AcDbEntity
  8
0
  6
Continuous
 62
     7
370
    15
100
AcDbLine
 10
557.6510819418
 20
609.9116105927
 30
0.0
 11
553.898723684
 21
609.9116105927
 31
0.0
  0
LINE
  5
1BD
330
1F
100
AcDbEntity
  8
0
  6
Continuous
 62
     7
370
    15
100
AcDbLine
 10
561.3063134996
 20
612.8116149796
 30
0.0
 11
561.3063134996
 21
609.9116105927
 31
0.0
  0
LINE
  5
1BE
330
1F
100
AcDbEntity
  8
0
  6
Continuous
 62
     7
370
    15
100
AcDbLine
 10
561.3063134996
 20
609.9116105927
 30
0.0
 11
559.4786981863
 21
609.9116105927
 31
0.0
  0
LINE
  5
1BF
330
1F
100
AcDbEntity
  8
0
  6
Continuous
 62
     7
370
    15
100
AcDbLine
 10
559.4786981863
 20
609.9116105927
 30
0.0
 11
557.6510819418
 21
609.9116105927
 31
0.0
  0
LINE
  5
1C0
330
1F
100
AcDbEntity
  8
0
  6
Continuous
 62
     7
370
    15
100
AcDbLine
 10
548.2216252757
 20
609.9116105927
 30
0.0
 11
546.2968813998
 21
609.9116105927
 31
0.0
  0
LINE
  5
1C1
330
1F
100
AcDbEntity
  8
0
  6
Continuous
 62
     7
370
    15
100
AcDbLine
 10
546.2968813998
 20
612.8116149796
 30
0.0
 11
546.2968813998
 21
609.9116105927
 31
0.0
  0
LINE
  5
1C2
330
1F
100
AcDbEntity
  8
0
  6
Continuous
 62
     7
370
    15
100
AcDbLine
 10
550.1463672889
 20
609.9116105927
 30
0.0
 11
548.2216252757
 21
609.9116105927
 31
0.0
  0
LINE
  5
1C3
330
1F
100
AcDbEntity
  8
0
  6
Continuous
 62
     7
370
    15
100
AcDbLine
 10
251.8947930253
 20
795.2116180552
 30
0.0
 11
251.8947930253
 21
798.7116027964
 31
0.0
  0
LINE
  5
1C4
330
1F
100
AcDbEntity
  8
0
  6
Continuous
 62
     7
370
    15
100
AcDbLine
 10
213.3947932339
 20
797.2116221083
 30
0.0
 11
213.3947932339
 21
795.2116180552
 31
0.0
  0
LINE
  5
1C5
330
1F
100
AcDbEntity
  8
0
  6
Continuous
 62
     7
370
    15
100
AcDbLine
 10
251.8947930253
 20
798.7116027964
 30
0.0
 11
248.9947942263
 21
801.6116071833
 31
0.0
  0
LINE
  5
1C6
330
1F
100
AcDbEntity
  8
0
  6
Continuous
 62
     7
370
    15
100
AcDbLine
 10
245.1447933158
 20
793.5116041793
 30
0.0
 11
245.1447933158
 21
794.2116011275
 31
0.0
  0
LINE
  5
1C7
330
1F
100
AcDbEntity
  8
0
  6
Continuous
 62
     7
370
    15
100
AcDbLine
 10
220.1447929433
 20
794.2116011275
 30
0.0
 11
220.1447929433
 21
793.5116041793
 31
0.0
  0
LINE
  5
1C8
330
1F
100
AcDbEntity
  8
0
  6
Continuous
 62
     7
370
    15
100
AcDbLine
 10
220.159793756
 20
794.6116078986
 30
0.0
 11
220.159793756
 21
794.2116011275
 31
0.0
  0
LINE
  5
1C9
330
1F
100
AcDbEntity
  8
0
  6
Continuous
 62
     7
370
    15
100
AcDbLine
 10
245.1297934344
 20
794.2116011275
 30
0.0
 11
245.1297934344
 21
794.6116078986
 31
0.0
  0
LINE
  5
1CA
330
1F
100
AcDbEntity
  8
0
  6
Continuous
 62
     7
370
    15
100
AcDbLine
 10
244.4947934887
 20
794.6116078986
 30
0.0
 11
244.4947934887
 21
795.2116180552
 31
0.0
  0
LINE
  5
1CB
330
1F
100
AcDbEntity
  8
0
  6
Continuous
 62
     7
370
    15
100
AcDbLine
 10
220.7947937018
 20
795.2116180552
 30
0.0
 11
220.7947937018
 21
794.6116078986
 31
0.0
  0
LINE
  5
1CC
330
1F
100
AcDbEntity
  8
0
  6
Continuous
 62
     7
370
    15
100
AcDbLine
 10
245.0697929776
 20
801.6116071833
 30
0.0
 11
245.0697929776
 21
809.4116200103
 31
0.0
  0
LINE
  5
1CD
330
1F
100
AcDbEntity
  8
0
  6
Continuous
 62
     7
370
    15
100
AcDbLine
 10
220.2197932816
 20
809.4116200103
 30
0.0
 11
220.2197932816
 21
801.6116071833
 31
0.0
  0
LINE
  5
1CE
330
1F
100
AcDbEntity
  8
0
  6
Continuous
 62
     7
370
    15
100
AcDbLine
 10
212.2352128094
 20
248.0616171254
 30
0.0
 11
216.2352134651
 21
244.0616090192
 31
0.0
  0
LINE
  5
1CF
330
1F
100
AcDbEntity
  8
0
  6
Continuous
 62
     7
370
    15
100
AcDbLine
 10
247.0352132982
 20
244.0616090192
 30
0.0
 11
251.0352139539
 21
248.0616171254
 31
0.0
  0
LINE
  5
1D0
330
1F
100
AcDbEntity
  8
0
  6
Continuous
 62
     7
370
    15
100
AcDbLine
 10
251.0352139539
 20
248.0616171254
 30
0.0
 11
251.0352139539
 21
251.5616167678
 31
0.0
  0
LINE
  5
1D1
330
1F
100
AcDbEntity
  8
0
  6
Continuous
 62
     7
370
    15
100
AcDbLine
 10
212.2352128094
 20
251.5616167678
 30
0.0
 11
212.2352128094
 21
248.0616171254
 31
0.0
  0
LINE
  5
1D2
330
1F
100
AcDbEntity
  8
0
  6
Continuous
 62
     7
370
    15
100
AcDbLine
 10
247.5352143115
 20
251.5616167678
 30
0.0
 11
245.5352130523
 21
253.5616059197
 31
0.0
  0
LINE
  5
1D3
330
1F
100
AcDbEntity
  8
0
  6
Continuous
 62
     7
370
    15
100
AcDbLine
 10
217.735213711
 20
253.5616059197
 30
0.0
 11
215.7352124518
 21
251.5616167678
 31
0.0
  0
LINE
  5
1D4
330
1F
100
AcDbEntity
  8
0
  6
Continuous
 62
     7
370
    15
100
AcDbLine
 10
223.6352130017
 20
254.5116145505
 30
0.0
 11
223.6352130017
 21
253.5616059197
 31
0.0
  0
LINE
  5
1D5
330
1F
100
AcDbEntity
  8
0
  6
Continuous
 62
     7
370
    15
100
AcDbLine
 10
239.6352137616
 20
253.5616059197
 30
0.0
 11
239.6352137616
 21
254.5116145505
 31
0.0
  0
LINE
  5
1D6
330
1F
100
AcDbEntity
  8
0
  6
Continuous
 62
     7
370
    15
100
AcDbLine
 10
261.6352127111
 20
594.5116181268
 30
0.0
 11
256.6352137542
 21
594.5116181268
 31
0.0
  0
LINE
  5
1D7
330
1F
100
AcDbEntity
  8
0
  6
Continuous
 62
     7
370
    15
100
AcDbLine
 10
256.6352137542
 20
264.5116050137
 30
0.0
 11
261.6352127111
 21
264.5116050137
 31
0.0
  0
LINE
  5
1D8
330
1F
100
AcDbEntity
  8
0
  6
Continuous
 62
     7
370
    15
100
AcDbLine
 10
206.6352130091
 20
594.5116181268
 30
0.0
 11
201.6352140522
 21
594.5116181268
 31
0.0
  0
LINE
  5
1D9
330
1F
100
AcDbEntity
  8
0
  6
Continuous
 62
     7
370
    15
100
AcDbLine
 10
201.6352140522
 20
264.5116050137
 30
0.0
 11
206.6352130091
 21
264.5116050137
 31
0.0
  0
ARC
  5
1DA
330
1F
100
AcDbEntity
  8
0
  6
Continuous
 62
     7
370
    15
100
AcDbCircle
 10
275.5101679579
 20
675.1116115702
 30
0.0
 40
2.000000000000027
100
AcDbArc
 50
270.0
 51
290.1615189104
  0
ARC
  5
1DB
330
1F
100
AcDbEntity
  8
0
  6
Continuous
 62
     7
370
    15
100
AcDbCircle
 10
187.7602588054
 20
675.1116115702
 30
0.0
 40
2.0
100
AcDbArc
 50
249.7066760883
 51
270.0
  0
LINE
  5
1DC
330
1F
100
AcDbEntity
  8
0
  6
Continuous
 62
     7
370
    15
100
AcDbLine
 10
190.5752127236
 20
684.5273424281
 30
0.0
 11
190.5752127236
 21
684.5116068019
 31
0.0
  0
CIRCLE
  5
1DD
330
1F
100
AcDbEntity
  8
0
  6
Continuous
 62
     7
370
    15
100
AcDbCircle
 10
232.6447933884
 20
742.6116115702
 30
0.0
 40
4.500000000115023
  0
LINE
  5
1DE
330
1F
100
AcDbEntity
  8
0
  6
Continuous
 62
     7
370
    15
100
AcDbLine
 10
229.807652318
 20
743.1444872512
 30
0.0
 11
231.6877129374
 21
745.335077156
 31
0.0
  0
LINE
  5
1DF
330
1F
100
AcDbEntity
  8
0
  6
Continuous
 62
     7
370
    15
100
AcDbLine
 10
230.7647328303
 20
740.4210020198
 30
0.0
 11
229.807652318
 21
743.1444872512
 31
0.0
  0
LINE
  5
1E0
330
1F
100
AcDbEntity
  8
0
  6
Continuous
 62
     7
370
    15
100
AcDbLine
 10
233.6018737583
 20
739.8881364955
 30
0.0
 11
230.7647328303
 21
740.4210020198
 31
0.0
  0
LINE
  5
1E1
330
1F
100
AcDbEntity
  8
0
  6
Continuous
 62
     7
370
    15
100
AcDbLine
 10
235.4819344068
 20
742.0787264003
 30
0.0
 11
233.6018737583
 21
739.8881364955
 31
0.0
  0
LINE
  5
1E2
330
1F
100
AcDbEntity
  8
0
  6
Continuous
 62
     7
370
    15
100
AcDbLine
 10
234.5248540109
 20
744.8022116317
 30
0.0
 11
235.4819344068
 21
742.0787264003
 31
0.0
  0
LINE
  5
1E3
330
1F
100
AcDbEntity
  8
0
  6
Continuous
 62
     7
370
    15
100
AcDbLine
 10
231.6877129374
 20
745.335077156
 30
0.0
 11
234.5248540109
 21
744.8022116317
 31
0.0
  0
CIRCLE
  5
1E4
330
1F
100
AcDbEntity
  8
0
  6
Continuous
 62
     7
370
    15
100
AcDbCircle
 10
232.6447933884
 20
742.6116115702
 30
0.0
 40
5.0
  0
SPLINE
  5
1E5
330
1F
100
AcDbEntity
  8
0
  6
Continuous
 62
     7
370
    15
100
AcDbSpline
210
0.0
220
0.0
230
1.0
 70
     8
 71
     3
 72
    11
 73
     7
 74
     0
 42
0.00000001
 43
0.00000001
 40
0.0
 40
0.0
 40
0.0
 40
0.0
 40
0.2645377049583573
 40
0.5347707778165521
 40
0.7652627662599314
 40
1.0
 40
1.0
 40
1.0
 40
1.0
 10
237.2635957030963
 20
734.6116055144169
 30
0.0
 10
237.6644105736606
 20
735.305845058915
 30
0.0
 10
238.4746696636678
 20
736.7092707870572
 30
0.0
 10
239.6751777643425
 20
738.7886185283248
 30
0.0
 10
240.8231016505221
 20
740.7768315110773
 30
0.0
 10
241.5271572634389
 20
741.9963156988467
 30
0.0
 10
241.8823973453056
 20
742.6116217268802
 30
0.0
  0
SPLINE
  5
1E6
330
1F
100
AcDbEntity
  8
0
  6
Continuous
 62
     7
370
    15
100
AcDbSpline
210
0.0
220
0.0
230
1.0
 70
    24
 71
     3
 72
    11
 73
     7
 74
     0
 42
0.00000001
 43
0.00000001
 40
0.0
 40
0.0
 40
0.0
 40
0.0
 40
0.247741216045917
 40
0.4999975664812947
 40
0.7472711084676884
 40
0.9999999999999999
 40
0.9999999999999999
 40
0.9999999999999999
 40
0.9999999999999999
 10
228.0259912545245
 20
734.611605514417
 30
0.0
 10
228.7762241447297
 20
734.611605514417
 30
0.0
 10
230.2903630731802
 20
734.611605514417
 30
0.0
 10
232.6292111651504
 20
734.6116055144167
 30
0.0
 10
234.9835916597251
 20
734.611605514417
 30
0.0
 10
236.4980863169533
 20
734.611605514417
 30
0.0
 10
237.2635957030963
 20
734.6116055144169
 30
0.0
  0
SPLINE
  5
1E7
330
1F
100
AcDbEntity
  8
0
  6
Continuous
 62
     7
370
    15
100
AcDbSpline
210
0.0
220
0.0
230
1.0
 70
     8
 71
     3
 72
    11
 73
     7
 74
     0
 42
0.00000001
 43
0.00000001
 40
0.0
 40
0.0
 40
0.0
 40
0.0
 40
0.2645377044280476
 40
0.5347707271805958
 40
0.7652654352038436
 40
1.0
 40
1.0
 40
1.0
 40
1.0
 10
223.4071889138233
 20
742.6116217268802
 30
0.0
 10
223.8080034560489
 20
741.9173818763513
 30
0.0
 10
224.6182618072128
 20
740.5139556596321
 30
0.0
 10
225.8187816270809
 20
738.4346051524803
 30
0.0
 10
226.9666789410649
 20
736.4463753664697
 30
0.0
 10
227.6707483097887
 20
735.2269000190441
 30
0.0
 10
228.0259912545245
 20
734.6116055144169
 30
0.0
  0
SPLINE
  5
1E8
330
1F
100
AcDbEntity
  8
0
  6
Continuous
 62
     7
370
    15
100
AcDbSpline
210
0.0
220
0.0
230
1.0
 70
     8
 71
     3
 72
    11
 73
     7
 74
     0
 42
0.00000001
 43
0.00000001
 40
0.0
 40
0.0
 40
0.0
 40
0.0
 40
0.2645357152849866
 40
0.5347694642751114
 40
0.7652648164696375
 40
1.0
 40
1.0
 40
1.0
 40
1.0
 10
228.0259912545245
 20
750.6116081370212
 30
0.0
 10
227.6251756644749
 20
749.9173789162572
 30
0.0
 10
226.814911015964
 20
748.5139669494755
 30
0.0
 10
225.6143996414988
 20
746.4346206675318
 30
0.0
 10
224.4665007086598
 20
744.446391897649
 30
0.0
 10
223.762431666056
 20
743.2269163062058
 30
0.0
 10
223.4071889138233
 20
742.6116217268802
 30
0.0
  0
SPLINE
  5
1E9
330
1F
100
AcDbEntity
  8
0
  6
Continuous
 62
     7
370
    15
100
AcDbSpline
210
0.0
220
0.0
230
1.0
 70
    24
 71
     3
 72
    11
 73
     7
 74
     0
 42
0.00000001
 43
0.00000001
 40
0.0
 40
0.0
 40
0.0
 40
0.0
 40
0.2477412402716938
 40
0.4999975907088516
 40
0.7472711326969903
 40
1.0
 40
1.0
 40
1.0
 40
1.0
 10
237.2635957030963
 20
750.6116081370213
 30
0.0
 10
236.5133627347752
 20
750.6116081370213
 30
0.0
 10
234.9992237233633
 20
750.6116081370213
 30
0.0
 10
232.6603755616236
 20
750.6116081370213
 30
0.0
 10
230.3059951370211
 20
750.6116081370211
 30
0.0
 10
228.7915005625435
 20
750.6116081370213
 30
0.0
 10
228.0259912545245
 20
750.6116081370212
 30
0.0
  0
SPLINE
  5
1EA
330
1F
100
AcDbEntity
  8
0
  6
Continuous
 62
     7
370
    15
100
AcDbSpline
210
0.0
220
0.0
230
1.0
 70
     8
 71
     3
 72
    11
 73
     7
 74
     0
 42
0.00000001
 43
0.00000001
 40
0.0
 40
0.0
 40
0.0
 40
0.0
 40
0.2645356885169941
 40
0.5347694721124121
 40
0.7652648079471135
 40
1.0
 40
1.0
 40
1.0
 40
1.0
 10
241.8823973453056
 20
742.6116217268802
 30
0.0
 10
241.4815820867226
 20
743.3058510039378
 30
0.0
 10
240.6713180144204
 20
744.7092632470961
 30
0.0
 10
239.4708057555037
 20
746.7886088997477
 30
0.0
 10
238.3229076120816
 20
748.7768381179203
 30
0.0
 10
237.6188385061592
 20
749.9963135868207
 30
0.0
 10
237.2635957030963
 20
750.6116081370212
 30
0.0
  0
CIRCLE
  5
1EB
330
1F
100
AcDbEntity
  8
0
  6
Continuous
 62
     7
370
    15
100
AcDbCircle
 10
232.6447933884
 20
742.6116115702
 30
0.0
 40
7.5
  0
SPLINE
  5
1EC
330
1F
100
AcDbEntity
  8
0
  6
Continuous
 62
     7
370
    15
100
AcDbSpline
210
0.0
220
0.0
230
1.0
 70
     8
 71
     3
 72
    19
 73
    15
 74
     0
 42
0.00000001
 43
0.00000001
 40
0.0
 40
0.0
 40
0.0
 40
0.0
 40
0.1197216855556608
 40
0.1848896981518392
 40
0.2500005385549705
 40
0.3151684151263187
 40
0.3802788523304682
 40
0.4999984407144654
 40
0.6197211467039948
 40
0.6848882722842113
 40
0.7499994483495416
 40
0.8151677011053058
 40
0.8802783144443392
 40
1.0
 40
1.0
 40
1.0
 40
1.0
 10
203.1436306601774
 20
699.6116090906955
 30
0.0
 10
202.7663986300508
 20
699.6519071199741
 30
0.0
 10
202.1838281804317
 20
699.714140544394
 30
0.0
 10
201.4844987775375
 20
700.0877152976916
 30
0.0
 10
201.0077669869157
 20
700.4754839197572
 30
0.0
 10
200.6176658982827
 20
700.9527835582835
 30
0.0
 10
200.2560494155243
 20
701.6519205103361
 30
0.0
 10
200.0708178738855
 20
702.6116100846049
 30
0.0
 10
200.2560775078229
 20
703.5714783360262
 30
0.0
 10
200.6177683015013
 20
704.2706008978538
 30
0.0
 10
201.0080186767566
 20
704.7479980083826
 30
0.0
 10
201.4846548455174
 20
705.1356177971488
 30
0.0
 10
202.1840076830961
 20
705.5091123470205
 30
0.0
 10
202.76639809656
 20
705.5713244905819
 30
0.0
 10
203.1436306601774
 20
705.6116212500431
 30
0.0
  0
SPLINE
  5
1ED
330
1F
100
AcDbEntity
  8
0
  6
Continuous
 62
     7
370
    15
100
AcDbSpline
210
0.0
220
0.0
230
1.0
 70
     8
 71
     3
 72
    19
 73
    15
 74
     0
 42
0.00000001
 43
0.00000001
 40
0.0
 40
0.0
 40
0.0
 40
0.0
 40
0.1197216637071339
 40
0.1848896644105203
 40
0.2500004929312934
 40
0.3151683576098746
 40
0.3802788741708808
 40
0.500001558311697
 40
0.6197211248475498
 40
0.6848883297903101
 40
0.7499994939732209
 40
0.8151677348361495
 40
0.8802783362928661
 40
1.0
 40
1.0
 40
1.0
 40
1.0
 10
203.1436306601774
 20
705.6116212500432
 30
0.0
 10
203.5208626976258
 20
705.5713232246254
 30
0.0
 10
204.103433158552
 20
705.5090898061683
 30
0.0
 10
204.8027625059011
 20
705.1355150235801
 30
0.0
 10
205.2794944745097
 20
704.7477464953722
 30
0.0
 10
205.669595076511
 20
704.2704462812906
 30
0.0
 10
206.0312192974557
 20
703.5713019772861
 30
0.0
 10
206.2164446304797
 20
702.6116091191849
 30
0.0
 10
206.0311821290075
 20
701.6517425838434
 30
0.0
 10
205.6694926852691
 20
700.9526299114503
 30
0.0
 10
205.2792427816559
 20
700.475232266601
 30
0.0
 10
204.8026064387561
 20
700.0876125607748
 30
0.0
 10
204.103253655472
 20
699.7141179850432
 30
0.0
 10
203.5208632309546
 20
699.6519058467466
 30
0.0
 10
203.1436306601774
 20
699.6116090906955
 30
0.0
  0
LINE
  5
1EE
330
1F
100
AcDbEntity
  8
0
  6
Continuous
 62
     7
370
    15
100
AcDbLine
 10
201.988930366
 20
704.6116043223
 30
0.0
 11
204.2983309543
 21
704.6116043223
 31
0.0
  0
LINE
  5
1EF
330
1F
100
AcDbEntity
  8
0
  6
Continuous
 62
     7
370
    15
100
AcDbLine
 10
200.8342300719
 20
702.6116002692
 30
0.0
 11
201.988930366
 21
704.6116043223
 31
0.0
  0
LINE
  5
1F0
330
1F
100
AcDbEntity
  8
0
  6
Continuous
 62
     7
370
    15
100
AcDbLine
 10
201.988930366
 20
700.6116260184
 30
0.0
 11
200.8342300719
 21
702.6116002692
 31
0.0
  0
LINE
  5
1F1
330
1F
100
AcDbEntity
  8
0
  6
Continuous
 62
     7
370
    15
100
AcDbLine
 10
204.2983309543
 20
700.6116260184
 30
0.0
 11
201.988930366
 21
700.6116260184
 31
0.0
  0
LINE
  5
1F2
330
1F
100
AcDbEntity
  8
0
  6
Continuous
 62
     7
370
    15
100
AcDbLine
 10
205.4530312485
 20
702.6116002692
 30
0.0
 11
204.2983309543
 21
700.6116260184
 31
0.0
  0
LINE
  5
1F3
330
1F
100
AcDbEntity
  8
0
  6
Continuous
 62
     7
370
    15
100
AcDbLine
 10
204.2983309543
 20
704.6116043223
 30
0.0
 11
205.4530312485
 21
702.6116002692
 31
0.0
  0
SPLINE
  5
1F4
330
1F
100
AcDbEntity
  8
0
  6
Continuous
 62
     7
370
    15
100
AcDbSpline
210
0.0
220
0.0
230
1.0
 70
     8
 71
     3
 72
    19
 73
    15
 74
     0
 42
0.00000001
 43
0.00000001
 40
0.0
 40
0.0
 40
0.0
 40
0.0
 40
0.1197216610212922
 40
0.1848896602626966
 40
0.2500004873227702
 40
0.3151683505393724
 40
0.380278865639686
 40
0.4999984294897443
 40
0.619721110944696
 40
0.684888314425492
 40
0.7499994771476958
 40
0.8151675628477101
 40
0.8802783389787079
 40
1.0
 40
1.0
 40
1.0
 40
1.0
 10
262.1436310178053
 20
699.6116090906955
 30
0.0
 10
261.7663989804378
 20
699.6519071163301
 30
0.0
 10
261.1838285196366
 20
699.7141405351222
 30
0.0
 10
260.4844991716735
 20
700.0877153160657
 30
0.0
 10
260.0077672050325
 20
700.4754838495435
 30
0.0
 10
259.6176665956381
 20
700.9527840438222
 30
0.0
 10
259.2560469195756
 20
701.6519197237836
 30
0.0
 10
259.070817034423
 20
702.611610101913
 30
0.0
 10
259.2560750493837
 20
703.5714790692915
 30
0.0
 10
259.6177689249495
 20
704.2706005094077
 30
0.0
 10
260.0080188665968
 20
704.7479973370245
 30
0.0
 10
260.4846538434017
 20
705.1356189223407
 30
0.0
 10
261.1840079027995
 20
705.5091115337284
 30
0.0
 10
261.7663986181367
 20
705.5713241941781
 30
0.0
 10
262.1436310178053
 20
705.6116212500432
 30
0.0
  0
SPLINE
  5
1F5
330
1F
100
AcDbEntity
  8
0
  6
Continuous
 62
     7
370
    15
100
AcDbSpline
210
0.0
220
0.0
230
1.0
 70
     8
 71
     3
 72
    19
 73
    15
 74
     0
 42
0.00000001
 43
0.00000001
 40
0.0
 40
0.0
 40
0.0
 40
0.0
 40
0.1197216896445995
 40
0.1848897044665066
 40
0.2500003934037733
 40
0.3151683975952927
 40
0.3802788370232048
 40
0.5000015471017075
 40
0.6197211395745716
 40
0.6848882673804867
 40
0.7499995710777657
 40
0.8151675186575812
 40
0.8802783103554006
 40
1.0
 40
1.0
 40
1.0
 40
1.0
 10
262.1436310178053
 20
705.6116212500431
 30
0.0
 10
262.5208629697219
 20
705.571323133821
 30
0.0
 10
263.1034332985589
 20
705.509089575132
 30
0.0
 10
263.8027628648625
 20
705.1355157110735
 30
0.0
 10
264.2794927678003
 20
704.7477451445185
 30
0.0
 10
264.6695960405049
 20
704.2704475075344
 30
0.0
 10
265.0312165526403
 20
703.571300998046
 30
0.0
 10
265.2164439760638
 20
702.6116091021152
 30
0.0
 10
265.0311793479717
 20
701.6517436159432
 30
0.0
 10
264.6694937216305
 20
700.9526285884353
 30
0.0
 10
264.2792411033266
 20
700.4752343590181
 30
0.0
 10
263.8026081932748
 20
700.087610730369
 30
0.0
 10
263.1032539152342
 20
699.7141190384059
 30
0.0
 10
262.5208633319434
 20
699.6519062375232
 30
0.0
 10
262.1436310178053
 20
699.6116090906955
 30
0.0
  0
LINE
  5
1F6
330
1F
100
AcDbEntity
  8
0
  6
Continuous
 62
     7
370
    15
100
AcDbLine
 10
260.9889307237
 20
704.6116043223
 30
0.0
 11
263.2983294493
 21
704.6116043223
 31
0.0
  0
LINE
  5
1F7
330
1F
100
AcDbEntity
  8
0
  6
Continuous
 62
     7
370
    15
100
AcDbLine
 10
259.8342304295
 20
702.6116002692
 30
0.0
 11
260.9889307237
 21
704.6116043223
 31
0.0
  0
LINE
  5
1F8
330
1F
100
AcDbEntity
  8
0
  6
Continuous
 62
     7
370
    15
100
AcDbLine
 10
260.9889307237
 20
700.6116260184
 30
0.0
 11
259.8342304295
 21
702.6116002692
 31
0.0
  0
LINE
  5
1F9
330
1F
100
AcDbEntity
  8
0
  6
Continuous
 62
     7
370
    15
100
AcDbLine
 10
263.2983294493
 20
700.6116260184
 30
0.0
 11
260.9889307237
 21
700.6116260184
 31
0.0
  0
LINE
  5
1FA
330
1F
100
AcDbEntity
  8
0
  6
Continuous
 62
     7
370
    15
100
AcDbLine
 10
264.4530316061
 20
702.6116002692
 30
0.0
 11
263.2983294493
 21
700.6116260184
 31
0.0
  0
LINE
  5
1FB
330
1F
100
AcDbEntity
  8
0
  6
Continuous
 62
     7
370
    15
100
AcDbLine
 10
263.2983294493
 20
704.6116043223
 30
0.0
 11
264.4530316061
 21
702.6116002692
 31
0.0
  0
SPLINE
  5
1FC
330
1F
100
AcDbEntity
  8
0
  6
Continuous
 62
     7
370
    15
100
AcDbSpline
210
0.0
220
0.0
230
1.0
 70
     8
 71
     3
 72
    19
 73
    15
 74
     0
 42
0.00000001
 43
0.00000001
 40
0.0
 40
0.0
 40
0.0
 40
0.0
 40
0.1197216610212922
 40
0.1848896602626966
 40
0.2500004873227702
 40
0.3151683505393724
 40
0.380278865639686
 40
0.4999984294897443
 40
0.619721110944696
 40
0.684888314425492
 40
0.7499994771476958
 40
0.8151675628477101
 40
0.8802783389787079
 40
1.0
 40
1.0
 40
1.0
 40
1.0
 10
254.1447938597214
 20
782.61161338223
 30
0.0
 10
253.7675618223539
 20
782.6519114078645
 30
0.0
 10
253.1849913615527
 20
782.7141448266566
 30
0.0
 10
252.4856620135896
 20
783.0877196076001
 30
0.0
 10
252.0089300469485
 20
783.4754881410779
 30
0.0
 10
251.6188294375542
 20
783.9527883353566
 30
0.0
 10
251.2572097614917
 20
784.6519240153181
 30
0.0
 10
251.0719798763391
 20
785.6116143934476
 30
0.0
 10
251.2572378912998
 20
786.5714833608259
 30
0.0
 10
251.6189317668656
 20
787.2706048009421
 30
0.0
 10
252.0091817085129
 20
787.7480016285588
 30
0.0
 10
252.4858166853178
 20
788.1356232138751
 30
0.0
 10
253.1851707447156
 20
788.5091158252628
 30
0.0
 10
253.7675614600528
 20
788.5713284857126
 30
0.0
 10
254.1447938597214
 20
788.6116255415776
 30
0.0
  0
SPLINE
  5
1FD
330
1F
100
AcDbEntity
  8
0
  6
Continuous
 62
     7
370
    15
100
AcDbSpline
210
0.0
220
0.0
230
1.0
 70
     8
 71
     3
 72
    19
 73
    15
 74
     0
 42
0.00000001
 43
0.00000001
 40
0.0
 40
0.0
 40
0.0
 40
0.0
 40
0.1197216323106685
 40
0.1848894397976517
 40
0.250000404933213
 40
0.3151682525218161
 40
0.3802787520078835
 40
0.500001367586001
 40
0.6197208655590049
 40
0.6848908714473404
 40
0.749999559534724
 40
0.8151677833075759
 40
0.8802783676893314
 40
1.0
 40
1.0
 40
1.0
 40
1.0
 10
254.1447938597214
 20
788.6116255415775
 30
0.0
 10
254.5220260680059
 20
788.5713278171576
 30
0.0
 10
255.1045962378008
 20
788.5090949228232
 30
0.0
 10
255.8039243105785
 20
788.135518166002
 30
0.0
 10
256.2806576393945
 20
787.7477515492843
 30
0.0
 10
256.6707582287129
 20
787.2704504001832
 30
0.0
 10
257.0323823508517
 20
786.5713068094029
 30
0.0
 10
257.2176087312147
 20
785.6116109189098
 30
0.0
 10
257.032331474751
 20
784.6517451504369
 30
0.0
 10
256.6706741767518
 20
783.9526118035031
 30
0.0
 10
256.2803941099995
 20
783.4752361513495
 30
0.0
 10
255.8037711731396
 20
783.0876156836681
 30
0.0
 10
255.1044160802536
 20
782.714122866489
 30
0.0
 10
254.5220261259356
 20
782.651910370178
 30
0.0
 10
254.1447938597214
 20
782.61161338223
 30
0.0
  0
LINE
  5
1FE
330
1F
100
AcDbEntity
  8
0
  6
Continuous
 62
     7
370
    15
100
AcDbLine
 10
252.9900935656
 20
787.6116086139
 30
0.0
 11
255.2994941539
 21
787.6116086139
 31
0.0
  0
LINE
  5
1FF
330
1F
100
AcDbEntity
  8
0
  6
Continuous
 62
     7
370
    15
100
AcDbLine
 10
251.8353914088
 20
785.6116045607
 30
0.0
 11
252.9900935656
 21
787.6116086139
 31
0.0
  0
LINE
  5
200
330
1F
100
AcDbEntity
  8
0
  6
Continuous
 62
     7
370
    15
100
AcDbLine
 10
252.9900935656
 20
783.6116005076
 30
0.0
 11
251.8353914088
 21
785.6116045607
 31
0.0
  0
LINE
  5
201
330
1F
100
AcDbEntity
  8
0
  6
Continuous
 62
     7
370
    15
100
AcDbLine
 10
255.2994941539
 20
783.6116005076
 30
0.0
 11
252.9900935656
 21
783.6116005076
 31
0.0
  0
LINE
  5
202
330
1F
100
AcDbEntity
  8
0
  6
Continuous
 62
     7
370
    15
100
AcDbLine
 10
256.454194448
 20
785.6116045607
 30
0.0
 11
255.2994941539
 21
783.6116005076
 31
0.0
  0
LINE
  5
203
330
1F
100
AcDbEntity
  8
0
  6
Continuous
 62
     7
370
    15
100
AcDbLine
 10
255.2994941539
 20
787.6116086139
 30
0.0
 11
256.454194448
 21
785.6116045607
 31
0.0
  0
SPLINE
  5
204
330
1F
100
AcDbEntity
  8
0
  6
Continuous
 62
     7
370
    15
100
AcDbSpline
210
0.0
220
0.0
230
1.0
 70
     8
 71
     3
 72
    19
 73
    15
 74
     0
 42
0.00000001
 43
0.00000001
 40
0.0
 40
0.0
 40
0.0
 40
0.0
 40
0.1197216752925412
 40
0.1848895061757507
 40
0.250000494687131
 40
0.3151683656719748
 40
0.3802788885336941
 40
0.4999984294878045
 40
0.6197210880481476
 40
0.6848882992971066
 40
0.7499994697807931
 40
0.8151677169500209
 40
0.8802783247074588
 40
1.0
 40
1.0
 40
1.0
 40
1.0
 10
211.1436301088344
 20
782.6116133822301
 30
0.0
 10
210.7663978990376
 20
782.6519111077987
 30
0.0
 10
210.1838277269071
 20
782.7141440039073
 30
0.0
 10
209.4844996656024
 20
783.0877207520125
 30
0.0
 10
209.0077663000228
 20
783.4754873966592
 30
0.0
 10
208.6176658488452
 20
783.9527884408169
 30
0.0
 10
208.2560455767879
 20
784.6519238140328
 30
0.0
 10
208.0708194834624
 20
785.6116143934817
 30
0.0
 10
208.2560737061656
 20
786.5714835621244
 30
0.0
 10
208.617768178075
 20
787.2706046955051
 30
0.0
 10
209.008017962107
 20
787.7480023724484
 30
0.0
 10
209.4846543368546
 20
788.1356220697271
 30
0.0
 10
210.1840071102089
 20
788.5091166481238
 30
0.0
 10
210.7663975367479
 20
788.571328785878
 30
0.0
 10
211.1436301088344
 20
788.6116255415775
 30
0.0
  0
SPLINE
  5
205
330
1F
100
AcDbEntity
  8
0
  6
Continuous
 62
     7
370
    15
100
AcDbSpline
210
0.0
220
0.0
230
1.0
 70
     8
 71
     3
 72
    19
 73
    15
 74
     0
 42
0.00000001
 43
0.00000001
 40
0.0
 40
0.0
 40
0.0
 40
0.0
 40
0.1197216180394298
 40
0.1848895938845502
 40
0.2500003975688656
 40
0.3151682373892326
 40
0.3802787291138999
 40
0.5000013675866228
 40
0.6197208884555716
 40
0.6848908865754137
 40
0.7499995669016132
 40
0.8151676292053125
 40
0.8802783819605703
 40
1.0
 40
1.0
 40
1.0
 40
1.0
 10
211.1436301088344
 20
788.6116255415775
 30
0.0
 10
211.5208621446896
 20
788.5713275170921
 30
0.0
 10
212.1034326031553
 20
788.5090941000743
 30
0.0
 10
212.8027619625912
 20
788.1355193104146
 30
0.0
 10
213.2794938924694
 20
787.7477508048659
 30
0.0
 10
213.669594640002
 20
787.2704505056424
 30
0.0
 10
214.0312181661482
 20
786.5713066081232
 30
0.0
 10
214.2164483383361
 20
785.6116109189147
 30
0.0
 10
214.0311672895893
 20
784.6517453517472
 30
0.0
 10
213.6695105879651
 20
783.9526116980611
 30
0.0
 10
213.2792303636229
 20
783.4752368952098
 30
0.0
 10
212.8026088246809
 20
783.087614539516
 30
0.0
 10
212.1032524457455
 20
782.7141236893515
 30
0.0
 10
211.5208622026303
 20
782.6519106703438
 30
0.0
 10
211.1436301088344
 20
782.61161338223
 30
0.0
  0
LINE
  5
206
330
1F
100
AcDbEntity
  8
0
  6
Continuous
 62
     7
370
    15
100
AcDbLine
 10
209.9889298147
 20
787.6116086139
 30
0.0
 11
212.298330403
 21
787.6116086139
 31
0.0
  0
LINE
  5
207
330
1F
100
AcDbEntity
  8
0
  6
Continuous
 62
     7
370
    15
100
AcDbLine
 10
208.8342295206
 20
785.6116045607
 30
0.0
 11
209.9889298147
 21
787.6116086139
 31
0.0
  0
LINE
  5
208
330
1F
100
AcDbEntity
  8
0
  6
Continuous
 62
     7
370
    15
100
AcDbLine
 10
209.9889298147
 20
783.6116005076
 30
0.0
 11
208.8342295206
 21
785.6116045607
 31
0.0
  0
LINE
  5
209
330
1F
100
AcDbEntity
  8
0
  6
Continuous
 62
     7
370
    15
100
AcDbLine
 10
212.298330403
 20
783.6116005076
 30
0.0
 11
209.9889298147
 21
783.6116005076
 31
0.0
  0
LINE
  5
20A
330
1F
100
AcDbEntity
  8
0
  6
Continuous
 62
     7
370
    15
100
AcDbLine
 10
213.4530325598
 20
785.6116045607
 30
0.0
 11
212.298330403
 21
783.6116005076
 31
0.0
  0
LINE
  5
20B
330
1F
100
AcDbEntity
  8
0
  6
Continuous
 62
     7
370
    15
100
AcDbLine
 10
212.298330403
 20
787.6116086139
 30
0.0
 11
213.4530325598
 21
785.6116045607
 31
0.0
  0
SPLINE
  5
20C
330
1F
100
AcDbEntity
  8
0
  6
Continuous
 62
     7
370
    15
100
AcDbSpline
210
0.0
220
0.0
230
1.0
 70
     8
 71
     3
 72
    11
 73
     7
 74
     0
 42
0.00000001
 43
0.00000001
 40
0.0
 40
0.0
 40
0.0
 40
0.0
 40
0.2501076638665538
 40
0.4999809770143458
 40
0.7496261847307616
 40
1.0
 40
1.0
 40
1.0
 40
1.0
 10
206.308043113948
 20
790.384684909711
 30
0.0
 10
206.3565378769935
 20
790.4608381791807
 30
0.0
 10
206.4534819635228
 20
790.6130733625558
 30
0.0
 10
206.6704880232124
 20
790.7784951452181
 30
0.0
 10
206.9189212150557
 20
790.8916295815953
 30
0.0
 10
207.0989345735428
 20
790.9049499051508
 30
0.0
 10
207.1890724068891
 20
790.9116197718479
 30
0.0
  0
LINE
  5
20D
330
1F
100
AcDbEntity
  8
0
  6
Continuous
 62
     7
370
    15
100
AcDbLine
 10
207.1890724069
 20
790.9116197718
 30
0.0
 11
258.1005157149
 21
790.9116197718
 31
0.0
  0
SPLINE
  5
20E
330
1F
100
AcDbEntity
  8
0
  6
Continuous
 62
     7
370
    15
100
AcDbSpline
210
0.0
220
0.0
230
1.0
 70
     8
 71
     3
 72
    11
 73
     7
 74
     0
 42
0.00000001
 43
0.00000001
 40
0.0
 40
0.0
 40
0.0
 40
0.0
 40
0.250121932145185
 40
0.5000000227780546
 40
0.7496409842317852
 40
1.0
 40
1.0
 40
1.0
 40
1.0
 10
258.100515714885
 20
790.9116197718479
 30
0.0
 10
258.1905561810125
 20
790.904927271076
 30
0.0
 10
258.3705493336665
 20
790.8915487939879
 30
0.0
 10
258.6189462470203
 20
790.7785870396773
 30
0.0
 10
258.836117680156
 20
790.6132114758307
 30
0.0
 10
258.9330216019844
 20
790.4609333277417
 30
0.0
 10
258.9815431451809
 20
790.384684909711
 30
0.0
  0
LINE
  5
20F
330
1F
100
AcDbEntity
  8
0
  6
Continuous
 62
     7
370
    15
100
AcDbLine
 10
258.9815431452
 20
790.3846849097
 30
0.0
 11
271.4711283511
 21
767.1241809024
 31
0.0
  0
SPLINE
  5
210
330
1F
100
AcDbEntity
  8
0
  6
Continuous
 62
     7
370
    15
100
AcDbSpline
210
0.0
220
0.0
230
1.0
 70
     8
 71
     3
 72
    12
 73
     8
 74
     0
 42
0.00000001
 43
0.00000001
 40
0.0
 40
0.0
 40
0.0
 40
0.0
 40
0.2486135523376946
 40
0.499877072837463
 40
0.6674296001700074
 40
0.8341996708477388
 40
1.0
 40
1.0
 40
1.0
 40
1.0
 10
271.4711283510935
 20
767.1241809023716
 30
0.0
 10
272.826960136467
 20
764.3243710737052
 30
0.0
 10
275.5530754980782
 20
758.6949082849901
 30
0.0
 10
277.7663149345753
 20
750.6058444511277
 30
0.0
 10
278.8868002581211
 20
743.3731536487809
 30
0.0
 10
279.269794727869
 20
737.1210447982048
 30
0.0
 10
279.0174328075602
 20
732.9712339021127
 30
0.0
 10
278.8916197782767
 20
730.9023786677219
 30
0.0
  0
LINE
  5
211
330
1F
100
AcDbEntity
  8
0
  6
Continuous
 62
     7
370
    15
100
AcDbLine
 10
278.8916197783
 20
730.9023786677
 30
0.0
 11
275.0456375247
 21
687.6230884684
 31
0.0
  0
SPLINE
  5
212
330
1F
100
AcDbEntity
  8
0
  6
Continuous
 62
     7
370
    15
100
AcDbSpline
210
0.0
220
0.0
230
1.0
 70
     8
 71
     3
 72
    11
 73
     7
 74
     0
 42
0.00000001
 43
0.00000001
 40
0.0
 40
0.0
 40
0.0
 40
0.0
 40
0.241216825586486
 40
0.4999975188001892
 40
0.7587800753688224
 40
0.9999999999999999
 40
0.9999999999999999
 40
0.9999999999999999
 40
0.9999999999999999
 10
275.0456375247252
 20
687.6230884684421
 30
0.0
 10
275.0226785144487
 20
687.5054371252025
 30
0.0
 10
274.9750887654981
 20
687.2615678198157
 30
0.0
 10
274.7397369209444
 20
686.9573877232509
 30
0.0
 10
274.4159157009023
 20
686.749886717038
 30
0.0
 10
274.1687889029511
 20
686.7240694548213
 30
0.0
 10
274.0495656794321
 20
686.7116142405368
 30
0.0
  0
LINE
  5
213
330
1F
100
AcDbEntity
  8
0
  6
Continuous
 62
     7
370
    15
100
AcDbLine
 10
274.0495656794
 20
686.7116142405
 30
0.0
 11
191.240024305
 21
686.7116142405
 31
0.0
  0
SPLINE
  5
214
330
1F
100
AcDbEntity
  8
0
  6
Continuous
 62
     7
370
    15
100
AcDbSpline
210
0.0
220
0.0
230
1.0
 70
     8
 71
     3
 72
    11
 73
     7
 74
     0
 42
0.00000001
 43
0.00000001
 40
0.0
 40
0.0
 40
0.0
 40
0.0
 40
0.241219404529309
 40
0.5000035592601916
 40
0.7587836945087005
 40
1.0
 40
1.0
 40
1.0
 40
1.0
 10
191.2400243049871
 20
686.711614240537
 30
0.0
 10
191.1208012002756
 20
686.7240696637593
 30
0.0
 10
190.8736735829177
 20
686.7498874703966
 30
0.0
 10
190.5498497132853
 20
686.9573863623189
 30
0.0
 10
190.3144975612637
 20
687.261567934179
 30
0.0
 10
190.2669077666903
 20
687.5054371624202
 30
0.0
 10
190.2439487344038
 20
687.6230884684421
 30
0.0
  0
LINE
  5
215
330
1F
100
AcDbEntity
  8
0
  6
Continuous
 62
     7
370
    15
100
AcDbLine
 10
190.2439487344
 20
687.6230884684
 30
0.0
 11
186.3979702061
 21
730.9023786677
 31
0.0
  0
SPLINE
  5
216
330
1F
100
AcDbEntity
  8
0
  6
Continuous
 62
     7
370
    15
100
AcDbSpline
210
0.0
220
0.0
230
1.0
 70
    24
 71
     1
 72
     4
 73
     2
 74
     0
 42
0.00000001
 43
0.00000001
 40
0.0
 40
0.0
 40
1.0
 40
1.0
 10
186.3979702061426
 20
730.9023786677219
 30
0.0
 10
186.1447920268785
 20
736.6116095675327
 30
0.0
  0
SPLINE
  5
217
330
1F
100
AcDbEntity
  8
0
  6
Continuous
 62
     7
370
    15
100
AcDbSpline
210
0.0
220
0.0
230
1.0
 70
     8
 71
     3
 72
    11
 73
     7
 74
     0
 42
0.00000001
 43
0.00000001
 40
0.0
 40
0.0
 40
0.0
 40
0.0
 40
0.2490490463418547
 40
0.5000002716651235
 40
0.7509511890315117
 40
1.0
 40
1.0
 40
1.0
 40
1.0
 10
186.1447920268785
 20
736.6116095675328
 30
0.0
 10
186.2375889325181
 20
739.250577345357
 30
0.0
 10
186.4238915050876
 20
744.5486687261867
 30
0.0
 10
187.9550296204143
 20
752.3775733395357
 30
0.0
 10
190.309616828121
 20
759.999385377421
 30
0.0
 10
192.6518142888612
 20
764.7552798755665
 30
0.0
 10
193.8184579080354
 20
767.1241809023716
 30
0.0
  0
LINE
  5
218
330
1F
100
AcDbEntity
  8
0
  6
Continuous
 62
     7
370
    15
100
AcDbLine
 10
193.818457908
 20
767.1241809024
 30
0.0
 11
206.3080431139
 21
790.3846849097
 31
0.0
  0
CIRCLE
  5
219
330
1F
100
AcDbEntity
  8
0
  6
Continuous
 62
     7
370
    15
100
AcDbCircle
 10
262.1447933884
 20
702.6116115702
 30
0.0
 40
4.85000000000116
  0
CIRCLE
  5
21A
330
1F
100
AcDbEntity
  8
0
  6
Continuous
 62
     7
370
    15
100
AcDbCircle
 10
203.1447933884
 20
702.6116115702
 30
0.0
 40
4.849999999996612
  0
CIRCLE
  5
21B
330
1F
100
AcDbEntity
  8
0
  6
Continuous
 62
     7
370
    15
100
AcDbCircle
 10
211.1447933884
 20
785.6116115702
 30
0.0
 40
4.849999999999227
  0
CIRCLE
  5
21C
330
1F
100
AcDbEntity
  8
0
  6
Continuous
 62
     7
370
    15
100
AcDbCircle
 10
254.1447933884
 20
785.6116115702
 30
0.0
 40
4.849999999998545
  0
LINE
  5
21D
330
1F
100
AcDbEntity
  8
0
  6
Continuous
 62
     7
370
    15
100
AcDbLine
 10
207.1890724069
 20
792.911623825
 30
0.0
 11
258.1005157149
 21
792.911623825
 31
0.0
  0
LINE
  5
21E
330
1F
100
AcDbEntity
  8
0
  6
Continuous
 62
     7
370
    15
100
AcDbLine
 10
258.1005157149
 20
792.911623825
 30
0.0
 11
258.1005157149
 21
790.9116197718
 31
0.0
  0
LINE
  5
21F
330
1F
100
AcDbEntity
  8
0
  6
Continuous
 62
     7
370
    15
100
AcDbLine
 10
207.1890724069
 20
792.911623825
 30
0.0
 11
207.1890724069
 21
790.9116197718
 31
0.0
  0
LINE
  5
220
330
1F
100
AcDbEntity
  8
0
  6
Continuous
 62
     7
370
    15
100
AcDbLine
 10
204.5459863907
 20
791.3307894362
 30
0.0
 11
192.0564030474
 21
768.0703152312
 31
0.0
  0
LWPOLYLINE
  5
221
330
1F
100
AcDbEntity
  8
0
  6
Continuous
 62
     7
370
    15
100
AcDbPolyline
 90
        9
 70
   128
 43
0.0
 10
204.5459863907
 20
791.3307894362
 10
204.5798436916
 20
791.3126100196
 10
204.6801154679
 20
791.2587870253
 10
204.8429460442
 20
791.1713470115
 10
205.0620806581
 20
791.0536874427
 10
205.3290964282
 20
790.9103084697
 10
205.633733905
 20
790.7467533244
 10
205.9642826384
 20
790.5692506923
 10
206.3080431139
 20
790.3846849097
  0
LWPOLYLINE
  5
222
330
1F
100
AcDbEntity
  8
0
  6
Continuous
 62
     7
370
    15
100
AcDbPolyline
 90
        9
 70
   128
 43
0.0
 10
192.0564030474
 20
768.0703152312
 10
192.0902584857
 20
768.0521358146
 10
192.1905283993
 20
767.9983128203
 10
192.3533608383
 20
767.9108728064
 10
192.5724973148
 20
767.7932132377
 10
192.8395112222
 20
767.6498342646
 10
193.1441468364
 20
767.4862493171
 10
193.4746992952
 20
767.3087764872
 10
193.818457908
 20
767.1241809024
  0
LINE
  5
223
330
1F
100
AcDbEntity
  8
0
  6
Continuous
 62
     7
370
    15
100
AcDbLine
 10
260.7435998684
 20
791.3307894362
 30
0.0
 11
273.233186937
 21
768.0703152312
 31
0.0
  0
LWPOLYLINE
  5
224
330
1F
100
AcDbEntity
  8
0
  6
Continuous
 62
     7
370
    15
100
AcDbPolyline
 90
        9
 70
   128
 43
0.0
 10
273.233186937
 20
768.0703152312
 10
273.1993277735
 20
768.0521358146
 10
273.0990578598
 20
767.9983128203
 10
272.9362254208
 20
767.9108728064
 10
272.7170926696
 20
767.7932132377
 10
272.4500750369
 20
767.6498342646
 10
272.1454394227
 20
767.4862493171
 10
271.8148906893
 20
767.3087764872
 10
271.4711283511
 20
767.1241809024
  0
LWPOLYLINE
  5
225
330
1F
100
AcDbEntity
  8
0
  6
Continuous
 62
     7
370
    15
100
AcDbPolyline
 90
        9
 70
   128
 43
0.0
 10
260.7435998684
 20
791.3307894362
 10
260.7097425675
 20
791.3126100196
 10
260.6094726539
 20
791.2587870253
 10
260.4466402149
 20
791.1713470115
 10
260.227505601
 20
791.0536874427
 10
259.960489831
 20
790.9103084697
 10
259.6558542168
 20
790.7467533244
 10
259.3253036207
 20
790.5692506923
 10
258.9815431452
 20
790.3846849097
  0
LINE
  5
226
330
1F
100
AcDbEntity
  8
0
  6
Continuous
 62
     7
370
    15
100
AcDbLine
 10
280.8837671942
 20
730.7253230704
 30
0.0
 11
277.0377886659
 21
687.4460626735
 31
0.0
  0
LWPOLYLINE
  5
227
330
1F
100
AcDbEntity
  8
0
  6
Continuous
 62
     7
370
    15
100
AcDbPolyline
 90
        9
 70
   128
 43
0.0
 10
277.0377886659
 20
687.4460626735
 10
276.9995113081
 20
687.4494601382
 10
276.886146999
 20
687.4595333232
 10
276.702050603
 20
687.4758947982
 10
276.4543001717
 20
687.4979187144
 10
276.1524175471
 20
687.5247408046
 10
275.8080032831
 20
687.5553477897
 10
275.434289611
 20
687.5885475768
 10
275.0456375247
 20
687.6230884684
  0
LWPOLYLINE
  5
228
330
1F
100
AcDbEntity
  8
0
  6
Continuous
 62
     7
370
    15
100
AcDbPolyline
 90
        9
 70
   128
 43
0.0
 10
280.8837671942
 20
730.7253230704
 10
280.8454898363
 20
730.7287503375
 10
280.7321255273
 20
730.7388235225
 10
280.5480291313
 20
730.7551849974
 10
280.3002824253
 20
730.7771791114
 10
279.9983960754
 20
730.8040012015
 10
279.6539818114
 20
730.8346081866
 10
279.2802681392
 20
730.8678377761
 10
278.8916197783
 20
730.9023786677
  0
LINE
  5
229
330
1F
100
AcDbEntity
  8
0
  6
Continuous
 62
     7
370
    15
100
AcDbLine
 10
274.0495656794
 20
684.7116101874
 30
0.0
 11
274.0495656794
 21
686.7116142405
 31
0.0
  0
LINE
  5
22A
330
1F
100
AcDbEntity
  8
0
  6
Continuous
 62
     7
370
    15
100
AcDbLine
 10
274.0495656794
 20
684.7116101874
 30
0.0
 11
191.240024305
 21
684.7116101874
 31
0.0
  0
LINE
  5
22B
330
1F
100
AcDbEntity
  8
0
  6
Continuous
 62
     7
370
    15
100
AcDbLine
 10
191.240024305
 20
684.7116101874
 30
0.0
 11
191.240024305
 21
686.7116142405
 31
0.0
  0
LWPOLYLINE
  5
22C
330
1F
100
AcDbEntity
  8
0
  6
Continuous
 62
     7
370
    15
100
AcDbPolyline
 90
        9
 70
   128
 43
0.0
 10
188.2517975932
 20
687.4460626735
 10
188.2900786763
 20
687.4494601382
 10
188.4034429854
 20
687.4595333232
 10
188.5875356561
 20
687.4758947982
 10
188.8352860874
 20
687.4979187144
 10
189.137168712
 20
687.5247408046
 10
189.4815867013
 20
687.5553477897
 10
189.8553003734
 20
687.5885475768
 10
190.2439487344
 20
687.6230884684
  0
LINE
  5
22D
330
1F
100
AcDbEntity
  8
0
  6
Continuous
 62
     7
370
    15
100
AcDbLine
 10
184.405819065
 20
730.7253230704
 30
0.0
 11
188.2517975932
 21
687.4460626735
 31
0.0
  0
LWPOLYLINE
  5
22E
330
1F
100
AcDbEntity
  8
0
  6
Continuous
 62
     7
370
    15
100
AcDbPolyline
 90
        9
 70
   128
 43
0.0
 10
184.405819065
 20
730.7253230704
 10
184.4440964228
 20
730.7287503375
 10
184.5574607319
 20
730.7388235225
 10
184.7415571278
 20
730.7551849974
 10
184.9893075591
 20
730.7771791114
 10
185.2911901838
 20
730.8040012015
 10
185.6356044477
 20
730.8346081866
 10
186.0093181199
 20
730.8678377761
 10
186.3979702061
 20
730.9023786677
  0
CIRCLE
  5
22F
330
1F
100
AcDbEntity
  8
0
  6
Continuous
 62
     7
370
    15
100
AcDbCircle
 10
262.1436305977
 20
702.6116115702
 30
0.0
 40
4.0
  0
CIRCLE
  5
230
330
1F
100
AcDbEntity
  8
0
  6
Continuous
 62
     7
370
    15
100
AcDbCircle
 10
203.1436305977
 20
702.6116115702
 30
0.0
 40
4.0
  0
CIRCLE
  5
231
330
1F
100
AcDbEntity
  8
0
  6
Continuous
 62
     7
370
    15
100
AcDbCircle
 10
254.1447933884
 20
785.6116115702
 30
0.0
 40
4.0
  0
CIRCLE
  5
232
330
1F
100
AcDbEntity
  8
0
  6
Continuous
 62
     7
370
    15
100
AcDbCircle
 10
211.1436305977
 20
785.6116115702
 30
0.0
 40
4.0
  0
ARC
  5
233
330
1F
100
AcDbEntity
  8
0
  6
Continuous
 62
     7
370
    15
100
AcDbCircle
 10
207.1890716138
 20
789.9116115702
 30
0.0
 40
2.999999999999988
100
AcDbArc
 50
90.0
 51
151.7666751207
  0
ARC
  5
234
330
1F
100
AcDbEntity
  8
0
  6
Continuous
 62
     7
370
    15
100
AcDbCircle
 10
258.100515163
 20
789.9116115702
 30
0.0
 40
3.0
100
AcDbArc
 50
28.2333248793
 51
90.0
  0
ARC
  5
235
330
1F
100
AcDbEntity
  8
0
  6
Continuous
 62
     7
370
    15
100
AcDbCircle
 10
274.0495641206
 20
687.7116115702
 30
0.0
 40
3.0
100
AcDbArc
 50
270.0
 51
354.9217933762
  0
ARC
  5
236
330
1F
100
AcDbEntity
  8
0
  6
Continuous
 62
     7
370
    15
100
AcDbCircle
 10
214.6447933884
 20
736.6116115702
 30
0.0
 40
66.50000000000009
100
AcDbArc
 50
354.9217933762
 51
28.2333248793
  0
ARC
  5
237
330
1F
100
AcDbEntity
  8
0
  6
Continuous
 62
     7
370
    15
100
AcDbCircle
 10
191.2400226562
 20
687.7116115702
 30
0.0
 40
3.000000000000004
100
AcDbArc
 50
185.0782066238
 51
270.0
  0
ARC
  5
238
330
1F
100
AcDbEntity
  8
0
  6
Continuous
 62
     7
370
    15
100
AcDbCircle
 10
250.6447933884
 20
736.6116115702
 30
0.0
 40
66.50000000000001
100
AcDbArc
 50
151.7666751207
 51
185.0782066238
  0
CIRCLE
  5
239
330
1F
100
AcDbEntity
  8
0
  6
Continuous
 62
     7
370
    15
100
AcDbCircle
 10
262.1447933884
 20
702.6116115702
 30
0.0
 40
4.500365940284496
  0
CIRCLE
  5
23A
330
1F
100
AcDbEntity
  8
0
  6
Continuous
 62
     7
370
    15
100
AcDbCircle
 10
203.1447933884
 20
702.6116115702
 30
0.0
 40
4.500365940280062
  0
CIRCLE
  5
23B
330
1F
100
AcDbEntity
  8
0
  6
Continuous
 62
     7
370
    15
100
AcDbCircle
 10
254.1447933884
 20
785.6116115702
 30
0.0
 40
4.500365940281768
  0
CIRCLE
  5
23C
330
1F
100
AcDbEntity
  8
0
  6
Continuous
 62
     7
370
    15
100
AcDbCircle
 10
211.1447933884
 20
785.6116115702
 30
0.0
 40
4.500365940282563
  0
ARC
  5
23D
330
1F
100
AcDbEntity
  8
0
  6
Continuous
 62
     7
370
    15
100
AcDbCircle
 10
180.6875825279
 20
753.6406646449
 30
0.0
 40
5.000000000000028
100
AcDbArc
 50
275.0
 51
346.3190783769
  0
ARC
  5
23E
330
1F
100
AcDbEntity
  8
0
  6
Continuous
 62
     7
370
    15
100
AcDbCircle
 10
250.6447933884
 20
736.6116115702
 30
0.0
 40
67.00000000000009
100
AcDbArc
 50
151.774875858
 51
166.3190783769
  0
LINE
  5
23F
330
1F
100
AcDbEntity
  8
0
  6
Continuous
 62
     7
370
    15
100
AcDbLine
 10
204.296075291
 20
791.9304121627
 30
0.0
 11
191.6113500661
 21
768.2983924044
 31
0.0
  0
ARC
  5
240
330
1F
100
AcDbEntity
  8
0
  6
Continuous
 62
     7
370
    15
100
AcDbCircle
 10
206.9393631206
 20
790.5116115702
 30
0.0
 40
3.000000000000114
100
AcDbArc
 50
90.0
 51
151.774875858
  0
LINE
  5
241
330
1F
100
AcDbEntity
  8
0
  6
Continuous
 62
     7
370
    15
100
AcDbLine
 10
258.3502237862
 20
793.5116041793
 30
0.0
 11
206.9393624729
 21
793.5116041793
 31
0.0
  0
ARC
  5
242
330
1F
100
AcDbEntity
  8
0
  6
Continuous
 62
     7
370
    15
100
AcDbCircle
 10
258.3502236562
 20
790.5116115702
 30
0.0
 40
3.000000000000114
100
AcDbArc
 50
28.225124142
 51
90.0
  0
LINE
  5
243
330
1F
100
AcDbEntity
  8
0
  6
Continuous
 62
     7
370
    15
100
AcDbLine
 10
273.6782361931
 20
768.2983924044
 30
0.0
 11
260.9935128307
 21
791.9304121627
 31
0.0
  0
ARC
  5
244
330
1F
100
AcDbEntity
  8
0
  6
Continuous
 62
     7
370
    15
100
AcDbCircle
 10
214.6447933884
 20
736.6116115702
 30
0.0
 40
67.00000000000009
100
AcDbArc
 50
354.7562578805
 51
28.225124142
  0
LINE
  5
245
330
1F
100
AcDbEntity
  8
0
  6
Continuous
 62
     7
370
    15
100
AcDbLine
 10
277.3949620491
 20
687.2374464167
 30
0.0
 11
281.3643929726
 21
730.4882753981
 31
0.0
  0
ARC
  5
246
330
1F
100
AcDbEntity
  8
0
  6
Continuous
 62
     7
370
    15
100
AcDbCircle
 10
274.4075162192
 20
687.5116115702
 30
0.0
 40
2.999999999999981
100
AcDbArc
 50
270.0
 51
354.7562578805
  0
LINE
  5
247
330
1F
100
AcDbEntity
  8
0
  6
Continuous
 62
     7
370
    15
100
AcDbLine
 10
190.8820723361
 20
684.5116068019
 30
0.0
 11
274.4075176483
 21
684.5116068019
 31
0.0
  0
ARC
  5
248
330
1F
100
AcDbEntity
  8
0
  6
Continuous
 62
     7
370
    15
100
AcDbCircle
 10
190.8820705576
 20
687.5116115702
 30
0.0
 40
3.000000000000114
100
AcDbArc
 50
185.2437421195
 51
270.0
  0
LINE
  5
249
330
1F
100
AcDbEntity
  8
0
  6
Continuous
 62
     7
370
    15
100
AcDbLine
 10
186.9502593941
 20
697.5272346629
 30
0.0
 11
187.89462421
 21
687.2374464167
 31
0.0
  0
ARC
  5
24A
330
1F
100
AcDbEntity
  8
0
  6
Continuous
 62
     7
370
    15
100
AcDbCircle
 10
181.9711857798
 20
697.0702577626
 30
0.0
 40
4.999999999999951
100
AcDbArc
 50
5.2437421195
 51
85.0
  0
LINE
  5
24B
330
1F
100
AcDbEntity
  8
0
  6
Continuous
 62
     7
370
    15
100
AcDbLine
 10
179.8833278185
 20
702.2720326079
 30
0.0
 11
182.4069661266
 21
702.0512272014
 31
0.0
  0
ARC
  5
24C
330
1F
100
AcDbEntity
  8
0
  6
Continuous
 62
     7
370
    15
100
AcDbCircle
 10
180.1447933884
 20
705.2606050923
 30
0.0
 40
3.0
100
AcDbArc
 50
180.0
 51
265.0
  0
LINE
  5
24D
330
1F
100
AcDbEntity
  8
0
  6
Continuous
 62
     7
370
    15
100
AcDbLine
 10
177.1447924143
 20
745.5626178874
 30
0.0
 11
177.1447924143
 21
705.260609497
 31
0.0
  0
ARC
  5
24E
330
1F
100
AcDbEntity
  8
0
  6
Continuous
 62
     7
370
    15
100
AcDbCircle
 10
180.1447933884
 20
745.5626180482
 30
0.0
 40
3.000000000000089
100
AcDbArc
 50
95.0
 51
180.0
  0
LINE
  5
24F
330
1F
100
AcDbEntity
  8
0
  6
Continuous
 62
     7
370
    15
100
AcDbLine
 10
179.8833278185
 20
748.5511947764
 30
0.0
 11
181.1233614749
 21
748.6597050322
 31
0.0
  0
LINE
  5
250
330
1F
100
AcDbEntity
  8
0
  6
Continuous
 62
     7
370
    15
100
AcDbLine
 10
216.8472460648
 20
798.7116027964
 30
0.0
 11
216.8472460648
 21
797.2116221083
 31
0.0
  0
LINE
  5
251
330
1F
100
AcDbEntity
  8
0
  6
Continuous
 62
     7
370
    15
100
AcDbLine
 10
251.8947930253
 20
798.7116027964
 30
0.0
 11
216.8472460648
 21
798.7116027964
 31
0.0
  0
LINE
  5
252
330
1F
100
AcDbEntity
  8
0
  6
Continuous
 62
     7
370
    15
100
AcDbLine
 10
213.3947932339
 20
795.2116180552
 30
0.0
 11
251.8947930253
 21
795.2116180552
 31
0.0
  0
SPLINE
  5
253
330
1F
100
AcDbEntity
  8
0
  6
Continuous
 62
     7
370
    15
100
AcDbSpline
210
0.0
220
0.0
230
1.0
 70
    24
 71
     1
 72
     4
 73
     2
 74
     0
 42
0.00000001
 43
0.00000001
 40
0.0
 40
0.0
 40
1.0
 40
1.0
 10
218.5720135635153
 20
801.6116071833466
 30
0.0
 10
216.8472460648433
 20
798.7116027964447
 30
0.0
  0
LINE
  5
254
330
1F
100
AcDbEntity
  8
0
  6
Continuous
 62
     7
370
    15
100
AcDbLine
 10
248.9947942263
 20
801.6116071833
 30
0.0
 11
218.5720135635
 21
801.6116071833
 31
0.0
  0
LINE
  5
255
330
1F
100
AcDbEntity
  8
0
  6
Continuous
 62
     7
370
    15
100
AcDbLine
 10
245.1447933158
 20
794.2116011275
 30
0.0
 11
220.1447929433
 21
794.2116011275
 31
0.0
  0
LINE
  5
256
330
1F
100
AcDbEntity
  8
0
  6
Continuous
 62
     7
370
    15
100
AcDbLine
 10
245.1297934344
 20
794.6116078986
 30
0.0
 11
220.159793756
 21
794.6116078986
 31
0.0
  0
LINE
  5
257
330
1F
100
AcDbEntity
  8
0
  6
Continuous
 62
     7
370
    15
100
AcDbLine
 10
200.8754690355
 20
798.7116027964
 30
0.0
 11
216.8472460648
 21
798.7116027964
 31
0.0
  0
ELLIPSE
  5
258
330
1F
100
AcDbEntity
  8
0
  6
Continuous
 62
     7
370
    15
100
AcDbEllipse
 10
201.0947933884
 20
800.2116115702
 30
0.0
 11
1.13555872625912
 21
1.135558726259092
 31
0.0
210
0.0
220
0.0
230
1.0
 40
0.8630590836
 41
3.141592653589867
 42
3.853619502145427
  0
LINE
  5
259
330
1F
100
AcDbEntity
  8
0
  6
Continuous
 62
     7
370
    15
100
AcDbLine
 10
202.4947931236
 20
801.6116071833
 30
0.0
 11
199.9592338866
 21
799.0760553969
 31
0.0
  0
LINE
  5
25A
330
1F
100
AcDbEntity
  8
0
  6
Continuous
 62
     7
370
    15
100
AcDbLine
 10
202.4947931236
 20
801.6116071833
 30
0.0
 11
218.5720135635
 21
801.6116071833
 31
0.0
  0
LINE
  5
25B
330
1F
100
AcDbEntity
  8
0
  6
Continuous
 62
     7
370
    15
100
AcDbLine
 10
200.8754690355
 20
797.2116221083
 30
0.0
 11
200.8754690355
 21
798.7116027964
 31
0.0
  0
LINE
  5
25C
330
1F
100
AcDbEntity
  8
0
  6
Continuous
 62
     7
370
    15
100
AcDbLine
 10
216.8472460648
 20
797.2116221083
 30
0.0
 11
200.8754690355
 21
797.2116221083
 31
0.0
  0
LINE
  5
25D
330
1F
100
AcDbEntity
  8
0
  6
Continuous
 62
     7
370
    15
100
AcDbLine
 10
199.594792462
 20
798.7116027964
 30
0.0
 11
199.594792462
 21
797.2116221083
 31
0.0
  0
LWPOLYLINE
  5
25E
330
1F
100
AcDbEntity
  8
0
  6
Continuous
 62
     7
370
    15
100
AcDbPolyline
 90
        5
 70
   128
 43
0.0
 10
199.9592338866
 20
799.0760553969
 10
199.803643412
 20
798.9204574717
 10
199.6888523167
 20
798.8056589259
 10
199.6184964842
 20
798.7353254451
 10
199.594792462
 20
798.7116027964
  0
LINE
  5
25F
330
1F
100
AcDbEntity
  8
0
  6
Continuous
 62
     7
370
    15
100
AcDbLine
 10
200.8754690355
 20
797.2116221083
 30
0.0
 11
199.594792462
 21
797.2116221083
 31
0.0
  0
LINE
  5
260
330
1F
100
AcDbEntity
  8
0
  6
Continuous
 62
     7
370
    15
100
AcDbLine
 10
223.1379212058
 20
801.6116071833
 30
0.0
 11
223.1379212058
 21
813.4115983142
 31
0.0
  0
LINE
  5
261
330
1F
100
AcDbEntity
  8
0
  6
Continuous
 62
     7
370
    15
100
AcDbLine
 10
223.1379212058
 20
813.4115983142
 30
0.0
 11
242.1516659847
 21
813.4115983142
 31
0.0
  0
LINE
  5
262
330
1F
100
AcDbEntity
  8
0
  6
Continuous
 62
     7
370
    15
100
AcDbLine
 10
242.1516659847
 20
813.4115983142
 30
0.0
 11
242.1516659847
 21
801.6116071833
 31
0.0
  0
LINE
  5
263
330
1F
100
AcDbEntity
  8
0
  6
Continuous
 62
     7
370
    15
100
AcDbLine
 10
244.9077707893
 20
809.4116200103
 30
0.0
 11
244.9077707893
 21
812.9116047515
 31
0.0
  0
LINE
  5
264
330
1F
100
AcDbEntity
  8
0
  6
Continuous
 62
     7
370
    15
100
AcDbLine
 10
245.0697929776
 20
809.4116200103
 30
0.0
 11
244.9077707893
 21
809.4116200103
 31
0.0
  0
LINE
  5
265
330
1F
100
AcDbEntity
  8
0
  6
Continuous
 62
     7
370
    15
100
AcDbLine
 10
244.8156862697
 20
813.4115983142
 30
0.0
 11
242.1516659847
 21
813.4115983142
 31
0.0
  0
ARC
  5
266
330
1F
100
AcDbEntity
  8
0
  6
Continuous
 62
     7
370
    15
100
AcDbCircle
 10
232.6447933884
 20
810.9116115702
 30
0.0
 40
12.42500000000001
100
AcDbArc
 50
9.2629588366
 51
11.6075642206
  0
LINE
  5
267
330
1F
100
AcDbEntity
  8
0
  6
Continuous
 62
     7
370
    15
100
AcDbLine
 10
220.3818154699
 20
809.4116200103
 30
0.0
 11
220.2197932816
 21
809.4116200103
 31
0.0
  0
LINE
  5
268
330
1F
100
AcDbEntity
  8
0
  6
Continuous
 62
     7
370
    15
100
AcDbLine
 10
220.3818154699
 20
812.9116047515
 30
0.0
 11
220.3818154699
 21
809.4116200103
 31
0.0
  0
ARC
  5
269
330
1F
100
AcDbEntity
  8
0
  6
Continuous
 62
     7
370
    15
100
AcDbCircle
 10
232.6447933884
 20
810.9116115702
 30
0.0
 40
12.42500000000004
100
AcDbArc
 50
168.3924357794
 51
170.7370411634
  0
LINE
  5
26A
330
1F
100
AcDbEntity
  8
0
  6
Continuous
 62
     7
370
    15
100
AcDbLine
 10
223.1379212058
 20
813.4115983142
 30
0.0
 11
220.4739009208
 21
813.4115983142
 31
0.0
  0
LINE
  5
26B
330
1F
100
AcDbEntity
  8
0
  6
Continuous
 62
     7
370
    15
100
AcDbLine
 10
231.6352133816
 20
244.0616090192
 30
0.0
 11
216.2352134651
 21
244.0616090192
 31
0.0
  0
LINE
  5
26C
330
1F
100
AcDbEntity
  8
0
  6
Continuous
 62
     7
370
    15
100
AcDbLine
 10
247.0352132982
 20
244.0616090192
 30
0.0
 11
231.6352133816
 21
244.0616090192
 31
0.0
  0
LINE
  5
26D
330
1F
100
AcDbEntity
  8
0
  6
Continuous
 62
     7
370
    15
100
AcDbLine
 10
231.6352133816
 20
248.0616171254
 30
0.0
 11
251.0352139539
 21
248.0616171254
 31
0.0
  0
LINE
  5
26E
330
1F
100
AcDbEntity
  8
0
  6
Continuous
 62
     7
370
    15
100
AcDbLine
 10
212.2352128094
 20
248.0616171254
 30
0.0
 11
231.6352133816
 21
248.0616171254
 31
0.0
  0
LINE
  5
26F
330
1F
100
AcDbEntity
  8
0
  6
Continuous
 62
     7
370
    15
100
AcDbLine
 10
231.6352133816
 20
251.5616167678
 30
0.0
 11
212.2352128094
 21
251.5616167678
 31
0.0
  0
LINE
  5
270
330
1F
100
AcDbEntity
  8
0
  6
Continuous
 62
     7
370
    15
100
AcDbLine
 10
251.0352139539
 20
251.5616167678
 30
0.0
 11
231.6352133816
 21
251.5616167678
 31
0.0
  0
LINE
  5
271
330
1F
100
AcDbEntity
  8
0
  6
Continuous
 62
     7
370
    15
100
AcDbLine
 10
217.735213711
 20
253.5616059197
 30
0.0
 11
245.5352130523
 21
253.5616059197
 31
0.0
  0
LINE
  5
272
330
1F
100
AcDbEntity
  8
0
  6
Continuous
 62
     7
370
    15
100
AcDbLine
 10
261.6352127111
 20
594.5116181268
 30
0.0
 11
261.6352127111
 21
264.5116050137
 31
0.0
  0
LINE
  5
273
330
1F
100
AcDbEntity
  8
0
  6
Continuous
 62
     7
370
    15
100
AcDbLine
 10
201.6352140522
 20
594.5116181268
 30
0.0
 11
201.6352140522
 21
264.5116050137
 31
0.0
  0
LINE
  5
274
330
1F
100
AcDbEntity
  8
0
  6
Continuous
 62
     7
370
    15
100
AcDbLine
 10
206.6352130091
 20
461.5116130902
 30
0.0
 11
256.6352137542
 21
461.5116130902
 31
0.0
  0
LINE
  5
275
330
1F
100
AcDbEntity
  8
0
  6
Continuous
 62
     7
370
    15
100
AcDbLine
 10
206.6352130091
 20
397.5116100503
 30
0.0
 11
256.6352137542
 21
397.5116100503
 31
0.0
  0
LINE
  5
276
330
1F
100
AcDbEntity
  8
0
  6
Continuous
 62
     7
370
    15
100
AcDbLine
 10
206.6352130091
 20
397.5116100503
 30
0.0
 11
206.6352130091
 21
461.5116130902
 31
0.0
  0
LINE
  5
277
330
1F
100
AcDbEntity
  8
0
  6
Continuous
 62
     7
370
    15
100
AcDbLine
 10
256.6352137542
 20
397.5116100503
 30
0.0
 11
256.6352137542
 21
461.5116130902
 31
0.0
  0
LINE
  5
278
330
1F
100
AcDbEntity
  8
0
  6
Continuous
 62
     7
370
    15
100
AcDbLine
 10
256.6352137542
 20
391.3093630566
 30
0.0
 11
206.6352130091
 21
391.3093630566
 31
0.0
  0
LINE
  5
279
330
1F
100
AcDbEntity
  8
0
  6
Continuous
 62
     7
370
    15
100
AcDbLine
 10
206.6352130091
 20
391.3093630566
 30
0.0
 11
206.6352130091
 21
397.5116100503
 31
0.0
  0
LINE
  5
27A
330
1F
100
AcDbEntity
  8
0
  6
Continuous
 62
     7
370
    15
100
AcDbLine
 10
256.6352137542
 20
397.5116100503
 30
0.0
 11
256.6352137542
 21
391.3093630566
 31
0.0
  0
LINE
  5
27B
330
1F
100
AcDbEntity
  8
0
  6
Continuous
 62
     7
370
    15
100
AcDbLine
 10
206.6352130091
 20
467.7138600839
 30
0.0
 11
256.6352137542
 21
467.7138600839
 31
0.0
  0
LINE
  5
27C
330
1F
100
AcDbEntity
  8
0
  6
Continuous
 62
     7
370
    15
100
AcDbLine
 10
206.6352130091
 20
461.5116130902
 30
0.0
 11
206.6352130091
 21
467.7138600839
 31
0.0
  0
LINE
  5
27D
330
1F
100
AcDbEntity
  8
0
  6
Continuous
 62
     7
370
    15
100
AcDbLine
 10
256.6352137542
 20
467.7138600839
 30
0.0
 11
256.6352137542
 21
461.5116130902
 31
0.0
  0
LINE
  5
27E
330
1F
100
AcDbEntity
  8
0
  6
Continuous
 62
     7
370
    15
100
AcDbLine
 10
206.6352130091
 20
263.8596047057
 30
0.0
 11
256.6352137542
 21
263.8596047057
 31
0.0
  0
LINE
  5
27F
330
1F
100
AcDbEntity
  8
0
  6
Continuous
 62
     7
370
    15
100
AcDbLine
 10
206.6352130091
 20
263.8596047057
 30
0.0
 11
206.6352130091
 21
391.3093630566
 31
0.0
  0
LINE
  5
280
330
1F
100
AcDbEntity
  8
0
  6
Continuous
 62
     7
370
    15
100
AcDbLine
 10
256.6352137542
 20
263.8596047057
 30
0.0
 11
256.6352137542
 21
391.3093630566
 31
0.0
  0
LINE
  5
281
330
1F
100
AcDbEntity
  8
0
  6
Continuous
 62
     7
370
    15
100
AcDbLine
 10
256.6352137542
 20
595.1636184348
 30
0.0
 11
206.6352130091
 21
595.1636184348
 31
0.0
  0
LINE
  5
282
330
1F
100
AcDbEntity
  8
0
  6
Continuous
 62
     7
370
    15
100
AcDbLine
 10
206.6352130091
 20
467.7138600839
 30
0.0
 11
206.6352130091
 21
595.1636184348
 31
0.0
  0
LINE
  5
283
330
1F
100
AcDbEntity
  8
0
  6
Continuous
 62
     7
370
    15
100
AcDbLine
 10
256.6352137542
 20
467.7138600839
 30
0.0
 11
256.6352137542
 21
595.1636184348
 31
0.0
  0
LINE
  5
284
330
1F
100
AcDbEntity
  8
0
  6
Continuous
 62
     7
370
    15
100
AcDbLine
 10
256.6352137542
 20
256.0642112388
 30
0.0
 11
206.6352130091
 21
256.0642112388
 31
0.0
  0
LINE
  5
285
330
1F
100
AcDbEntity
  8
0
  6
Continuous
 62
     7
370
    15
100
AcDbLine
 10
206.6352130091
 20
256.0642112388
 30
0.0
 11
206.6352130091
 21
263.8596047057
 31
0.0
  0
LINE
  5
286
330
1F
100
AcDbEntity
  8
0
  6
Continuous
 62
     7
370
    15
100
AcDbLine
 10
256.6352137542
 20
263.8596047057
 30
0.0
 11
256.6352137542
 21
256.0642112388
 31
0.0
  0
LINE
  5
287
330
1F
100
AcDbEntity
  8
0
  6
Continuous
 62
     7
370
    15
100
AcDbLine
 10
206.6352130091
 20
602.9590119017
 30
0.0
 11
256.6352137542
 21
602.9590119017
 31
0.0
  0
LINE
  5
288
330
1F
100
AcDbEntity
  8
0
  6
Continuous
 62
     7
370
    15
100
AcDbLine
 10
206.6352130091
 20
595.1636184348
 30
0.0
 11
206.6352130091
 21
602.9590119017
 31
0.0
  0
LINE
  5
289
330
1F
100
AcDbEntity
  8
0
  6
Continuous
 62
     7
370
    15
100
AcDbLine
 10
256.6352137542
 20
602.9590119017
 30
0.0
 11
256.6352137542
 21
595.1636184348
 31
0.0
  0
LINE
  5
28A
330
1F
100
AcDbEntity
  8
0
  6
Continuous
 62
     7
370
    15
100
AcDbLine
 10
206.6352130091
 20
254.5116145505
 30
0.0
 11
256.6352137542
 21
254.5116145505
 31
0.0
  0
LINE
  5
28B
330
1F
100
AcDbEntity
  8
0
  6
Continuous
 62
     7
370
    15
100
AcDbLine
 10
206.6352130091
 20
254.5116145505
 30
0.0
 11
206.6352130091
 21
256.0642112388
 31
0.0
  0
LINE
  5
28C
330
1F
100
AcDbEntity
  8
0
  6
Continuous
 62
     7
370
    15
100
AcDbLine
 10
256.6352137542
 20
254.5116145505
 30
0.0
 11
256.6352137542
 21
256.0642112388
 31
0.0
  0
LINE
  5
28D
330
1F
100
AcDbEntity
  8
0
  6
Continuous
 62
     7
370
    15
100
AcDbLine
 10
206.6352130091
 20
602.9590119017
 30
0.0
 11
206.6352130091
 21
604.51160859
 31
0.0
  0
LINE
  5
28E
330
1F
100
AcDbEntity
  8
0
  6
Continuous
 62
     7
370
    15
100
AcDbLine
 10
256.6352137542
 20
602.9590119017
 30
0.0
 11
256.6352137542
 21
604.51160859
 31
0.0
  0
LINE
  5
28F
330
1F
100
AcDbEntity
  8
0
  6
Continuous
 62
     7
370
    15
100
AcDbLine
 10
186.9939495987
 20
675.1116115941
 30
0.0
 11
186.9939495987
 21
677.5953818454
 31
0.0
  0
LINE
  5
290
330
1F
100
AcDbEntity
  8
0
  6
Continuous
 62
     7
370
    15
100
AcDbLine
 10
276.2124431497
 20
675.1116115941
 30
0.0
 11
276.2124431497
 21
677.3571122779
 31
0.0
  0
SPLINE
  5
291
330
1F
100
AcDbEntity
  8
0
  6
Continuous
 62
     7
370
    15
100
AcDbSpline
210
0.0
220
0.0
230
1.0
 70
     8
 71
     3
 72
    12
 73
     8
 74
     0
 42
0.00000001
 43
0.00000001
 40
0.0
 40
0.0
 40
0.0
 40
0.0
 40
0.1395939668289023
 40
0.4229253012059688
 40
0.7082986116474327
 40
0.912403845432514
 40
1.0
 40
1.0
 40
1.0
 40
1.0
 10
275.2668415373578
 20
673.8386053932999
 30
0.0
 10
275.3352768107784
 20
673.8630218290187
 30
0.0
 10
275.5426139133912
 20
673.936995860027
 30
0.0
 10
275.829587989369
 20
674.2077918731277
 30
0.0
 10
276.086673171114
 20
674.5584582638462
 30
0.0
 10
276.1879643520244
 20
674.8879532335168
 30
0.0
 10
276.1950436033142
 20
675.0599592364919
 30
0.0
 10
276.1971694594636
 20
675.1116115940903
 30
0.0
  0
SPLINE
  5
292
330
1F
100
AcDbEntity
  8
0
  6
Continuous
 62
     7
370
    15
100
AcDbSpline
210
0.0
220
0.0
230
1.0
 70
     8
 71
     3
 72
    13
 73
     9
 74
     0
 42
0.00000001
 43
0.00000001
 40
0.0
 40
0.0
 40
0.0
 40
0.0
 40
0.0623164508644838
 40
0.1243947619988122
 40
0.2242463169135075
 40
0.3926542788558826
 40
0.8702308026181285
 40
1.0
 40
1.0
 40
1.0
 40
1.0
 10
276.1971694594636
 20
675.1116115940903
 30
0.0
 10
276.1971638967073
 20
674.9933051039889
 30
0.0
 10
276.1971527924526
 20
674.7571442271268
 30
0.0
 10
276.1970653328327
 20
674.3808952211897
 30
0.0
 10
276.1968846133931
 20
673.9479223158291
 30
0.0
 10
276.1963566002683
 20
673.3652760301485
 30
0.0
 10
276.195770963718
 20
673.2280054241758
 30
0.0
 10
276.195311791581
 20
673.246909202523
 30
0.0
 10
276.1952136820569
 20
673.2509482992981
 30
0.0
  0
LINE
  5
293
330
1F
100
AcDbEntity
  8
0
  6
Continuous
 62
     7
370
    15
100
AcDbLine
 10
275.0714649624
 20
673.111607541
 30
0.0
 11
275.5101663238
 21
673.111607541
 31
0.0
  0
LINE
  5
294
330
1F
100
AcDbEntity
  8
0
  6
Continuous
 62
     7
370
    15
100
AcDbLine
 10
276.1971694595
 20
675.1116115941
 30
0.0
 11
276.1971694595
 21
677.3002792491
 31
0.0
  0
SPLINE
  5
295
330
1F
100
AcDbEntity
  8
0
  6
Continuous
 62
     7
370
    15
100
AcDbSpline
210
0.0
220
0.0
230
1.0
 70
     8
 71
     3
 72
    14
 73
    10
 74
     0
 42
0.00000001
 43
0.00000001
 40
0.0
 40
0.0
 40
0.0
 40
0.0
 40
0.1952472842057666
 40
0.5120212458264674
 40
0.7021768930839527
 40
0.8186059427094163
 40
0.9017358518712768
 40
0.966836807442353
 40
1.0
 40
1.0
 40
1.0
 40
1.0
 10
187.0752130812421
 20
673.2509930027817
 30
0.0
 10
187.0751223595423
 20
673.248783048841
 30
0.0
 10
187.0748844487416
 20
673.2429876116618
 30
0.0
 10
187.0745602466196
 20
673.3876500139821
 30
0.0
 10
187.0742834273335
 20
673.7429349392435
 30
0.0
 10
187.0741268676188
 20
674.1470060743679
 30
0.0
 10
187.0740520301052
 20
674.5356487058995
 30
0.0
 10
187.0740157508295
 20
674.862520525749
 30
0.0
 10
187.0740140961905
 20
675.0487581952416
 30
0.0
 10
187.0740135377659
 20
675.1116115940903
 30
0.0
  0
SPLINE
  5
296
330
1F
100
AcDbEntity
  8
0
  6
Continuous
 62
     7
370
    15
100
AcDbSpline
210
0.0
220
0.0
230
1.0
 70
     8
 71
     3
 72
    11
 73
     7
 74
     0
 42
0.00000001
 43
0.00000001
 40
0.0
 40
0.0
 40
0.0
 40
0.0
 40
0.2003226739595151
 40
0.3998796126065084
 40
0.7208634591323616
 40
0.9999999999999999
 40
0.9999999999999999
 40
0.9999999999999999
 40
0.9999999999999999
 10
187.0740135377659
 20
675.1116115940903
 30
0.0
 10
187.0848018557824
 20
674.9931580846516
 30
0.0
 10
187.1063372533677
 20
674.756703855432
 30
0.0
 10
187.2940530768181
 20
674.3830937550013
 30
0.0
 10
187.5881369027047
 20
674.0416284741189
 30
0.0
 10
187.8716628815147
 20
673.9031707394101
 30
0.0
 10
188.0035405224576
 20
673.838769306073
 30
0.0
  0
LINE
  5
297
330
1F
100
AcDbEntity
  8
0
  6
Continuous
 62
     7
370
    15
100
AcDbLine
 10
187.7602604395
 20
673.111607541
 30
0.0
 11
188.1989618009
 21
673.111607541
 31
0.0
  0
LINE
  5
298
330
1F
100
AcDbEntity
  8
0
  6
Continuous
 62
     7
370
    15
100
AcDbLine
 10
187.0740135378
 20
675.1116115941
 30
0.0
 11
187.0740135378
 21
677.2974629296
 31
0.0
  0
LINE
  5
299
330
1F
100
AcDbEntity
  8
0
  6
Continuous
 62
     7
370
    15
100
AcDbLine
 10
203.4102142966
 20
616.5116180076
 30
0.0
 11
259.8602124667
 21
616.5116180076
 31
0.0
  0
LINE
  5
29A
330
1F
100
AcDbEntity
  8
0
  6
Continuous
 62
     7
370
    15
100
AcDbLine
 10
188.3602147168
 20
672.5116122855
 30
0.0
 11
203.4102142966
 21
616.5116180076
 31
0.0
  0
LINE
  5
29B
330
1F
100
AcDbEntity
  8
0
  6
Continuous
 62
     7
370
    15
100
AcDbLine
 10
188.3602147168
 20
672.5116122855
 30
0.0
 11
274.9102120465
 21
672.5116122855
 31
0.0
  0
LINE
  5
29C
330
1F
100
AcDbEntity
  8
0
  6
Continuous
 62
     7
370
    15
100
AcDbLine
 10
259.8602124667
 20
616.5116180076
 30
0.0
 11
274.9102120465
 21
672.5116122855
 31
0.0
  0
LINE
  5
29D
330
1F
100
AcDbEntity
  8
0
  6
Continuous
 62
     7
370
    15
100
AcDbLine
 10
206.6352130091
 20
604.51160859
 30
0.0
 11
256.6352137542
 21
604.51160859
 31
0.0
  0
LWPOLYLINE
  5
29E
330
1F
100
AcDbEntity
  8
0
  6
Continuous
 62
     7
370
    15
100
AcDbPolyline
 90
       10
 70
   128
 43
0.0
 10
203.4102142966
 20
616.5116180076
 10
203.9702278739
 20
614.4278396262
 10
204.5132280505
 20
612.4073762788
 10
205.0227136529
 20
610.5116058482
 10
205.4832042372
 20
608.798166026
 10
205.8807076132
 20
607.3190767659
 10
206.2031445271
 20
606.1193097724
 10
206.4407211906
 20
605.2352983846
 10
206.5862179911
 20
604.6939242972
 10
206.6352130091
 20
604.51160859
  0
LWPOLYLINE
  5
29F
330
1F
100
AcDbEntity
  8
0
  6
Continuous
 62
     7
370
    15
100
AcDbPolyline
 90
       10
 70
   128
 43
0.0
 10
256.6352137542
 20
604.51160859
 10
256.6842087722
 20
604.6939242972
 10
256.8297055727
 20
605.2352983846
 10
257.0672822362
 20
606.1193097724
 10
257.3897191501
 20
607.3190767659
 10
257.7872225261
 20
608.798166026
 10
258.2477131104
 20
610.5116058482
 10
258.7571987128
 20
612.4073762788
 10
259.3001988894
 20
614.4278396262
 10
259.8602124667
 20
616.5116180076
  0
LWPOLYLINE
  5
2A0
330
1F
100
AcDbEntity
  8
0
  6
Continuous
 62
     7
370
    15
100
AcDbPolyline
 90
       10
 70
   128
 43
0.0
 10
185.135212279
 20
684.5116068019
 10
185.184207297
 20
684.3293059958
 10
185.3297059602
 20
683.7879170073
 10
185.5672826237
 20
682.9039205207
 10
185.8897214001
 20
681.704138626
 10
186.2872247762
 20
680.2250493659
 10
186.7477116352
 20
678.5116095437
 10
187.2571972376
 20
676.6158540143
 10
187.8001992768
 20
674.5953906669
 10
188.3602147168
 20
672.5116122855
  0
LINE
  5
2A1
330
1F
100
AcDbEntity
  8
0
  6
Continuous
 62
     7
370
    15
100
AcDbLine
 10
185.135212279
 20
684.5116068019
 30
0.0
 11
190.8820723361
 21
684.5116068019
 31
0.0
  0
LINE
  5
2A2
330
1F
100
AcDbEntity
  8
0
  6
Continuous
 62
     7
370
    15
100
AcDbLine
 10
274.4075176483
 20
684.5116068019
 30
0.0
 11
278.1352144843
 21
684.5116068019
 31
0.0
  0
LWPOLYLINE
  5
2A3
330
1F
100
AcDbEntity
  8
0
  6
Continuous
 62
     7
370
    15
100
AcDbPolyline
 90
       10
 70
   128
 43
0.0
 10
274.9102120465
 20
672.5116122855
 10
275.4702274865
 20
674.5953906669
 10
276.0132295257
 20
676.6158540143
 10
276.5227151281
 20
678.5116095437
 10
276.9832019871
 20
680.2250493659
 10
277.3807053632
 20
681.704138626
 10
277.7031441396
 20
682.9039205207
 10
277.9407208031
 20
683.7879170073
 10
278.0862194663
 20
684.3293059958
 10
278.1352144843
 20
684.5116068019
  0
LINE
  5
2A4
330
1F
100
AcDbEntity
  8
0
  6
Continuous
 62
     7
370
    15
100
AcDbLine
 10
688.3015948159
 20
146.2427532806
 30
0.0
 11
463.3016007764
 21
146.2427532806
 31
0.0
  0
ARC
  5
2A5
330
1F
100
AcDbEntity
  8
0
  6
Continuous
 62
     7
370
    15
100
AcDbCircle
 10
695.3015977961
 20
50.7427548209
 30
0.0
 40
2.000000000000014
100
AcDbArc
 50
270.0
 51
360.0
  0
ARC
  5
2A6
330
1F
100
AcDbEntity
  8
0
  6
Continuous
 62
     7
370
    15
100
AcDbCircle
 10
456.3015977961
 20
143.7427548209
 30
0.0
 40
2.000000000000057
100
AcDbArc
 50
90.0
 51
180.0
  0
ARC
  5
2A7
330
1F
100
AcDbEntity
  8
0
  6
Continuous
 62
     7
370
    15
100
AcDbCircle
 10
695.3015977961
 20
143.7427548209
 30
0.0
 40
2.000000000000057
100
AcDbArc
 50
0.0
 51
90.0
  0
ARC
  5
2A8
330
1F
100
AcDbEntity
  8
0
  6
Continuous
 62
     7
370
    15
100
AcDbCircle
 10
456.3015977961
 20
50.7427548209
 30
0.0
 40
2.000000000000014
100
AcDbArc
 50
180.0
 51
270.0
  0
LINE
  5
2A9
330
1F
100
AcDbEntity
  8
0
  6
Continuous
 62
     7
370
    15
100
AcDbLine
 10
695.3015941007
 20
145.7427559926
 30
0.0
 11
688.3015948159
 21
145.7427559926
 31
0.0
  0
LINE
  5
2AA
330
1F
100
AcDbEntity
  8
0
  6
Continuous
 62
     7
370
    15
100
AcDbLine
 10
688.3015948159
 20
48.7427531316
 30
0.0
 11
695.3015941007
 21
48.7427531316
 31
0.0
  0
LINE
  5
2AB
330
1F
100
AcDbEntity
  8
0
  6
Continuous
 62
     7
370
    15
100
AcDbLine
 10
463.3016007764
 20
145.7427559926
 30
0.0
 11
456.3016014916
 21
145.7427559926
 31
0.0
  0
LINE
  5
2AC
330
1F
100
AcDbEntity
  8
0
  6
Continuous
 62
     7
370
    15
100
AcDbLine
 10
456.3016014916
 20
48.7427531316
 30
0.0
 11
463.3016007764
 21
48.7427531316
 31
0.0
  0
LINE
  5
2AD
330
1F
100
AcDbEntity
  8
0
  6
Continuous
 62
     7
370
    15
100
AcDbLine
 10
704.3015974385
 20
88.0051503463
 30
0.0
 11
705.3015994651
 21
89.7427547297
 31
0.0
  0
LINE
  5
2AE
330
1F
100
AcDbEntity
  8
0
  6
Continuous
 62
     7
370
    15
100
AcDbLine
 10
705.3015994651
 20
104.7427548601
 30
0.0
 11
704.3015974385
 21
106.4803587778
 31
0.0
  0
LINE
  5
2AF
330
1F
100
AcDbEntity
  8
0
  6
Continuous
 62
     7
370
    15
100
AcDbLine
 10
698.3016001803
 20
106.4803587778
 30
0.0
 11
697.3015981538
 21
104.7427548601
 31
0.0
  0
LINE
  5
2B0
330
1F
100
AcDbEntity
  8
0
  6
Continuous
 62
     7
370
    15
100
AcDbLine
 10
697.3015981538
 20
89.7427547297
 30
0.0
 11
698.3016001803
 21
88.0051503463
 31
0.0
  0
LINE
  5
2B1
330
1F
100
AcDbEntity
  8
0
  6
Continuous
 62
     7
370
    15
100
AcDbLine
 10
447.3015981538
 20
106.4803587778
 30
0.0
 11
446.3015961272
 21
104.7427548601
 31
0.0
  0
LINE
  5
2B2
330
1F
100
AcDbEntity
  8
0
  6
Continuous
 62
     7
370
    15
100
AcDbLine
 10
446.3015961272
 20
89.7427547297
 30
0.0
 11
447.3015981538
 21
88.0051503463
 31
0.0
  0
LINE
  5
2B3
330
1F
100
AcDbEntity
  8
0
  6
Continuous
 62
     7
370
    15
100
AcDbLine
 10
453.301595412
 20
88.0051503463
 30
0.0
 11
454.3015974385
 21
89.7427547297
 31
0.0
  0
LINE
  5
2B4
330
1F
100
AcDbEntity
  8
0
  6
Continuous
 62
     7
370
    15
100
AcDbLine
 10
454.3015974385
 20
104.7427548601
 30
0.0
 11
453.301595412
 21
106.4803587778
 31
0.0
  0
LINE
  5
2B5
330
1F
100
AcDbEntity
  8
0
  6
Continuous
 62
     7
370
    15
100
AcDbLine
 10
705.3015994651
 20
92.2427546738
 30
0.0
 11
707.1016001326
 21
92.2427546738
 31
0.0
  0
LINE
  5
2B6
330
1F
100
AcDbEntity
  8
0
  6
Continuous
 62
     7
370
    15
100
AcDbLine
 10
707.1016001326
 20
102.242754916
 30
0.0
 11
705.3015994651
 21
102.242754916
 31
0.0
  0
LINE
  5
2B7
330
1F
100
AcDbEntity
  8
0
  6
Continuous
 62
     7
370
    15
100
AcDbLine
 10
707.1016001326
 20
92.2427546738
 30
0.0
 11
707.6015936953
 21
92.7427547558
 31
0.0
  0
LINE
  5
2B8
330
1F
100
AcDbEntity
  8
0
  6
Continuous
 62
     7
370
    15
100
AcDbLine
 10
707.6015936953
 20
101.742754834
 30
0.0
 11
707.1016001326
 21
102.242754916
 31
0.0
  0
LINE
  5
2B9
330
1F
100
AcDbEntity
  8
0
  6
Continuous
 62
     7
370
    15
100
AcDbLine
 10
444.5015954596
 20
102.242754916
 30
0.0
 11
444.0016018969
 21
101.742754834
 31
0.0
  0
LINE
  5
2BA
330
1F
100
AcDbEntity
  8
0
  6
Continuous
 62
     7
370
    15
100
AcDbLine
 10
444.0016018969
 20
92.7427547558
 30
0.0
 11
444.5015954596
 21
92.2427546738
 31
0.0
  0
LINE
  5
2BB
330
1F
100
AcDbEntity
  8
0
  6
Continuous
 62
     7
370
    15
100
AcDbLine
 10
446.3015961272
 20
102.242754916
 30
0.0
 11
444.5015954596
 21
102.242754916
 31
0.0
  0
LINE
  5
2BC
330
1F
100
AcDbEntity
  8
0
  6
Continuous
 62
     7
370
    15
100
AcDbLine
 10
444.5015954596
 20
92.2427546738
 30
0.0
 11
446.3015961272
 21
92.2427546738
 31
0.0
  0
LINE
  5
2BD
330
1F
100
AcDbEntity
  8
0
  6
Continuous
 62
     7
370
    15
100
AcDbLine
 10
410.8015912396
 20
126.2331741436
 30
0.0
 11
410.8015912396
 21
121.2331751867
 31
0.0
  0
LINE
  5
2BE
330
1F
100
AcDbEntity
  8
0
  6
Continuous
 62
     7
370
    15
100
AcDbLine
 10
740.8016043527
 20
121.2331751867
 30
0.0
 11
740.8016043527
 21
126.2331741436
 31
0.0
  0
LINE
  5
2BF
330
1F
100
AcDbEntity
  8
0
  6
Continuous
 62
     7
370
    15
100
AcDbLine
 10
410.8015912396
 20
71.2331744416
 30
0.0
 11
410.8015912396
 21
66.2331754847
 31
0.0
  0
LINE
  5
2C0
330
1F
100
AcDbEntity
  8
0
  6
Continuous
 62
     7
370
    15
100
AcDbLine
 10
740.8016043527
 20
66.2331754847
 30
0.0
 11
740.8016043527
 21
71.2331744416
 31
0.0
  0
LINE
  5
2C1
330
1F
100
AcDbEntity
  8
0
  6
Continuous
 62
     7
370
    15
100
AcDbLine
 10
578.3015977403
 20
97.2427547949
 30
0.0
 11
578.3015977403
 21
85.0718623533
 31
0.0
  0
LINE
  5
2C2
330
1F
100
AcDbEntity
  8
0
  6
Continuous
 62
     7
370
    15
100
AcDbLine
 10
578.3015977403
 20
109.4136477022
 30
0.0
 11
578.3015977403
 21
97.2427547949
 31
0.0
  0
ARC
  5
2C3
330
1F
100
AcDbEntity
  8
0
  6
Continuous
 62
     7
370
    15
100
AcDbCircle
 10
575.8015977961
 20
97.2427548209
 30
0.0
 40
12.4250000000001
100
AcDbArc
 50
49.919506039
 51
78.3924357794
  0
LINE
  5
2C4
330
1F
100
AcDbEntity
  8
0
  6
Continuous
 62
     7
370
    15
100
AcDbLine
 10
583.8015981761
 20
87.7358826383
 30
0.0
 11
583.8015981761
 21
106.7496274172
 31
0.0
  0
ARC
  5
2C5
330
1F
100
AcDbEntity
  8
0
  6
Continuous
 62
     7
370
    15
100
AcDbCircle
 10
575.8015977961
 20
97.2427548209
 30
0.0
 40
12.42500000000007
100
AcDbArc
 50
281.6075642206
 51
310.080493961
  0
LINE
  5
2C6
330
1F
100
AcDbEntity
  8
0
  6
Continuous
 62
     7
370
    15
100
AcDbLine
 10
573.8015977011
 20
109.5057322218
 30
0.0
 11
573.8015977011
 21
98.7427548079
 31
0.0
  0
ARC
  5
2C7
330
1F
100
AcDbEntity
  8
0
  6
Continuous
 62
     7
370
    15
100
AcDbCircle
 10
575.8015977961
 20
97.2427548209
 30
0.0
 40
2.5
100
AcDbArc
 50
143.1301023542
 51
180.0
  0
LINE
  5
2C8
330
1F
100
AcDbEntity
  8
0
  6
Continuous
 62
     7
370
    15
100
AcDbLine
 10
573.301597852
 20
97.2427547949
 30
0.0
 11
573.301597852
 21
109.4136477022
 31
0.0
  0
ARC
  5
2C9
330
1F
100
AcDbEntity
  8
0
  6
Continuous
 62
     7
370
    15
100
AcDbCircle
 10
575.8015977961
 20
97.2427548209
 30
0.0
 40
12.42500000000003
100
AcDbArc
 50
99.2629588366
 51
101.6075642206
  0
LINE
  5
2CA
330
1F
100
AcDbEntity
  8
0
  6
Continuous
 62
     7
370
    15
100
AcDbLine
 10
577.8015978911
 20
109.5057322218
 30
0.0
 11
577.8015978911
 21
98.7427548079
 31
0.0
  0
ARC
  5
2CB
330
1F
100
AcDbEntity
  8
0
  6
Continuous
 62
     7
370
    15
100
AcDbCircle
 10
575.8015977961
 20
97.2427548209
 30
0.0
 40
2.5
100
AcDbArc
 50
360.0
 51
36.8698976458
  0
ARC
  5
2CC
330
1F
100
AcDbEntity
  8
0
  6
Continuous
 62
     7
370
    15
100
AcDbCircle
 10
575.8015977961
 20
97.2427548209
 30
0.0
 40
12.42500000000003
100
AcDbArc
 50
78.3924357794
 51
80.7370411634
  0
ARC
  5
2CD
330
1F
100
AcDbEntity
  8
0
  6
Continuous
 62
     7
370
    15
100
AcDbCircle
 10
575.8015977961
 20
97.2427548209
 30
0.0
 40
12.42500000000002
100
AcDbArc
 50
229.919506039
 51
258.3924357794
  0
LINE
  5
2CE
330
1F
100
AcDbEntity
  8
0
  6
Continuous
 62
     7
370
    15
100
AcDbLine
 10
567.8015974162
 20
106.7496274172
 30
0.0
 11
567.8015974162
 21
87.7358826383
 31
0.0
  0
LINE
  5
2CF
330
1F
100
AcDbEntity
  8
0
  6
Continuous
 62
     7
370
    15
100
AcDbLine
 10
573.301597852
 20
85.0718623533
 30
0.0
 11
573.301597852
 21
97.2427547949
 31
0.0
  0
ARC
  5
2D0
330
1F
100
AcDbEntity
  8
0
  6
Continuous
 62
     7
370
    15
100
AcDbCircle
 10
575.8015977961
 20
97.2427548209
 30
0.0
 40
12.42500000000004
100
AcDbArc
 50
101.6075642206
 51
130.080493961
  0
ARC
  5
2D1
330
1F
100
AcDbEntity
  8
0
  6
Continuous
 62
     7
370
    15
100
AcDbCircle
 10
575.8015977961
 20
97.2427548209
 30
0.0
 40
12.42500000000001
100
AcDbArc
 50
279.2629588366
 51
281.6075642206
  0
LINE
  5
2D2
330
1F
100
AcDbEntity
  8
0
  6
Continuous
 62
     7
370
    15
100
AcDbLine
 10
577.8015978911
 20
95.7427548401
 30
0.0
 11
577.8015978911
 21
84.9797769024
 31
0.0
  0
ARC
  5
2D3
330
1F
100
AcDbEntity
  8
0
  6
Continuous
 62
     7
370
    15
100
AcDbCircle
 10
575.8015977961
 20
97.2427548209
 30
0.0
 40
2.5
100
AcDbArc
 50
323.1301023542
 51
360.0
  0
ARC
  5
2D4
330
1F
100
AcDbEntity
  8
0
  6
Continuous
 62
     7
370
    15
100
AcDbCircle
 10
575.8015977961
 20
97.2427548209
 30
0.0
 40
12.42500000000004
100
AcDbArc
 50
258.3924357794
 51
260.7370411634
  0
ARC
  5
2D5
330
1F
100
AcDbEntity
  8
0
  6
Continuous
 62
     7
370
    15
100
AcDbCircle
 10
575.8015977961
 20
97.2427548209
 30
0.0
 40
2.500000000000008
100
AcDbArc
 50
180.0
 51
216.8698976458
  0
LINE
  5
2D6
330
1F
100
AcDbEntity
  8
0
  6
Continuous
 62
     7
370
    15
100
AcDbLine
 10
573.8015977011
 20
95.7427548401
 30
0.0
 11
573.8015977011
 21
84.9797769024
 31
0.0
  0
ARC
  5
2D7
330
1F
100
AcDbEntity
  8
0
  6
Continuous
 62
     7
370
    15
100
AcDbCircle
 10
575.8015977961
 20
97.2427548209
 30
0.0
 40
2.500000000000008
100
AcDbArc
 50
36.8698976458
 51
143.1301023542
  0
ARC
  5
2D8
330
1F
100
AcDbEntity
  8
0
  6
Continuous
 62
     7
370
    15
100
AcDbCircle
 10
575.8015977961
 20
97.2427548209
 30
0.0
 40
12.42500000000004
100
AcDbArc
 50
80.7370411634
 51
99.2629588366
  0
ARC
  5
2D9
330
1F
100
AcDbEntity
  8
0
  6
Continuous
 62
     7
370
    15
100
AcDbCircle
 10
575.8015977961
 20
97.2427548209
 30
0.0
 40
2.500000000000008
100
AcDbArc
 50
216.8698976458
 51
323.1301023542
  0
ARC
  5
2DA
330
1F
100
AcDbEntity
  8
0
  6
Continuous
 62
     7
370
    15
100
AcDbCircle
 10
575.8015977961
 20
97.2427548209
 30
0.0
 40
12.42500000000003
100
AcDbArc
 50
260.7370411634
 51
279.2629588366
  0
SPLINE
  5
2DB
330
1F
100
AcDbEntity
  8
0
  6
Continuous
 62
     7
370
    15
100
AcDbSpline
210
0.0
220
0.0
230
1.0
 70
    24
 71
     1
 72
     4
 73
     2
 74
     0
 42
0.00000001
 43
0.00000001
 40
0.0
 40
0.0
 40
1.0
 40
1.0
 10
564.801597855746
 20
81.44520749734927
 30
0.0
 10
567.4781742317072
 20
83.16997499602127
 30
0.0
  0
ARC
  5
2DC
330
1F
100
AcDbEntity
  8
0
  6
Continuous
 62
     7
370
    15
100
AcDbCircle
 10
575.8015977961
 20
97.2427548209
 30
0.0
 40
19.25000000000007
100
AcDbArc
 50
304.849904579
 51
235.150095421
  0
SPLINE
  5
2DD
330
1F
100
AcDbEntity
  8
0
  6
Continuous
 62
     7
370
    15
100
AcDbSpline
210
0.0
220
0.0
230
1.0
 70
    24
 71
     1
 72
     4
 73
     2
 74
     0
 42
0.00000001
 43
0.00000001
 40
0.0
 40
0.0
 40
1.0
 40
1.0
 10
584.1250213605753
 20
83.16997499602127
 30
0.0
 10
586.8015977365367
 20
81.44520749734927
 30
0.0
  0
ARC
  5
2DE
330
1F
100
AcDbEntity
  8
0
  6
Continuous
 62
     7
370
    15
100
AcDbCircle
 10
575.8015977961
 20
97.2427548209
 30
0.0
 40
16.35000000000001
100
AcDbArc
 50
300.6024274364
 51
239.3975725636
  0
ARC
  5
2DF
330
1F
100
AcDbEntity
  8
0
  6
Continuous
 62
     7
370
    15
100
AcDbCircle
 10
575.8015977961
 20
97.2427548209
 30
0.0
 40
12.40000000000002
100
AcDbArc
 50
140.7234193842
 51
219.2765806158
  0
LINE
  5
2E0
330
1F
100
AcDbEntity
  8
0
  6
Continuous
 62
     7
370
    15
100
AcDbLine
 10
566.2027698753
 20
89.3927548586
 30
0.0
 11
567.8015974162
 21
89.3927548586
 31
0.0
  0
LINE
  5
2E1
330
1F
100
AcDbEntity
  8
0
  6
Continuous
 62
     7
370
    15
100
AcDbLine
 10
583.8015981761
 20
89.3927548586
 30
0.0
 11
585.400425717
 21
89.3927548586
 31
0.0
  0
LINE
  5
2E2
330
1F
100
AcDbEntity
  8
0
  6
Continuous
 62
     7
370
    15
100
AcDbLine
 10
567.8015974162
 20
105.0927551969
 30
0.0
 11
566.2027698753
 21
105.0927551969
 31
0.0
  0
LINE
  5
2E3
330
1F
100
AcDbEntity
  8
0
  6
Continuous
 62
     7
370
    15
100
AcDbLine
 10
581.7487266657
 20
67.0927545561
 30
0.0
 11
584.1250213606
 21
83.169974996
 31
0.0
  0
LINE
  5
2E4
330
1F
100
AcDbEntity
  8
0
  6
Continuous
 62
     7
370
    15
100
AcDbLine
 10
569.8544689265
 20
67.0927545561
 30
0.0
 11
581.7487266657
 21
67.0927545561
 31
0.0
  0
LINE
  5
2E5
330
1F
100
AcDbEntity
  8
0
  6
Continuous
 62
     7
370
    15
100
AcDbLine
 10
567.4781742317
 20
83.169974996
 30
0.0
 11
569.8544689265
 21
67.0927545561
 31
0.0
  0
ARC
  5
2E6
330
1F
100
AcDbEntity
  8
0
  6
Continuous
 62
     7
370
    15
100
AcDbCircle
 10
575.8015977961
 20
97.2427548209
 30
0.0
 40
12.39999999999993
100
AcDbArc
 50
320.7234193842
 51
39.2765806158
  0
LINE
  5
2E7
330
1F
100
AcDbEntity
  8
0
  6
Continuous
 62
     7
370
    15
100
AcDbLine
 10
585.400425717
 20
105.0927551969
 30
0.0
 11
583.8015981761
 21
105.0927551969
 31
0.0
  0
LINE
  5
2E8
330
1F
100
AcDbEntity
  8
0
  6
Continuous
 62
     7
370
    15
100
AcDbLine
 10
584.4408877937
 20
65.473430468
 30
0.0
 11
586.8015977365
 21
81.4452074973
 31
0.0
  0
ARC
  5
2E9
330
1F
100
AcDbEntity
  8
0
  6
Continuous
 62
     7
370
    15
100
AcDbCircle
 10
582.9570091708
 20
65.6927548209
 30
0.0
 40
1.499999999999986
100
AcDbArc
 50
310.7961333222
 51
351.5922666445
  0
LINE
  5
2EA
330
1F
100
AcDbEntity
  8
0
  6
Continuous
 62
     7
370
    15
100
AcDbLine
 10
581.7487266657
 20
67.0927545561
 30
0.0
 11
583.9370637012
 21
64.5571953191
 31
0.0
  0
ARC
  5
2EB
330
1F
100
AcDbEntity
  8
0
  6
Continuous
 62
     7
370
    15
100
AcDbCircle
 10
582.9570091708
 20
65.6927548209
 30
0.0
 40
1.5
100
AcDbArc
 50
270.0
 51
310.7961333222
  0
LINE
  5
2EC
330
1F
100
AcDbEntity
  8
0
  6
Continuous
 62
     7
370
    15
100
AcDbLine
 10
568.6461863851
 20
64.1927538945
 30
0.0
 11
582.9570092072
 21
64.1927538945
 31
0.0
  0
ARC
  5
2ED
330
1F
100
AcDbEntity
  8
0
  6
Continuous
 62
     7
370
    15
100
AcDbCircle
 10
568.6461864215
 20
65.6927548209
 30
0.0
 40
1.500000000000019
100
AcDbArc
 50
229.2038666778
 51
270.0
  0
LINE
  5
2EE
330
1F
100
AcDbEntity
  8
0
  6
Continuous
 62
     7
370
    15
100
AcDbLine
 10
567.6661318911
 20
64.5571953191
 30
0.0
 11
569.8544689265
 21
67.0927545561
 31
0.0
  0
ARC
  5
2EF
330
1F
100
AcDbEntity
  8
0
  6
Continuous
 62
     7
370
    15
100
AcDbCircle
 10
568.6461864215
 20
65.6927548209
 30
0.0
 40
1.500000000000019
100
AcDbArc
 50
188.4077333555
 51
229.2038666778
  0
LINE
  5
2F0
330
1F
100
AcDbEntity
  8
0
  6
Continuous
 62
     7
370
    15
100
AcDbLine
 10
564.8015978557
 20
81.4452074973
 30
0.0
 11
567.1623077986
 21
65.473430468
 31
0.0
  0
CIRCLE
  5
2F1
330
1F
100
AcDbEntity
  8
0
  6
Continuous
 62
     7
370
    15
100
AcDbCircle
 10
535.8015977961
 20
82.2427548209
 30
0.0
 40
2.0
  0
CIRCLE
  5
2F2
330
1F
100
AcDbEntity
  8
0
  6
Continuous
 62
     7
370
    15
100
AcDbCircle
 10
615.8015977961
 20
82.2427548209
 30
0.0
 40
2.0
  0
LINE
  5
2F3
330
1F
100
AcDbEntity
  8
0
  6
Continuous
 62
     7
370
    15
100
AcDbLine
 10
688.3015948159
 20
122.9481852187
 30
0.0
 11
688.3015948159
 21
71.5373239054
 31
0.0
  0
LINE
  5
2F4
330
1F
100
AcDbEntity
  8
0
  6
Continuous
 62
     7
370
    15
100
AcDbLine
 10
463.3016007764
 20
122.9481852187
 30
0.0
 11
463.3016007764
 21
71.5373239054
 31
0.0
  0
LINE
  5
2F5
330
1F
100
AcDbEntity
  8
0
  6
Continuous
 62
     7
370
    15
100
AcDbLine
 10
463.3016007764
 20
122.9481852187
 30
0.0
 11
688.3015948159
 21
122.9481852187
 31
0.0
  0
CIRCLE
  5
2F6
330
1F
100
AcDbEntity
  8
0
  6
Continuous
 62
     7
370
    15
100
AcDbCircle
 10
615.8015977961
 20
112.2427548209
 30
0.0
 40
2.0
  0
CIRCLE
  5
2F7
330
1F
100
AcDbEntity
  8
0
  6
Continuous
 62
     7
370
    15
100
AcDbCircle
 10
535.8015977961
 20
112.2427548209
 30
0.0
 40
2.0
  0
LINE
  5
2F8
330
1F
100
AcDbEntity
  8
0
  6
Continuous
 62
     7
370
    15
100
AcDbLine
 10
688.3015948159
 20
125.5914742632
 30
0.0
 11
463.3016007764
 21
125.5914742632
 31
0.0
  0
LINE
  5
2F9
330
1F
100
AcDbEntity
  8
0
  6
Continuous
 62
     7
370
    15
100
AcDbLine
 10
463.3016007764
 20
125.5914742632
 30
0.0
 11
463.3016007764
 21
122.9481852187
 31
0.0
  0
LINE
  5
2FA
330
1F
100
AcDbEntity
  8
0
  6
Continuous
 62
     7
370
    15
100
AcDbLine
 10
688.3015948159
 20
125.5914742632
 30
0.0
 11
688.3015948159
 21
122.9481852187
 31
0.0
  0
LINE
  5
2FB
330
1F
100
AcDbEntity
  8
0
  6
Continuous
 62
     7
370
    15
100
AcDbLine
 10
463.3016007764
 20
71.5373239054
 30
0.0
 11
463.3016007764
 21
68.8940367235
 31
0.0
  0
LINE
  5
2FC
330
1F
100
AcDbEntity
  8
0
  6
Continuous
 62
     7
370
    15
100
AcDbLine
 10
688.3015948159
 20
71.5373239054
 30
0.0
 11
688.3015948159
 21
68.8940367235
 31
0.0
  0
LINE
  5
2FD
330
1F
100
AcDbEntity
  8
0
  6
Continuous
 62
     7
370
    15
100
AcDbLine
 10
695.3015941007
 20
69.1439478232
 30
0.0
 11
695.3015941007
 21
71.7870338394
 31
0.0
  0
LINE
  5
2FE
330
1F
100
AcDbEntity
  8
0
  6
Continuous
 62
     7
370
    15
100
AcDbLine
 10
695.3015941007
 20
71.7870338394
 30
0.0
 11
697.3015981538
 21
71.7870338394
 31
0.0
  0
SPLINE
  5
2FF
330
1F
100
AcDbEntity
  8
0
  6
Continuous
 62
     7
370
    15
100
AcDbSpline
210
0.0
220
0.0
230
1.0
 70
    24
 71
     3
 72
    11
 73
     7
 74
     0
 42
0.00000001
 43
0.00000001
 40
0.0
 40
0.0
 40
0.0
 40
0.0
 40
0.2501076638665538
 40
0.4999809770143458
 40
0.7496261847307616
 40
1.0
 40
1.0
 40
1.0
 40
1.0
 10
697.3015981537692
 20
70.90600454645447
 30
0.0
 10
697.3015981537692
 20
70.95449930949991
 30
0.0
 10
697.3015981537692
 20
71.05144339602926
 30
0.0
 10
697.3015981537691
 20
71.26844945571881
 30
0.0
 10
697.3015981537692
 20
71.51688264756208
 30
0.0
 10
697.3015981537692
 20
71.69689600604927
 30
0.0
 10
697.3015981537692
 20
71.78703383939556
 30
0.0
  0
ARC
  5
300
330
1F
100
AcDbEntity
  8
0
  6
Continuous
 62
     7
370
    15
100
AcDbCircle
 10
695.4134932653
 20
71.0330080489
 30
0.0
 40
1.892371517263435
100
AcDbArc
 50
266.6100250519
 51
356.1517923999
  0
LINE
  5
301
330
1F
100
AcDbEntity
  8
0
  6
Continuous
 62
     7
370
    15
100
AcDbLine
 10
695.3015941007
 20
122.6984771474
 30
0.0
 11
695.3015941007
 21
125.3415613009
 31
0.0
  0
ARC
  5
302
330
1F
100
AcDbEntity
  8
0
  6
Continuous
 62
     7
370
    15
100
AcDbCircle
 10
695.4134958539
 20
123.4525040134
 30
0.0
 40
1.892368737350472
100
AcDbArc
 50
3.8481241023
 51
93.3900584459
  0
SPLINE
  5
303
330
1F
100
AcDbEntity
  8
0
  6
Continuous
 62
     7
370
    15
100
AcDbSpline
210
0.0
220
0.0
230
1.0
 70
    24
 71
     3
 72
    11
 73
     7
 74
     0
 42
0.00000001
 43
0.00000001
 40
0.0
 40
0.0
 40
0.0
 40
0.0
 40
0.250121932145185
 40
0.5000000227780546
 40
0.7496409842317852
 40
1.0
 40
1.0
 40
1.0
 40
1.0
 10
697.3015981537692
 20
122.6984771473914
 30
0.0
 10
697.3015981537692
 20
122.7885176135189
 30
0.0
 10
697.3015981537692
 20
122.9685107661729
 30
0.0
 10
697.3015981537692
 20
123.2169076795267
 30
0.0
 10
697.3015981537692
 20
123.4340791126624
 30
0.0
 10
697.3015981537692
 20
123.5309830344908
 30
0.0
 10
697.3015981537692
 20
123.5795045776873
 30
0.0
  0
LINE
  5
304
330
1F
100
AcDbEntity
  8
0
  6
Continuous
 62
     7
370
    15
100
AcDbLine
 10
695.3015941007
 20
122.6984771474
 30
0.0
 11
697.3015981538
 21
122.6984771474
 31
0.0
  0
LINE
  5
305
330
1F
100
AcDbEntity
  8
0
  6
Continuous
 62
     7
370
    15
100
AcDbLine
 10
456.3016014916
 20
125.3415613009
 30
0.0
 11
456.3016014916
 21
122.6984771474
 31
0.0
  0
LINE
  5
306
330
1F
100
AcDbEntity
  8
0
  6
Continuous
 62
     7
370
    15
100
AcDbLine
 10
454.3015974385
 20
122.6984771474
 30
0.0
 11
456.3016014916
 21
122.6984771474
 31
0.0
  0
SPLINE
  5
307
330
1F
100
AcDbEntity
  8
0
  6
Continuous
 62
     7
370
    15
100
AcDbSpline
210
0.0
220
0.0
230
1.0
 70
    24
 71
     3
 72
    11
 73
     7
 74
     0
 42
0.00000001
 43
0.00000001
 40
0.0
 40
0.0
 40
0.0
 40
0.0
 40
0.2501080933865714
 40
0.4999818356519211
 40
0.7496274720941598
 40
1.0
 40
1.0
 40
1.0
 40
1.0
 10
454.3015974385135
 20
123.5795045776873
 30
0.0
 10
454.3015974385135
 20
123.531009814742
 30
0.0
 10
454.3015974385135
 20
123.4340657284127
 30
0.0
 10
454.3015974385135
 20
123.2170596672241
 30
0.0
 10
454.3015974385135
 20
122.9686270500166
 30
0.0
 10
454.3015974385135
 20
122.7886143448966
 30
0.0
 10
454.3015974385135
 20
122.6984771473914
 30
0.0
  0
ARC
  5
308
330
1F
100
AcDbEntity
  8
0
  6
Continuous
 62
     7
370
    15
100
AcDbCircle
 10
456.1896997384
 20
123.4525040134
 30
0.0
 40
1.892368737350514
100
AcDbArc
 50
86.6099415541
 51
176.1518758977
  0
LINE
  5
309
330
1F
100
AcDbEntity
  8
0
  6
Continuous
 62
     7
370
    15
100
AcDbLine
 10
456.3016014916
 20
71.7870338394
 30
0.0
 11
456.3016014916
 21
69.1439478232
 31
0.0
  0
ARC
  5
30A
330
1F
100
AcDbEntity
  8
0
  6
Continuous
 62
     7
370
    15
100
AcDbCircle
 10
456.1897023269
 20
71.0330080489
 30
0.0
 40
1.89237151726347
100
AcDbArc
 50
183.8482076001
 51
273.3899749481
  0
SPLINE
  5
30B
330
1F
100
AcDbEntity
  8
0
  6
Continuous
 62
     7
370
    15
100
AcDbSpline
210
0.0
220
0.0
230
1.0
 70
    24
 71
     3
 72
    11
 73
     7
 74
     0
 42
0.00000001
 43
0.00000001
 40
0.0
 40
0.0
 40
0.0
 40
0.0
 40
0.2501215341077453
 40
0.5000008184648187
 40
0.7496413826465136
 40
1.0
 40
1.0
 40
1.0
 40
1.0
 10
454.3015974385135
 20
71.78703383939556
 30
0.0
 10
454.3015974385135
 20
71.69699341116392
 30
0.0
 10
454.3015974385135
 20
71.51699976139145
 30
0.0
 10
454.3015974385135
 20
71.26860182148052
 30
0.0
 10
454.3015974385135
 20
71.05143003254435
 30
0.0
 10
454.3015974385135
 20
70.95452609667937
 30
0.0
 10
454.3015974385135
 20
70.90600454645447
 30
0.0
  0
LINE
  5
30C
330
1F
100
AcDbEntity
  8
0
  6
Continuous
 62
     7
370
    15
100
AcDbLine
 10
454.3015974385
 20
71.7870338394
 30
0.0
 11
456.3016014916
 21
71.7870338394
 31
0.0
  0
LINE
  5
30D
330
1F
100
AcDbEntity
  8
0
  6
Continuous
 62
     7
370
    15
100
AcDbLine
 10
695.3015941007
 20
71.7870338394
 30
0.0
 11
695.3015941007
 21
122.6984771474
 31
0.0
  0
LINE
  5
30E
330
1F
100
AcDbEntity
  8
0
  6
Continuous
 62
     7
370
    15
100
AcDbLine
 10
697.3015981538
 20
71.7870338394
 30
0.0
 11
697.3015981538
 21
122.6984771474
 31
0.0
  0
LINE
  5
30F
330
1F
100
AcDbEntity
  8
0
  6
Continuous
 62
     7
370
    15
100
AcDbLine
 10
456.3016014916
 20
122.6984771474
 30
0.0
 11
456.3016014916
 21
71.7870338394
 31
0.0
  0
LINE
  5
310
330
1F
100
AcDbEntity
  8
0
  6
Continuous
 62
     7
370
    15
100
AcDbLine
 10
454.3015974385
 20
122.6984771474
 30
0.0
 11
454.3015974385
 21
71.7870338394
 31
0.0
  0
LINE
  5
311
330
1F
100
AcDbEntity
  8
0
  6
Continuous
 62
     7
370
    15
100
AcDbLine
 10
688.3015948159
 20
122.6984771474
 30
0.0
 11
695.3015941007
 21
122.6984771474
 31
0.0
  0
LINE
  5
312
330
1F
100
AcDbEntity
  8
0
  6
Continuous
 62
     7
370
    15
100
AcDbLine
 10
688.3015948159
 20
125.3415613009
 30
0.0
 11
695.3015941007
 21
125.3415613009
 31
0.0
  0
LINE
  5
313
330
1F
100
AcDbEntity
  8
0
  6
Continuous
 62
     7
370
    15
100
AcDbLine
 10
688.3015948159
 20
71.7870338394
 30
0.0
 11
695.3015941007
 21
71.7870338394
 31
0.0
  0
LINE
  5
314
330
1F
100
AcDbEntity
  8
0
  6
Continuous
 62
     7
370
    15
100
AcDbLine
 10
688.3015948159
 20
69.1439478232
 30
0.0
 11
695.3015941007
 21
69.1439478232
 31
0.0
  0
LINE
  5
315
330
1F
100
AcDbEntity
  8
0
  6
Continuous
 62
     7
370
    15
100
AcDbLine
 10
456.3016014916
 20
122.6984771474
 30
0.0
 11
463.3016007764
 21
122.6984771474
 31
0.0
  0
LINE
  5
316
330
1F
100
AcDbEntity
  8
0
  6
Continuous
 62
     7
370
    15
100
AcDbLine
 10
456.3016014916
 20
71.7870338394
 30
0.0
 11
463.3016007764
 21
71.7870338394
 31
0.0
  0
LINE
  5
317
330
1F
100
AcDbEntity
  8
0
  6
Continuous
 62
     7
370
    15
100
AcDbLine
 10
463.3016007764
 20
125.3415613009
 30
0.0
 11
456.3016014916
 21
125.3415613009
 31
0.0
  0
LINE
  5
318
330
1F
100
AcDbEntity
  8
0
  6
Continuous
 62
     7
370
    15
100
AcDbLine
 10
456.3016014916
 20
69.1439478232
 30
0.0
 11
463.3016007764
 21
69.1439478232
 31
0.0
  0
LINE
  5
319
330
1F
100
AcDbEntity
  8
0
  6
Continuous
 62
     7
370
    15
100
AcDbLine
 10
688.3015948159
 20
138.2761976256
 30
0.0
 11
463.3016007764
 21
138.2761976256
 31
0.0
  0
LINE
  5
31A
330
1F
100
AcDbEntity
  8
0
  6
Continuous
 62
     7
370
    15
100
AcDbLine
 10
463.3016007764
 20
138.2761976256
 30
0.0
 11
463.3016007764
 21
125.5914742632
 31
0.0
  0
LINE
  5
31B
330
1F
100
AcDbEntity
  8
0
  6
Continuous
 62
     7
370
    15
100
AcDbLine
 10
688.3015948159
 20
138.2761976256
 30
0.0
 11
688.3015948159
 21
125.5914742632
 31
0.0
  0
LINE
  5
31C
330
1F
100
AcDbEntity
  8
0
  6
Continuous
 62
     7
370
    15
100
AcDbLine
 10
688.3015948159
 20
56.2093114986
 30
0.0
 11
463.3016007764
 21
56.2093114986
 31
0.0
  0
LINE
  5
31D
330
1F
100
AcDbEntity
  8
0
  6
Continuous
 62
     7
370
    15
100
AcDbLine
 10
463.3016007764
 20
68.8940367235
 30
0.0
 11
463.3016007764
 21
56.2093114986
 31
0.0
  0
LINE
  5
31E
330
1F
100
AcDbEntity
  8
0
  6
Continuous
 62
     7
370
    15
100
AcDbLine
 10
688.3015948159
 20
68.8940367235
 30
0.0
 11
688.3015948159
 21
56.2093114986
 31
0.0
  0
LINE
  5
31F
330
1F
100
AcDbEntity
  8
0
  6
Continuous
 62
     7
370
    15
100
AcDbLine
 10
695.3015941007
 20
125.3415613009
 30
0.0
 11
695.3015941007
 21
137.8311483695
 31
0.0
  0
ARC
  5
320
330
1F
100
AcDbEntity
  8
0
  6
Continuous
 62
     7
370
    15
100
AcDbCircle
 10
695.4134933447
 20
135.9420883682
 30
0.0
 40
1.89237129799016
100
AcDbArc
 50
3.8481447151
 51
93.3899777492
  0
LINE
  5
321
330
1F
100
AcDbEntity
  8
0
  6
Continuous
 62
     7
370
    15
100
AcDbLine
 10
697.3015981538
 20
123.5795045777
 30
0.0
 11
697.3015981538
 21
136.0690897836
 31
0.0
  0
LINE
  5
322
330
1F
100
AcDbEntity
  8
0
  6
Continuous
 62
     7
370
    15
100
AcDbLine
 10
695.3015941007
 20
69.1439478232
 30
0.0
 11
695.3015941007
 21
56.65436448
 31
0.0
  0
LINE
  5
323
330
1F
100
AcDbEntity
  8
0
  6
Continuous
 62
     7
370
    15
100
AcDbLine
 10
697.3015981538
 20
58.4164193405
 30
0.0
 11
697.3015981538
 21
70.9060045465
 31
0.0
  0
ARC
  5
324
330
1F
100
AcDbEntity
  8
0
  6
Continuous
 62
     7
370
    15
100
AcDbCircle
 10
695.4134983631
 20
58.5434190538
 30
0.0
 40
1.892366176722815
100
AcDbArc
 50
266.6098608576
 51
356.1518965103
  0
LINE
  5
325
330
1F
100
AcDbEntity
  8
0
  6
Continuous
 62
     7
370
    15
100
AcDbLine
 10
456.3016014916
 20
125.3415613009
 30
0.0
 11
456.3016014916
 21
137.8311483695
 31
0.0
  0
LINE
  5
326
330
1F
100
AcDbEntity
  8
0
  6
Continuous
 62
     7
370
    15
100
AcDbLine
 10
454.3015974385
 20
136.0690897836
 30
0.0
 11
454.3015974385
 21
123.5795045777
 31
0.0
  0
ARC
  5
327
330
1F
100
AcDbEntity
  8
0
  6
Continuous
 62
     7
370
    15
100
AcDbCircle
 10
456.1897022476
 20
135.9420883682
 30
0.0
 40
1.892371297990152
100
AcDbArc
 50
86.6100222508
 51
176.1518552849
  0
LINE
  5
328
330
1F
100
AcDbEntity
  8
0
  6
Continuous
 62
     7
370
    15
100
AcDbLine
 10
456.3016014916
 20
69.1439478232
 30
0.0
 11
456.3016014916
 21
56.65436448
 31
0.0
  0
ARC
  5
329
330
1F
100
AcDbEntity
  8
0
  6
Continuous
 62
     7
370
    15
100
AcDbCircle
 10
456.1896972292
 20
58.5434190538
 30
0.0
 40
1.892366176722826
100
AcDbArc
 50
183.8481034897
 51
273.3901391424
  0
LINE
  5
32A
330
1F
100
AcDbEntity
  8
0
  6
Continuous
 62
     7
370
    15
100
AcDbLine
 10
454.3015974385
 20
70.9060045465
 30
0.0
 11
454.3015974385
 21
58.4164193405
 31
0.0
  0
LINE
  5
32B
330
1F
100
AcDbEntity
  8
0
  6
Continuous
 62
     7
370
    15
100
AcDbLine
 10
688.3015948159
 20
137.8311483695
 30
0.0
 11
695.3015941007
 21
137.8311483695
 31
0.0
  0
LINE
  5
32C
330
1F
100
AcDbEntity
  8
0
  6
Continuous
 62
     7
370
    15
100
AcDbLine
 10
695.3015941007
 20
56.65436448
 30
0.0
 11
688.3015948159
 21
56.65436448
 31
0.0
  0
LINE
  5
32D
330
1F
100
AcDbEntity
  8
0
  6
Continuous
 62
     7
370
    15
100
AcDbLine
 10
456.3016014916
 20
137.8311483695
 30
0.0
 11
463.3016007764
 21
137.8311483695
 31
0.0
  0
LINE
  5
32E
330
1F
100
AcDbEntity
  8
0
  6
Continuous
 62
     7
370
    15
100
AcDbLine
 10
456.3016014916
 20
56.65436448
 30
0.0
 11
463.3016007764
 21
56.65436448
 31
0.0
  0
LINE
  5
32F
330
1F
100
AcDbEntity
  8
0
  6
Continuous
 62
     7
370
    15
100
AcDbLine
 10
463.3016007764
 20
146.2427532806
 30
0.0
 11
463.3016007764
 21
138.2761976256
 31
0.0
  0
LINE
  5
330
330
1F
100
AcDbEntity
  8
0
  6
Continuous
 62
     7
370
    15
100
AcDbLine
 10
688.3015948159
 20
146.2427532806
 30
0.0
 11
688.3015948159
 21
138.2761976256
 31
0.0
  0
LINE
  5
331
330
1F
100
AcDbEntity
  8
0
  6
Continuous
 62
     7
370
    15
100
AcDbLine
 10
463.3016007764
 20
50.1436820759
 30
0.0
 11
688.3015948159
 21
50.1436820759
 31
0.0
  0
LINE
  5
332
330
1F
100
AcDbEntity
  8
0
  6
Continuous
 62
     7
370
    15
100
AcDbLine
 10
463.3016007764
 20
56.2093114986
 30
0.0
 11
463.3016007764
 21
50.1436820759
 31
0.0
  0
LINE
  5
333
330
1F
100
AcDbEntity
  8
0
  6
Continuous
 62
     7
370
    15
100
AcDbLine
 10
688.3015948159
 20
56.2093114986
 30
0.0
 11
688.3015948159
 21
50.1436820759
 31
0.0
  0
SPLINE
  5
334
330
1F
100
AcDbEntity
  8
0
  6
Continuous
 62
     7
370
    15
100
AcDbSpline
210
0.0
220
0.0
230
1.0
 70
    24
 71
     3
 72
    11
 73
     7
 74
     0
 42
0.00000001
 43
0.00000001
 40
0.0
 40
0.0
 40
0.0
 40
0.0
 40
0.2490490463418547
 40
0.5000002716651235
 40
0.7509511890315117
 40
1.0
 40
1.0
 40
1.0
 40
1.0
 10
697.3015981537694
 20
50.74275345938514
 30
0.0
 10
697.3015981537693
 20
50.83555036502471
 30
0.0
 10
697.3015981537693
 20
51.0218529375942
 30
0.0
 10
697.3015981537693
 20
52.55299105292082
 30
0.0
 10
697.3015981537693
 20
54.90757826062755
 30
0.0
 10
697.3015981537693
 20
57.2497757213677
 30
0.0
 10
697.3015981537693
 20
58.41641934054196
 30
0.0
  0
SPLINE
  5
335
330
1F
100
AcDbEntity
  8
0
  6
Continuous
 62
     7
370
    15
100
AcDbSpline
210
0.0
220
0.0
230
1.0
 70
    24
 71
     3
 72
    11
 73
     7
 74
     0
 42
0.00000001
 43
0.00000001
 40
0.0
 40
0.0
 40
0.0
 40
0.0
 40
0.2490490463418547
 40
0.5000002716651235
 40
0.7509511890315117
 40
1.0
 40
1.0
 40
1.0
 40
1.0
 10
454.3015974385137
 20
143.742755664757
 30
0.0
 10
454.3015974385137
 20
143.6499587591174
 30
0.0
 10
454.3015974385137
 20
143.4636561865479
 30
0.0
 10
454.3015974385136
 20
141.9325180712212
 30
0.0
 10
454.3015974385136
 20
139.5779308635144
 30
0.0
 10
454.3015974385136
 20
137.2357334027743
 30
0.0
 10
454.3015974385136
 20
136.0690897836
 30
0.0
  0
SPLINE
  5
336
330
1F
100
AcDbEntity
  8
0
  6
Continuous
 62
     7
370
    15
100
AcDbSpline
210
0.0
220
0.0
230
1.0
 70
    24
 71
     3
 72
    12
 73
     8
 74
     0
 42
0.00000001
 43
0.00000001
 40
0.0
 40
0.0
 40
0.0
 40
0.0
 40
0.2933463972736941
 40
0.5898195694392832
 40
0.787519693929447
 40
0.9842965749417151
 40
1.0
 40
1.0
 40
1.0
 40
1.0
 10
697.3015981537693
 20
136.0690897836
 30
0.0
 10
697.3015981537693
 20
137.4236153234688
 30
0.0
 10
697.3015981537693
 20
140.147104270819
 30
0.0
 10
697.3015981537693
 20
142.3779896196329
 30
0.0
 10
697.3015981537693
 20
143.4520878522646
 30
0.0
 10
697.3015981537694
 20
143.8262874495697
 30
0.0
 10
697.3015981537693
 20
143.7280757940396
 30
0.0
 10
697.3015981537693
 20
143.7208174301894
 30
0.0
  0
SPLINE
  5
337
330
1F
100
AcDbEntity
  8
0
  6
Continuous
 62
     7
370
    15
100
AcDbSpline
210
0.0
220
0.0
230
1.0
 70
    24
 71
     3
 72
    12
 73
     8
 74
     0
 42
0.00000001
 43
0.00000001
 40
0.0
 40
0.0
 40
0.0
 40
0.0
 40
0.2933463972736941
 40
0.5898195694392832
 40
0.787519693929447
 40
0.9842965749417151
 40
1.0
 40
1.0
 40
1.0
 40
1.0
 10
454.3015974385136
 20
58.41641934054196
 30
0.0
 10
454.3015974385136
 20
57.06189380067321
 30
0.0
 10
454.3015974385136
 20
54.33840485332298
 30
0.0
 10
454.3015974385137
 20
52.10751950450918
 30
0.0
 10
454.3015974385136
 20
51.03342127187749
 30
0.0
 10
454.3015974385136
 20
50.65922167457241
 30
0.0
 10
454.3015974385137
 20
50.75743333010256
 30
0.0
 10
454.3015974385137
 20
50.76469169395279
 30
0.0
  0
LINE
  5
338
330
1F
100
AcDbEntity
  8
0
  6
Continuous
 62
     7
370
    15
100
AcDbLine
 10
688.3015948159
 20
45.7213229074
 30
0.0
 11
463.3016007764
 21
45.7213229074
 31
0.0
  0
LINE
  5
339
330
1F
100
AcDbEntity
  8
0
  6
Continuous
 62
     7
370
    15
100
AcDbLine
 10
463.3016007764
 20
50.1436820759
 30
0.0
 11
463.3016007764
 21
45.7213229074
 31
0.0
  0
LINE
  5
33A
330
1F
100
AcDbEntity
  8
0
  6
Continuous
 62
     7
370
    15
100
AcDbLine
 10
688.3015948159
 20
50.1436820759
 30
0.0
 11
688.3015948159
 21
45.7213229074
 31
0.0
  0
SPLINE
  5
33B
330
1F
100
AcDbEntity
  8
0
  6
Continuous
 62
     7
370
    15
100
AcDbSpline
210
0.0
220
0.0
230
1.0
 70
     8
 71
     3
 72
    11
 73
     7
 74
     0
 42
0.00000001
 43
0.00000001
 40
0.0
 40
0.0
 40
0.0
 40
0.0
 40
0.2645357152849866
 40
0.5347694642751114
 40
0.7652648164696375
 40
1.0
 40
1.0
 40
1.0
 40
1.0
 10
704.3015974385136
 20
92.62395268703109
 30
0.0
 10
704.5072802780555
 20
92.22313709698146
 30
0.0
 10
704.9230763144958
 20
91.41287244847058
 30
0.0
 10
705.0753672372199
 20
90.21236107400546
 30
0.0
 10
704.8522716225564
 20
89.0644621411664
 30
0.0
 10
704.4862673474832
 20
88.36039309856267
 30
0.0
 10
704.3015974385136
 20
88.0051503463299
 30
0.0
  0
SPLINE
  5
33C
330
1F
100
AcDbEntity
  8
0
  6
Continuous
 62
     7
370
    15
100
AcDbSpline
210
0.0
220
0.0
230
1.0
 70
     8
 71
     3
 72
    11
 73
     7
 74
     0
 42
0.00000001
 43
0.00000001
 40
0.0
 40
0.0
 40
0.0
 40
0.0
 40
0.2477412402716938
 40
0.4999975907088516
 40
0.7472711326969903
 40
1.0
 40
1.0
 40
1.0
 40
1.0
 10
704.3015974385136
 20
101.8615571356029
 30
0.0
 10
704.4955011274916
 20
101.1113241672818
 30
0.0
 10
704.8868424205771
 20
99.59718515586994
 30
0.0
 10
705.0765782592105
 20
97.2583369941302
 30
0.0
 10
704.889637418889
 20
94.90395656952765
 30
0.0
 10
704.4990313472541
 20
93.38946199505006
 30
0.0
 10
704.3015974385136
 20
92.62395268703109
 30
0.0
  0
SPLINE
  5
33D
330
1F
100
AcDbEntity
  8
0
  6
Continuous
 62
     7
370
    15
100
AcDbSpline
210
0.0
220
0.0
230
1.0
 70
     8
 71
     3
 72
    11
 73
     7
 74
     0
 42
0.00000001
 43
0.00000001
 40
0.0
 40
0.0
 40
0.0
 40
0.0
 40
0.2645356885169941
 40
0.5347694721124121
 40
0.7652648079471135
 40
1.0
 40
1.0
 40
1.0
 40
1.0
 10
704.3015974385136
 20
106.4803587778122
 30
0.0
 10
704.507280278759
 20
106.0795435192292
 30
0.0
 10
704.9230763647888
 20
105.269279446927
 30
0.0
 10
705.0753672396341
 20
104.0687671880103
 30
0.0
 10
704.8522716023986
 20
102.9208690445882
 30
0.0
 10
704.4862673472472
 20
102.2167999386658
 30
0.0
 10
704.3015974385136
 20
101.8615571356029
 30
0.0
  0
LINE
  5
33E
330
1F
100
AcDbEntity
  8
0
  6
Continuous
 62
     7
370
    15
100
AcDbLine
 10
705.3015994651
 20
89.7427547297
 30
0.0
 11
705.3015994651
 21
104.7427548601
 31
0.0
  0
SPLINE
  5
33F
330
1F
100
AcDbEntity
  8
0
  6
Continuous
 62
     7
370
    15
100
AcDbSpline
210
0.0
220
0.0
230
1.0
 70
     8
 71
     3
 72
    11
 73
     7
 74
     0
 42
0.00000001
 43
0.00000001
 40
0.0
 40
0.0
 40
0.0
 40
0.0
 40
0.2645358888398707
 40
0.5347695699844225
 40
0.7652648300061522
 40
1.0
 40
1.0
 40
1.0
 40
1.0
 10
698.3016001803272
 20
101.8615571356029
 30
0.0
 10
698.0959122690531
 20
102.2623724682425
 30
0.0
 10
697.68010617051
 20
103.0726362249631
 30
0.0
 10
697.5278458779333
 20
104.2731492240139
 30
0.0
 10
697.7509223756904
 20
105.4210475902974
 30
0.0
 10
698.1169290363716
 20
106.1251161892131
 30
0.0
 10
698.3016001803272
 20
106.4803587778122
 30
0.0
  0
SPLINE
  5
340
330
1F
100
AcDbEntity
  8
0
  6
Continuous
 62
     7
370
    15
100
AcDbSpline
210
0.0
220
0.0
230
1.0
 70
     8
 71
     3
 72
    11
 73
     7
 74
     0
 42
0.00000001
 43
0.00000001
 40
0.0
 40
0.0
 40
0.0
 40
0.0
 40
0.2477411957814595
 40
0.4999975913285405
 40
0.7472711776022885
 40
0.9999999999999999
 40
0.9999999999999999
 40
0.9999999999999999
 40
0.9999999999999999
 10
698.3016001803272
 20
92.62395268703109
 30
0.0
 10
698.1076975293959
 20
93.37418562778639
 30
0.0
 10
697.7163582605586
 20
94.8883248573551
 30
0.0
 10
697.5266066212089
 20
97.22717259627788
 30
0.0
 10
697.7135633597868
 20
99.5815525963903
 30
0.0
 10
698.1041673556382
 20
101.0960473874954
 30
0.0
 10
698.3016001803272
 20
101.8615566699416
 30
0.0
  0
SPLINE
  5
341
330
1F
100
AcDbEntity
  8
0
  6
Continuous
 62
     7
370
    15
100
AcDbSpline
210
0.0
220
0.0
230
1.0
 70
     8
 71
     3
 72
    11
 73
     7
 74
     0
 42
0.00000001
 43
0.00000001
 40
0.0
 40
0.0
 40
0.0
 40
0.0
 40
0.2645359036274382
 40
0.5347695503135402
 40
0.7652648020919401
 40
1.0
 40
1.0
 40
1.0
 40
1.0
 10
698.3016001803272
 20
88.0051503463299
 30
0.0
 10
698.0959122711254
 20
88.40596590065033
 30
0.0
 10
697.6801062153098
 20
89.21623003040902
 30
0.0
 10
697.5278458654008
 20
90.416742390064
 30
0.0
 10
697.7509224143073
 20
91.56464074852687
 30
0.0
 10
698.1169290399156
 20
92.26870982849127
 30
0.0
 10
698.3016001803272
 20
92.62395268703109
 30
0.0
  0
LINE
  5
342
330
1F
100
AcDbEntity
  8
0
  6
Continuous
 62
     7
370
    15
100
AcDbLine
 10
698.3016001803
 20
101.8615571356
 30
0.0
 11
704.3015974385
 21
101.8615571356
 31
0.0
  0
LINE
  5
343
330
1F
100
AcDbEntity
  8
0
  6
Continuous
 62
     7
370
    15
100
AcDbLine
 10
704.3015974385
 20
106.4803587778
 30
0.0
 11
698.3016001803
 21
106.4803587778
 31
0.0
  0
LINE
  5
344
330
1F
100
AcDbEntity
  8
0
  6
Continuous
 62
     7
370
    15
100
AcDbLine
 10
704.3015974385
 20
92.623952687
 30
0.0
 11
698.3016001803
 21
92.623952687
 31
0.0
  0
LINE
  5
345
330
1F
100
AcDbEntity
  8
0
  6
Continuous
 62
     7
370
    15
100
AcDbLine
 10
704.3015974385
 20
88.0051503463
 30
0.0
 11
698.3016001803
 21
88.0051503463
 31
0.0
  0
SPLINE
  5
346
330
1F
100
AcDbEntity
  8
0
  6
Continuous
 62
     7
370
    15
100
AcDbSpline
210
0.0
220
0.0
230
1.0
 70
     8
 71
     3
 72
    11
 73
     7
 74
     0
 42
0.00000001
 43
0.00000001
 40
0.0
 40
0.0
 40
0.0
 40
0.0
 40
0.2645357127541501
 40
0.5347694963381631
 40
0.7652648321631365
 40
1.0
 40
1.0
 40
1.0
 40
1.0
 10
447.3015981537694
 20
101.8615571356029
 30
0.0
 10
447.0959153140936
 20
102.2623725831531
 30
0.0
 10
446.680119248475
 20
103.0726369999285
 30
0.0
 10
446.5278283539114
 20
104.2731491395408
 30
0.0
 10
446.750923967024
 20
105.421047395009
 30
0.0
 10
447.1169282436403
 20
106.1251161632688
 30
0.0
 10
447.3015981537694
 20
106.4803587778122
 30
0.0
  0
SPLINE
  5
347
330
1F
100
AcDbEntity
  8
0
  6
Continuous
 62
     7
370
    15
100
AcDbSpline
210
0.0
220
0.0
230
1.0
 70
     8
 71
     3
 72
    11
 73
     7
 74
     0
 42
0.00000001
 43
0.00000001
 40
0.0
 40
0.0
 40
0.0
 40
0.0
 40
0.247741216045917
 40
0.4999975664812947
 40
0.7472711084676884
 40
0.9999999999999999
 40
0.9999999999999999
 40
0.9999999999999999
 40
0.9999999999999999
 10
447.3015981537694
 20
92.62395268703109
 30
0.0
 10
447.107694463787
 20
93.37418557723626
 30
0.0
 10
446.7163531493688
 20
94.88832450568684
 30
0.0
 10
446.5266173331412
 20
97.22717259765702
 30
0.0
 10
446.7135581948021
 20
99.58155309223163
 30
0.0
 10
447.1041642459983
 20
101.0960477494599
 30
0.0
 10
447.3015981537694
 20
101.8615571356029
 30
0.0
  0
SPLINE
  5
348
330
1F
100
AcDbEntity
  8
0
  6
Continuous
 62
     7
370
    15
100
AcDbSpline
210
0.0
220
0.0
230
1.0
 70
     8
 71
     3
 72
    11
 73
     7
 74
     0
 42
0.00000001
 43
0.00000001
 40
0.0
 40
0.0
 40
0.0
 40
0.0
 40
0.2645357275417329
 40
0.5347694766672955
 40
0.7652648042489306
 40
1.0
 40
1.0
 40
1.0
 40
1.0
 10
447.3015981537694
 20
88.0051503463299
 30
0.0
 10
447.0959153161663
 20
88.40596601556095
 30
0.0
 10
446.6801192932754
 20
89.21623080537434
 30
0.0
 10
446.527828341379
 20
90.41674230559076
 30
0.0
 10
446.7509240056417
 20
91.5646405532384
 30
0.0
 10
447.1169282471845
 20
92.268709802547
 30
0.0
 10
447.3015981537694
 20
92.62395268703109
 30
0.0
  0
LINE
  5
349
330
1F
100
AcDbEntity
  8
0
  6
Continuous
 62
     7
370
    15
100
AcDbLine
 10
446.3015961272
 20
104.7427548601
 30
0.0
 11
446.3015961272
 21
89.7427547297
 31
0.0
  0
LINE
  5
34A
330
1F
100
AcDbEntity
  8
0
  6
Continuous
 62
     7
370
    15
100
AcDbLine
 10
447.3015981538
 20
106.4803587778
 30
0.0
 11
453.301595412
 21
106.4803587778
 31
0.0
  0
SPLINE
  5
34B
330
1F
100
AcDbEntity
  8
0
  6
Continuous
 62
     7
370
    15
100
AcDbSpline
210
0.0
220
0.0
230
1.0
 70
     8
 71
     3
 72
    11
 73
     7
 74
     0
 42
0.00000001
 43
0.00000001
 40
0.0
 40
0.0
 40
0.0
 40
0.0
 40
0.2645358646027262
 40
0.5347695457586789
 40
0.7652648057901328
 40
1.0
 40
1.0
 40
1.0
 40
1.0
 10
453.3015954119557
 20
106.4803587778122
 30
0.0
 10
453.5072833237993
 20
106.0795436341399
 30
0.0
 10
453.9230894427533
 20
105.2692802218923
 30
0.0
 10
454.0753497156123
 20
104.0687671035372
 30
0.0
 10
453.8522731937328
 20
102.9208688492998
 30
0.0
 10
453.4862665545161
 20
102.2167999127215
 30
0.0
 10
453.3015954119557
 20
101.8615571356029
 30
0.0
  0
LINE
  5
34C
330
1F
100
AcDbEntity
  8
0
  6
Continuous
 62
     7
370
    15
100
AcDbLine
 10
447.3015981538
 20
101.8615571356
 30
0.0
 11
453.301595412
 21
101.8615571356
 31
0.0
  0
SPLINE
  5
34D
330
1F
100
AcDbEntity
  8
0
  6
Continuous
 62
     7
370
    15
100
AcDbSpline
210
0.0
220
0.0
230
1.0
 70
     8
 71
     3
 72
    11
 73
     7
 74
     0
 42
0.00000001
 43
0.00000001
 40
0.0
 40
0.0
 40
0.0
 40
0.0
 40
0.2645358913706954
 40
0.5347695379213553
 40
0.765264814312651
 40
1.0
 40
1.0
 40
1.0
 40
1.0
 10
453.3015954119557
 20
92.62395268703109
 30
0.0
 10
453.5072833230964
 20
92.22313721189205
 30
0.0
 10
453.9230893924611
 20
91.41287322343585
 30
0.0
 10
454.0753497131977
 20
90.21236098953212
 30
0.0
 10
453.8522732138904
 20
89.06446194587795
 30
0.0
 10
453.486266554752
 20
88.3603930726184
 30
0.0
 10
453.3015954119557
 20
88.0051503463299
 30
0.0
  0
SPLINE
  5
34E
330
1F
100
AcDbEntity
  8
0
  6
Continuous
 62
     7
370
    15
100
AcDbSpline
210
0.0
220
0.0
230
1.0
 70
     8
 71
     3
 72
    11
 73
     7
 74
     0
 42
0.00000001
 43
0.00000001
 40
0.0
 40
0.0
 40
0.0
 40
0.0
 40
0.2477412080011586
 40
0.499997591325129
 40
0.7472711656172087
 40
0.9999999999999999
 40
0.9999999999999999
 40
0.9999999999999999
 40
0.9999999999999999
 10
453.3015954119557
 20
101.8615571356029
 30
0.0
 10
453.4954980611513
 20
101.1113241168919
 30
0.0
 10
453.8868373071796
 20
99.59718480468551
 30
0.0
 10
454.0765889800855
 20
97.25833699354897
 30
0.0
 10
453.8896322087784
 20
94.90395692094665
 30
0.0
 10
453.4990282348999
 20
93.38946204742996
 30
0.0
 10
453.3015954119557
 20
92.62395268703109
 30
0.0
  0
LINE
  5
34F
330
1F
100
AcDbEntity
  8
0
  6
Continuous
 62
     7
370
    15
100
AcDbLine
 10
453.301595412
 20
92.623952687
 30
0.0
 11
447.3015981538
 21
92.623952687
 31
0.0
  0
LINE
  5
350
330
1F
100
AcDbEntity
  8
0
  6
Continuous
 62
     7
370
    15
100
AcDbLine
 10
447.3015981538
 20
88.0051503463
 30
0.0
 11
453.301595412
 21
88.0051503463
 31
0.0
  0
LINE
  5
351
330
1F
100
AcDbEntity
  8
0
  6
Continuous
 62
     7
370
    15
100
AcDbLine
 10
688.3015948159
 20
44.481289251
 30
0.0
 11
463.3016007764
 21
44.481289251
 31
0.0
  0
LINE
  5
352
330
1F
100
AcDbEntity
  8
0
  6
Continuous
 62
     7
370
    15
100
AcDbLine
 10
463.3016007764
 20
45.7213229074
 30
0.0
 11
463.3016007764
 21
44.481289251
 31
0.0
  0
LINE
  5
353
330
1F
100
AcDbEntity
  8
0
  6
Continuous
 62
     7
370
    15
100
AcDbLine
 10
688.3015948159
 20
44.481289251
 30
0.0
 11
688.3015948159
 21
45.7213229074
 31
0.0
  0
LINE
  5
354
330
1F
100
AcDbEntity
  8
0
  6
Continuous
 62
     7
370
    15
100
AcDbLine
 10
463.3016007764
 20
41.7427538468
 30
0.0
 11
688.3015948159
 21
41.7427538468
 31
0.0
  0
LINE
  5
355
330
1F
100
AcDbEntity
  8
0
  6
Continuous
 62
     7
370
    15
100
AcDbLine
 10
463.3016007764
 20
44.481289251
 30
0.0
 11
463.3016007764
 21
41.7427538468
 31
0.0
  0
LINE
  5
356
330
1F
100
AcDbEntity
  8
0
  6
Continuous
 62
     7
370
    15
100
AcDbLine
 10
688.3015948159
 20
44.481289251
 30
0.0
 11
688.3015948159
 21
41.7427538468
 31
0.0
  0
LINE
  5
357
330
1F
100
AcDbEntity
  8
0
  6
Continuous
 62
     7
370
    15
100
AcDbLine
 10
707.1016001326
 20
92.2427546738
 30
0.0
 11
707.1016001326
 21
102.242754916
 31
0.0
  0
LINE
  5
358
330
1F
100
AcDbEntity
  8
0
  6
Continuous
 62
     7
370
    15
100
AcDbLine
 10
707.6015936953
 20
92.7427547558
 30
0.0
 11
707.6015936953
 21
101.742754834
 31
0.0
  0
LINE
  5
359
330
1F
100
AcDbEntity
  8
0
  6
Continuous
 62
     7
370
    15
100
AcDbLine
 10
444.0016018969
 20
101.742754834
 30
0.0
 11
444.0016018969
 21
92.7427547558
 31
0.0
  0
LINE
  5
35A
330
1F
100
AcDbEntity
  8
0
  6
Continuous
 62
     7
370
    15
100
AcDbLine
 10
444.5015954596
 20
102.242754916
 30
0.0
 11
444.5015954596
 21
92.2427546738
 31
0.0
  0
LINE
  5
35B
330
1F
100
AcDbEntity
  8
0
  6
Continuous
 62
     7
370
    15
100
AcDbLine
 10
410.8015912396
 20
126.2331741436
 30
0.0
 11
454.2509930951
 21
126.2331741436
 31
0.0
  0
LINE
  5
35C
330
1F
100
AcDbEntity
  8
0
  6
Continuous
 62
     7
370
    15
100
AcDbLine
 10
697.3455193264
 20
126.2331741436
 30
0.0
 11
740.8016043527
 21
126.2331741436
 31
0.0
  0
LINE
  5
35D
330
1F
100
AcDbEntity
  8
0
  6
Continuous
 62
     7
370
    15
100
AcDbLine
 10
410.8015912396
 20
66.2331754847
 30
0.0
 11
454.2509930951
 21
66.2331754847
 31
0.0
  0
LINE
  5
35E
330
1F
100
AcDbEntity
  8
0
  6
Continuous
 62
     7
370
    15
100
AcDbLine
 10
697.3455193264
 20
66.2331754847
 30
0.0
 11
740.8016043527
 21
66.2331754847
 31
0.0
  0
LINE
  5
35F
330
1F
100
AcDbEntity
  8
0
  6
Continuous
 62
     7
370
    15
100
AcDbLine
 10
741.4536046607
 20
71.2331744416
 30
0.0
 11
741.4536046607
 21
121.2331751867
 31
0.0
  0
LINE
  5
360
330
1F
100
AcDbEntity
  8
0
  6
Continuous
 62
     7
370
    15
100
AcDbLine
 10
741.4536046607
 20
71.2331744416
 30
0.0
 11
697.3184364659
 21
71.2331744416
 31
0.0
  0
LINE
  5
361
330
1F
100
AcDbEntity
  8
0
  6
Continuous
 62
     7
370
    15
100
AcDbLine
 10
741.4536046607
 20
121.2331751867
 30
0.0
 11
697.3184364659
 21
121.2331751867
 31
0.0
  0
LINE
  5
362
330
1F
100
AcDbEntity
  8
0
  6
Continuous
 62
     7
370
    15
100
AcDbLine
 10
410.1495909316
 20
121.2331751867
 30
0.0
 11
410.1495909316
 21
71.2331744416
 31
0.0
  0
LINE
  5
363
330
1F
100
AcDbEntity
  8
0
  6
Continuous
 62
     7
370
    15
100
AcDbLine
 10
454.1982429845
 20
71.2331744416
 30
0.0
 11
410.1495909316
 21
71.2331744416
 31
0.0
  0
LINE
  5
364
330
1F
100
AcDbEntity
  8
0
  6
Continuous
 62
     7
370
    15
100
AcDbLine
 10
454.3015974385
 20
121.2331751867
 30
0.0
 11
410.1495909316
 21
121.2331751867
 31
0.0
  0
LINE
  5
365
330
1F
100
AcDbEntity
  8
0
  6
Continuous
 62
     7
370
    15
100
AcDbLine
 10
749.2489981276
 20
121.2331751867
 30
0.0
 11
749.2489981276
 21
71.2331744416
 31
0.0
  0
LINE
  5
366
330
1F
100
AcDbEntity
  8
0
  6
Continuous
 62
     7
370
    15
100
AcDbLine
 10
749.2489981276
 20
71.2331744416
 30
0.0
 11
741.4536046607
 21
71.2331744416
 31
0.0
  0
LINE
  5
367
330
1F
100
AcDbEntity
  8
0
  6
Continuous
 62
     7
370
    15
100
AcDbLine
 10
741.4536046607
 20
121.2331751867
 30
0.0
 11
749.2489981276
 21
121.2331751867
 31
0.0
  0
LINE
  5
368
330
1F
100
AcDbEntity
  8
0
  6
Continuous
 62
     7
370
    15
100
AcDbLine
 10
402.3541974646
 20
71.2331744416
 30
0.0
 11
402.3541974646
 21
121.2331751867
 31
0.0
  0
LINE
  5
369
330
1F
100
AcDbEntity
  8
0
  6
Continuous
 62
     7
370
    15
100
AcDbLine
 10
410.1495909316
 20
71.2331744416
 30
0.0
 11
402.3541974646
 21
71.2331744416
 31
0.0
  0
LINE
  5
36A
330
1F
100
AcDbEntity
  8
0
  6
Continuous
 62
     7
370
    15
100
AcDbLine
 10
402.3541974646
 20
121.2331751867
 30
0.0
 11
410.1495909316
 21
121.2331751867
 31
0.0
  0
LINE
  5
36B
330
1F
100
AcDbEntity
  8
0
  6
Continuous
 62
     7
370
    15
100
AcDbLine
 10
750.8015948159
 20
71.2331744416
 30
0.0
 11
750.8015948159
 21
121.2331751867
 31
0.0
  0
LINE
  5
36C
330
1F
100
AcDbEntity
  8
0
  6
Continuous
 62
     7
370
    15
100
AcDbLine
 10
750.8015948159
 20
71.2331744416
 30
0.0
 11
749.2489981276
 21
71.2331744416
 31
0.0
  0
LINE
  5
36D
330
1F
100
AcDbEntity
  8
0
  6
Continuous
 62
     7
370
    15
100
AcDbLine
 10
750.8015948159
 20
121.2331751867
 30
0.0
 11
749.2489981276
 21
121.2331751867
 31
0.0
  0
LINE
  5
36E
330
1F
100
AcDbEntity
  8
0
  6
Continuous
 62
     7
370
    15
100
AcDbLine
 10
400.8016007764
 20
71.2331744416
 30
0.0
 11
400.8016007764
 21
121.2331751867
 31
0.0
  0
LINE
  5
36F
330
1F
100
AcDbEntity
  8
0
  6
Continuous
 62
     7
370
    15
100
AcDbLine
 10
402.3541974646
 20
71.2331744416
 30
0.0
 11
400.8016007764
 21
71.2331744416
 31
0.0
  0
LINE
  5
370
330
1F
100
AcDbEntity
  8
0
  6
Continuous
 62
     7
370
    15
100
AcDbLine
 10
402.3541974646
 20
121.2331751867
 30
0.0
 11
400.8016007764
 21
121.2331751867
 31
0.0
  0
LINE
  5
371
330
1F
100
AcDbEntity
  8
0
  6
Continuous
 62
     7
370
    15
100
AcDbLine
 10
688.3015948159
 20
71.5373239054
 30
0.0
 11
585.3371628371
 21
71.5373239054
 31
0.0
  0
LINE
  5
372
330
1F
100
AcDbEntity
  8
0
  6
Continuous
 62
     7
370
    15
100
AcDbLine
 10
566.2660327551
 20
71.5373239054
 30
0.0
 11
463.3016007764
 21
71.5373239054
 31
0.0
  0
LINE
  5
373
330
1F
100
AcDbEntity
  8
0
  6
Continuous
 62
     7
370
    15
100
AcDbLine
 10
463.3016007764
 20
68.8940367235
 30
0.0
 11
566.6567244378
 21
68.8940367235
 31
0.0
  0
LINE
  5
374
330
1F
100
AcDbEntity
  8
0
  6
Continuous
 62
     7
370
    15
100
AcDbLine
 10
584.9464711545
 20
68.8940367235
 30
0.0
 11
688.3015948159
 21
68.8940367235
 31
0.0
  0
LINE
  5
375
330
1F
100
AcDbEntity
  8
0
  6
Continuous
 62
     7
370
    15
100
AcDbLine
 10
695.3015941007
 20
48.7427531316
 30
0.0
 11
695.3015941007
 21
56.65436448
 31
0.0
  0
LINE
  5
376
330
1F
100
AcDbEntity
  8
0
  6
Continuous
 62
     7
370
    15
100
AcDbLine
 10
456.3016014916
 20
145.7427559926
 30
0.0
 11
456.3016014916
 21
137.8311483695
 31
0.0
  0
LINE
  5
377
330
1F
100
AcDbEntity
  8
0
  6
Continuous
 62
     7
370
    15
100
AcDbLine
 10
695.3015941007
 20
137.8311483695
 30
0.0
 11
695.3015941007
 21
145.7427559926
 31
0.0
  0
LINE
  5
378
330
1F
100
AcDbEntity
  8
0
  6
Continuous
 62
     7
370
    15
100
AcDbLine
 10
456.3016014916
 20
56.65436448
 30
0.0
 11
456.3016014916
 21
48.7427531316
 31
0.0
  0
ENDSEC
  0
SECTION
  2
OBJECTS
  0
DICTIONARY
  5
C
330
0
100
AcDbDictionary
281
     1
  3
ACAD_GROUP
350
D
  3
ACAD_LAYOUT
350
1A
  3
ACAD_MLINESTYLE
350
17
  3
ACAD_PLOTSETTINGS
350
19
  3
ACAD_PLOTSTYLENAME
350
E
  0
DICTIONARY
  5
D
102
{ACAD_REACTORS
330
C
102
}
330
C
100
AcDbDictionary
281
     1
  0
DICTIONARY
  5
1A
102
{ACAD_REACTORS
330
C
102
}
330
C
100
AcDbDictionary
281
     1
  3
Layout1
350
1E
  3
Layout2
350
26
  3
Model
350
22
  0
DICTIONARY
  5
17
102
{ACAD_REACTORS
330
C
102
}
330
C
100
AcDbDictionary
281
     1
  3
Standard
350
18
  0
DICTIONARY
  5
19
102
{ACAD_REACTORS
330
C
102
}
330
C
100
AcDbDictionary
281
     1
  0
ACDBDICTIONARYWDFLT
  5
E
102
{ACAD_REACTORS
330
C
102
}
330
C
100
AcDbDictionary
281
     1
  3
Normal
350
F
100
AcDbDictionaryWithDefault
340
F
  0
LAYOUT
  5
1E
102
{ACAD_REACTORS
330
1A
102
}
330
1A
100
AcDbPlotSettings
  1

  2
none_device
  4

  6

 40
0.0
 41
0.0
 42
0.0
 43
0.0
 44
0.0
 45
0.0
 46
0.0
 47
0.0
 48
0.0
 49
0.0
140
0.0
141
0.0
142
1.0
143
1.0
 70
   688
 72
     0
 73
     0
 74
     5
  7

 75
    16
147
1.0
148
0.0
149
0.0
100
AcDbLayout
  1
Layout1
 70
     1
 71
     1
 10
0.0
 20
0.0
 11
420.0
 21
297.0
 12
0.0
 22
0.0
 32
0.0
 14
1.0000000000E+20
 24
1.0000000000E+20
 34
1.0000000000E+20
 15
-1.0000000000E+20
 25
-1.0000000000E+20
 35
-1.0000000000E+20
146
0.0
 13
0.0
 23
0.0
 33
0.0
 16
1.0
 26
0.0
 36
0.0
 17
0.0
 27
1.0
 37
0.0
 76
     0
330
1B
  0
LAYOUT
  5
26
102
{ACAD_REACTORS
330
1A
102
}
330
1A
100
AcDbPlotSettings
  1

  2
none_device
  4

  6

 40
0.0
 41
0.0
 42
0.0
 43
0.0
 44
0.0
 45
0.0
 46
0.0
 47
0.0
 48
0.0
 49
0.0
140
0.0
141
0.0
142
1.0
143
1.0
 70
   688
 72
     0
 73
     0
 74
     5
  7

 75
    16
147
1.0
148
0.0
149
0.0
100
AcDbLayout
  1
Layout2
 70
     1
 71
     2
 10
0.0
 20
0.0
 11
0.0
 21
0.0
 12
0.0
 22
0.0
 32
0.0
 14
0.0
 24
0.0
 34
0.0
 15
0.0
 25
0.0
 35
0.0
146
0.0
 13
0.0
 23
0.0
 33
0.0
 16
1.0
 26
0.0
 36
0.0
 17
0.0
 27
1.0
 37
0.0
 76
     0
330
23
  0
LAYOUT
  5
22
102
{ACAD_REACTORS
330
1A
102
}
330
1A
100
AcDbPlotSettings
  1

  2
none_device
  4

  6

 40
0.0
 41
0.0
 42
0.0
 43
0.0
 44
0.0
 45
0.0
 46
0.0
 47
0.0
 48
0.0
 49
0.0
140
0.0
141
0.0
142
1.0
143
1.0
 70
  1712
 72
     0
 73
     0
 74
     0
  7

 75
     0
147
1.0
148
0.0
149
0.0
100
AcDbLayout
  1
Model
 70
     1
 71
     0
 10
0.0
 20
0.0
 11
0.0
 21
0.0
 12
0.0
 22
0.0
 32
0.0
 14
0.0
 24
0.0
 34
0.0
 15
1189.0
 25
841.0
 35
0.0
146
0.0
 13
0.0
 23
0.0
 33
0.0
 16
1.0
 26
0.0
 36
0.0
 17
0.0
 27
1.0
 37
0.0
 76
     0
330
1F
  0
MLINESTYLE
  5
18
102
{ACAD_REACTORS
330
17
102
}
330
17
100
AcDbMlineStyle
  2
Standard
 70
     0
  3

 62
   256
 51
90.0
 52
90.0
 71
     2
 49
0.5
 62
   256
  6
BYLAYER
 49
-0.5
 62
   256
  6
BYLAYER
  0
ACDBPLACEHOLDER
  5
F
102
{ACAD_REACTORS
330
E
102
}
330
E
  0
ENDSEC
  0
EOF
