  0
SECTION
  2
HEADER
  9
$ACADVER
  1
AC1015
  9
$ACADMAINTVER
 70
     6
  9
$DWGCODEPAGE
  3
ANSI_1252
  9
$INSBASE
 10
0.0
 20
0.0
 30
0.0
  9
$EXTMIN
 10
0.0
 20
0.0
 30
0.0
  9
$EXTMAX
 10
600.0
 20
600.0
 30
0.0
  9
$LIMMIN
 10
0.0
 20
0.0
  9
$LIMMAX
 10
0.0
 20
0.0
  9
$ORTHOMODE
 70
     0
  9
$REGENMODE
 70
     1
  9
$FILLMODE
 70
     1
  9
$QTEXTMODE
 70
     0
  9
$MIRRTEXT
 70
     1
  9
$LTSCALE
 40
1.0
  9
$ATTMODE
 70
     1
  9
$TEXTSIZE
 40
3.5
  9
$TRACEWID
 40
1.0
  9
$TEXTSTYLE
  7
Standard
  9
$CLAYER
  8
0
  9
$CELTYPE
  6
ByLayer
  9
$CECOLOR
 62
   256
  9
$CELTSCALE
 40
1.0
  9
$DISPSILH
 70
     0
  9
$DIMSCALE
 40
1.0
  9
$DIMASZ
 40
6.0
  9
$DIMEXO
 40
1.0
  9
$DIMDLI
 40
3.75
  9
$DIMRND
 40
0.0
  9
$DIMDLE
 40
0.0
  9
$DIMEXE
 40
1.0
  9
$DIMTP
 40
0.0
  9
$DIMTM
 40
0.0
  9
$DIMTXT
 40
3.5
  9
$DIMCEN
 40
2.5
  9
$DIMTSZ
 40
0.0
  9
$DIMTOL
 70
     0
  9
$DIMLIM
 70
     0
  9
$DIMTIH
 70
     1
  9
$DIMTOH
 70
     1
  9
$DIMSE1
 70
     0
  9
$DIMSE2
 70
     0
  9
$DIMTAD
 70
     1
  9
$DIMZIN
 70
     0
  9
$DIMBLK
  1

  9
$DIMASO
 70
     1
  9
$DIMSHO
 70
     1
  9
$DIMPOST
  1

  9
$DIMAPOST
  1

  9
$DIMALT
 70
     0
  9
$DIMALTD
 70
     3
  9
$DIMALTF
 40
0.0393700787
  9
$DIMLFAC
 40
1.0
  9
$DIMTOFL
 70
     1
  9
$DIMTVP
 40
0.0
  9
$DIMTIX
 70
     0
  9
$DIMSOXD
 70
     0
  9
$DIMSAH
 70
     0
  9
$DIMBLK1
  1

  9
$DIMBLK2
  1

  9
$DIMSTYLE
  2
ISO-25
  9
$DIMCLRD
 70
     0
  9
$DIMCLRE
 70
     0
  9
$DIMCLRT
 70
     0
  9
$DIMTFAC
 40
1.0
  9
$DIMGAP
 40
1.524
  9
$DIMJUST
 70
     0
  9
$DIMSD1
 70
     0
  9
$DIMSD2
 70
     0
  9
$DIMTOLJ
 70
     0
  9
$DIMTZIN
 70
     0
  9
$DIMALTZ
 70
     0
  9
$DIMALTTZ
 70
     0
  9
$DIMUPT
 70
     0
  9
$DIMDEC
 70
     2
  9
$DIMTDEC
 70
     2
  9
$DIMALTU
 70
     2
  9
$DIMALTTD
 70
     3
  9
$DIMTXSTY
  7
Standard
  9
$DIMAUNIT
 70
     0
  9
$DIMADEC
 70
     0
  9
$DIMALTRND
 40
0.0
  9
$DIMAZIN
 70
     0
  9
$DIMDSEP
 70
    44
  9
$DIMATFIT
 70
     3
  9
$DIMFRAC
 70
     0
  9
$DIMLDRBLK
  1

  9
$DIMLUNIT
 70
     2
  9
$DIMLWD
 70
    -2
  9
$DIMLWE
 70
    -2
  9
$DIMTMOVE
 70
     0
  9
$LUNITS
 70
     2
  9
$LUPREC
 70
     2
  9
$SKETCHINC
 40
1.0
  9
$FILLETRAD
 40
10.0
  9
$AUNITS
 70
     0
  9
$AUPREC
 70
     0
  9
$MENU
  1
.
  9
$ELEVATION
 40
0.0
  9
$PELEVATION
 40
0.0
  9
$THICKNESS
 40
0.0
  9
$LIMCHECK
 70
     0
  9
$CHAMFERA
 40
10.0
  9
$CHAMFERB
 40
10.0
  9
$CHAMFERC
 40
20.0
  9
$CHAMFERD
 40
0.0
  9
$SKPOLY
 70
     0
  9
$TDCREATE
 40
2455281.635199792
  9
$TDUCREATE
 40
2455281.593533125
  9
$TDUPDATE
 40
2455281.635199803
  9
$TDUUPDATE
 40
2455281.593533136
  9
$TDINDWG
 40
0.0000000116
  9
$TDUSRTIMER
 40
0.0000000116
  9
$USRTIMER
 70
     1
  9
$ANGBASE
 50
0.0
  9
$ANGDIR
 70
     0
  9
$PDMODE
 70
     0
  9
$PDSIZE
 40
-1.0
  9
$PLINEWID
 40
0.0
  9
$SPLFRAME
 70
     0
  9
$SPLINETYPE
 70
     6
  9
$SPLINESEGS
 70
     8
  9
$HANDSEED
  5
2CB
  9
$SURFTAB1
 70
     6
  9
$SURFTAB2
 70
     6
  9
$SURFTYPE
 70
     6
  9
$SURFU
 70
     6
  9
$SURFV
 70
     6
  9
$UCSBASE
  2

  9
$UCSNAME
  2

  9
$UCSORG
 10
0.0
 20
0.0
 30
0.0
  9
$UCSXDIR
 10
1.0
 20
0.0
 30
0.0
  9
$UCSYDIR
 10
0.0
 20
1.0
 30
0.0
  9
$UCSORTHOREF
  2

  9
$UCSORTHOVIEW
 70
     0
  9
$UCSORGTOP
 10
0.0
 20
0.0
 30
0.0
  9
$UCSORGBOTTOM
 10
0.0
 20
0.0
 30
0.0
  9
$UCSORGLEFT
 10
0.0
 20
0.0
 30
0.0
  9
$UCSORGRIGHT
 10
0.0
 20
0.0
 30
0.0
  9
$UCSORGFRONT
 10
0.0
 20
0.0
 30
0.0
  9
$UCSORGBACK
 10
0.0
 20
0.0
 30
0.0
  9
$PUCSBASE
  2

  9
$PUCSNAME
  2

  9
$PUCSORG
 10
0.0
 20
0.0
 30
0.0
  9
$PUCSXDIR
 10
1.0
 20
0.0
 30
0.0
  9
$PUCSYDIR
 10
0.0
 20
1.0
 30
0.0
  9
$PUCSORTHOREF
  2

  9
$PUCSORTHOVIEW
 70
     0
  9
$PUCSORGTOP
 10
0.0
 20
0.0
 30
0.0
  9
$PUCSORGBOTTOM
 10
0.0
 20
0.0
 30
0.0
  9
$PUCSORGLEFT
 10
0.0
 20
0.0
 30
0.0
  9
$PUCSORGRIGHT
 10
0.0
 20
0.0
 30
0.0
  9
$PUCSORGFRONT
 10
0.0
 20
0.0
 30
0.0
  9
$PUCSORGBACK
 10
0.0
 20
0.0
 30
0.0
  9
$USERI1
 70
     0
  9
$USERI2
 70
     0
  9
$USERI3
 70
     0
  9
$USERI4
 70
     0
  9
$USERI5
 70
     0
  9
$USERR1
 40
0.0
  9
$USERR2
 40
0.0
  9
$USERR3
 40
0.0
  9
$USERR4
 40
0.0
  9
$USERR5
 40
0.0
  9
$WORLDVIEW
 70
     1
  9
$SHADEDGE
 70
     3
  9
$SHADEDIF
 70
    70
  9
$TILEMODE
 70
     1
  9
$MAXACTVP
 70
    64
  9
$PINSBASE
 10
0.0
 20
0.0
 30
0.0
  9
$PLIMCHECK
 70
     0
  9
$PEXTMIN
 10
1.0000000000E+20
 20
1.0000000000E+20
 30
1.0000000000E+20
  9
$PEXTMAX
 10
-1.0000000000E+20
 20
-1.0000000000E+20
 30
-1.0000000000E+20
  9
$PLIMMIN
 10
0.0
 20
0.0
  9
$PLIMMAX
 10
420.0
 20
297.0
  9
$UNITMODE
 70
     0
  9
$VISRETAIN
 70
     1
  9
$PLINEGEN
 70
     0
  9
$PSLTSCALE
 70
     1
  9
$TREEDEPTH
 70
  3020
  9
$CMLSTYLE
  2
Standard
  9
$CMLJUST
 70
     0
  9
$CMLSCALE
 40
20.0
  9
$PROXYGRAPHICS
 70
     1
  9
$MEASUREMENT
 70
     1
  9
$CELWEIGHT
370
    -1
  9
$ENDCAPS
280
     0
  9
$JOINSTYLE
280
     0
  9
$LWDISPLAY
290
     1
  9
$INSUNITS
 70
     4
  9
$HYPERLINKBASE
  1

  9
$STYLESHEET
  1

  9
$XEDIT
290
     1
  9
$CEPSNTYPE
380
     0
  9
$PSTYLEMODE
290
     1
  9
$FINGERPRINTGUID
  2
{6DFCB868-663A-4DA9-B02A-28280C4858E1}
  9
$VERSIONGUID
  2
{FAEB1C32-E019-11D5-929B-00C0DF256EC4}
  9
$EXTNAMES
290
     1
  9
$PSVPSCALE
 40
0.0
  9
$OLESTARTUP
290
     0
  0
ENDSEC
  0
SECTION
  2
CLASSES
  0
CLASS
  1
ACDBDICTIONARYWDFLT
  2
AcDbDictionaryWithDefault
  3
ObjectDBX Classes
 90
        0
280
     0
281
     0
  0
CLASS
  1
ACDBPLACEHOLDER
  2
AcDbPlaceHolder
  3
ObjectDBX Classes
 90
        0
280
     0
281
     0
  0
CLASS
  1
LAYOUT
  2
AcDbLayout
  3
ObjectDBX Classes
 90
        0
280
     0
281
     0
  0
ENDSEC
  0
SECTION
  2
TABLES
  0
TABLE
  2
VPORT
  5
8
330
0
100
AcDbSymbolTable
 70
     1
  0
VPORT
  5
29
330
8
100
AcDbSymbolTableRecord
100
AcDbViewportTableRecord
  2
*Active
 70
     0
 10
0.0
 20
0.0
 11
1.0
 21
1.0
 12
300.0
 22
300.0
 13
0.0
 23
0.0
 14
10.0
 24
10.0
 15
10.0
 25
10.0
 16
0.0
 26
0.0
 36
1.0
 17
0.0
 27
0.0
 37
0.0
 40
600.0
 41
1.0
 42
50.0
 43
0.0
 44
0.0
 50
0.0
 51
0.0
 71
     0
 72
  2000
 73
     1
 74
     3
 75
     0
 76
     0
 77
     0
 78
     0
281
     0
 65
     1
110
0.0
120
0.0
130
0.0
111
1.0
121
0.0
131
0.0
112
0.0
122
1.0
132
0.0
 79
     0
146
0.0
  0
ENDTAB
  0
TABLE
  2
LTYPE
  5
5
330
0
100
AcDbSymbolTable
 70
     6
  0
LTYPE
  5
14
330
5
100
AcDbSymbolTableRecord
100
AcDbLinetypeTableRecord
  2
ByBlock
 70
     0
  3

 72
    65
 73
     0
 40
0.0
  0
LTYPE
  5
15
330
5
100
AcDbSymbolTableRecord
100
AcDbLinetypeTableRecord
  2
ByLayer
 70
     0
  3

 72
    65
 73
     0
 40
0.0
  0
LTYPE
  5
16
330
5
100
AcDbSymbolTableRecord
100
AcDbLinetypeTableRecord
  2
Continuous
 70
     0
  3
Solid line
 72
    65
 73
     0
 40
0.0
  0
LTYPE
  5
2A
330
5
100
AcDbSymbolTableRecord
100
AcDbLinetypeTableRecord
  2
HIDDEN
 70
     0
  3
Hidden __ __ __ __ __ __ __ __ __ __ __ __ __ __
 72
    65
 73
     2
 40
1.905
 49
1.27
 74
     0
 49
-0.635
 74
     0
  0
LTYPE
  5
2B
330
5
100
AcDbSymbolTableRecord
100
AcDbLinetypeTableRecord
  2
PHANTOM
 70
     0
  3
Phantom ______  __  __  ______  __  __  ______
 72
    65
 73
     6
 40
12.7
 49
6.35
 74
     0
 49
-1.27
 74
     0
 49
1.27
 74
     0
 49
-1.27
 74
     0
 49
1.27
 74
     0
 49
-1.27
 74
     0
  0
LTYPE
  5
2C
330
5
100
AcDbSymbolTableRecord
100
AcDbLinetypeTableRecord
  2
CENTER
 70
     0
  3
Center ____ _ ____ _ ____ _ ____ _ ____ _ ____
 72
    65
 73
     4
 40
10.16
 49
6.35
 74
     0
 49
-1.27
 74
     0
 49
1.27
 74
     0
 49
-1.27
 74
     0
  0
LTYPE
  5
2D
330
5
100
AcDbSymbolTableRecord
100
AcDbLinetypeTableRecord
  2
CENTERX2
 70
     0
  3
Center (2x) ________  __  ________  __  _____
 72
    65
 73
     4
 40
20.32
 49
12.7
 74
     0
 49
-2.54
 74
     0
 49
2.54
 74
     0
 49
-2.54
 74
     0
  0
LTYPE
  5
2E
330
5
100
AcDbSymbolTableRecord
100
AcDbLinetypeTableRecord
  2
DOT2
 70
     0
  3
Dot (.5x) ........................................
 72
    65
 73
     2
 40
0.635
 49
0.0
 74
     0
 49
-0.635
 74
     0
  0
ENDTAB
  0
TABLE
  2
LAYER
  5
2
330
0
100
AcDbSymbolTable
 70
     2
  0
LAYER
  5
10
330
2
100
AcDbSymbolTableRecord
100
AcDbLayerTableRecord
  2
0
 70
     0
 62
     7
  6
Continuous
370
    -3
390
F
  0
LAYER
  5
2F
330
2
100
AcDbSymbolTableRecord
100
AcDbLayerTableRecord
  2
FORMAT
 70
     0
 62
     7
  6
Continuous
370
    -3
390
F
  0
ENDTAB
  0
TABLE
  2
STYLE
  5
3
330
0
100
AcDbSymbolTable
 70
     1
  0
STYLE
  5
11
330
3
100
AcDbSymbolTableRecord
100
AcDbTextStyleTableRecord
  2
Standard
 70
     0
 40
0.0
 41
1.0
 50
0.0
 71
     0
 42
2.5
  3
txt
  4

  0
ENDTAB
  0
TABLE
  2
VIEW
  5
6
330
0
100
AcDbSymbolTable
 70
     0
  0
ENDTAB
  0
TABLE
  2
UCS
  5
7
330
0
100
AcDbSymbolTable
 70
     0
  0
ENDTAB
  0
TABLE
  2
APPID
  5
9
330
0
100
AcDbSymbolTable
 70
     1
  0
APPID
  5
12
330
9
100
AcDbSymbolTableRecord
100
AcDbRegAppTableRecord
  2
ACAD
 70
     0
  0
ENDTAB
  0
TABLE
  2
DIMSTYLE
  5
A
330
0
100
AcDbSymbolTable
 70
     1
100
AcDbDimStyleTable
  0
DIMSTYLE
105
27
330
A
100
AcDbSymbolTableRecord
100
AcDbDimStyleTableRecord
  2
ISO-25
 70
     0
 41
2.5
 42
0.625
 43
3.75
 44
1.25
 73
     0
 74
     0
 77
     1
 78
     8
140
2.5
141
2.5
143
0.0393700787
147
0.625
171
     3
172
     1
271
     2
272
     2
274
     3
278
    44
283
     0
284
     8
340
11
  0
ENDTAB
  0
TABLE
  2
BLOCK_RECORD
  5
1
330
0
100
AcDbSymbolTable
 70
     1
  0
BLOCK_RECORD
  5
1F
330
1
100
AcDbSymbolTableRecord
100
AcDbBlockTableRecord
  2
*Model_Space
340
22
  0
BLOCK_RECORD
  5
1B
330
1
100
AcDbSymbolTableRecord
100
AcDbBlockTableRecord
  2
*Paper_Space
340
1E
  0
BLOCK_RECORD
  5
23
330
1
100
AcDbSymbolTableRecord
100
AcDbBlockTableRecord
  2
*Paper_Space0
340
26
  0
ENDTAB
  0
ENDSEC
  0
SECTION
  2
BLOCKS
  0
BLOCK
  5
20
330
1F
100
AcDbEntity
  8
0
100
AcDbBlockBegin
  2
*Model_Space
 70
     0
 71
     0
 10
0.0
 20
0.0
 30
0.0
  3
*Model_Space
  1

  0
ENDBLK
  5
21
330
1F
100
AcDbEntity
  8
0
100
AcDbBlockEnd
  0
BLOCK
  5
1C
330
1B
100
AcDbEntity
 67
     1
  8
0
100
AcDbBlockBegin
  2
*Paper_Space
 70
     0
 71
     0
 10
0.0
 20
0.0
 30
0.0
  3
*Paper_Space
  1

  0
ENDBLK
  5
1D
330
1B
100
AcDbEntity
 67
     1
  8
0
100
AcDbBlockEnd
  0
BLOCK
  5
24
330
23
100
AcDbEntity
  8
0
100
AcDbBlockBegin
  2
*Paper_Space0
 70
     0
 71
     0
 10
0.0
 20
0.0
 30
0.0
  3
*Paper_Space0
  1

  0
ENDBLK
  5
25
330
23
100
AcDbEntity
  8
0
100
AcDbBlockEnd
  0
ENDSEC
  0
SECTION
  2
ENTITIES
  0
LINE
  5
30
330
1F
100
AcDbEntity
  8
0
  6
Continuous
 62
     7
370
    15
100
AcDbLine
 10
279.799162917
 20
256.6664622377
 30
0.0
 11
283.2991625594
 21
256.6664622377
 31
0.0
  0
LINE
  5
31
330
1F
100
AcDbEntity
  8
0
  6
Continuous
 62
     7
370
    15
100
AcDbLine
 10
283.2991625594
 20
295.4664633821
 30
0.0
 11
279.799162917
 21
295.4664633821
 31
0.0
  0
LINE
  5
32
330
1F
100
AcDbEntity
  8
0
  6
Continuous
 62
     7
370
    15
100
AcDbLine
 10
279.799162917
 20
295.4664633821
 30
0.0
 11
275.7991622613
 21
291.4664627265
 31
0.0
  0
LINE
  5
33
330
1F
100
AcDbEntity
  8
0
  6
Continuous
 62
     7
370
    15
100
AcDbLine
 10
275.7991622613
 20
260.6664628934
 30
0.0
 11
279.799162917
 21
256.6664622377
 31
0.0
  0
LINE
  5
34
330
1F
100
AcDbEntity
  8
0
  6
Continuous
 62
     7
370
    15
100
AcDbLine
 10
283.2991625594
 20
260.1664618801
 30
0.0
 11
285.2991666125
 21
262.1664631392
 31
0.0
  0
LINE
  5
35
330
1F
100
AcDbEntity
  8
0
  6
Continuous
 62
     7
370
    15
100
AcDbLine
 10
285.2991666125
 20
289.9664624806
 30
0.0
 11
283.2991625594
 21
291.9664637397
 31
0.0
  0
ARC
  5
36
330
1F
100
AcDbEntity
  8
0
  6
Continuous
 62
     7
370
    15
100
AcDbCircle
 10
485.561522818
 20
484.0664628099
 30
0.0
 40
2.0
100
AcDbArc
 50
356.2055053037
 51
90.0
  0
ARC
  5
37
330
1F
100
AcDbEntity
  8
0
  6
Continuous
 62
     7
370
    15
100
AcDbCircle
 10
459.8367975184
 20
484.0664688015
 30
0.0
 40
1.999987451989945
100
AcDbArc
 50
89.9994174454
 51
183.7978769216
  0
LWPOLYLINE
  5
38
330
1F
100
AcDbEntity
  8
0
  6
Continuous
 62
     7
370
    15
100
AcDbPolyline
 90
       20
 70
   128
 43
0.0
 10
457.8412468956
 20
483.9333699297
 10
458.6093943046
 20
472.4125222515
 10
459.3770872282
 20
460.8995572876
 10
460.0875596927
 20
450.2452717375
 10
460.7407595442
 20
440.4496507
 10
461.3366718815
 20
431.5126941751
 10
461.8661697434
 20
423.571135218
 10
462.340406649
 20
416.4578573059
 10
462.7593825983
 20
410.1728604387
 10
463.123119943
 20
404.7161297153
 10
463.3884202169
 20
400.7357091855
 10
463.6148284601
 20
397.3386393141
 10
463.832430117
 20
394.0738545011
 10
464.0561039971
 20
390.7183290671
 10
464.2858351992
 20
387.2720481108
 10
464.5216162728
 20
383.7350116323
 10
464.8072640823
 20
379.4498623561
 10
465.1006232427
 20
375.0464053105
 10
465.3988848852
 20
370.5814586233
 10
465.699165635
 20
366.0664663862
  0
LWPOLYLINE
  5
39
330
1F
100
AcDbEntity
  8
0
  6
Continuous
 62
     7
370
    15
100
AcDbPolyline
 90
       21
 70
   128
 43
0.0
 10
479.6991642045
 20
366.0664663862
 10
479.9715648817
 20
370.165537412
 10
480.2312772201
 20
374.0486533593
 10
480.4748739527
 20
377.7061731766
 10
480.6962381528
 20
381.0263903092
 10
480.8929930852
 20
383.9773790191
 10
481.0651462005
 20
386.5591244053
 10
481.2049116419
 20
388.6551515411
 10
481.3417564558
 20
390.7073618125
 10
481.5164353178
 20
393.3271051596
 10
481.730319135
 20
396.5349973391
 10
481.9834079073
 20
400.3310383509
 10
482.3622326778
 20
406.0129926752
 10
482.8045736478
 20
412.6476601909
 10
483.3104233669
 20
420.2350185465
 10
483.8797818349
 20
428.7750826429
 10
484.5126565026
 20
438.2678673815
 10
485.1960461067
 20
448.5184655737
 10
485.940701835
 20
459.6880332779
 10
486.7466236876
 20
471.7766002964
 10
487.5570903944
 20
483.933399732
  0
LINE
  5
3A
330
1F
100
AcDbEntity
  8
0
  6
Continuous
 62
     7
370
    15
100
AcDbLine
 10
324.8368720935
 20
263.5664626237
 30
0.0
 11
325.4015143441
 21
263.5664626237
 31
0.0
  0
LINE
  5
3B
330
1F
100
AcDbEntity
  8
0
  6
Continuous
 62
     7
370
    15
100
AcDbLine
 10
325.4015143441
 20
288.5664629962
 30
0.0
 11
324.8368720935
 21
288.5664629962
 31
0.0
  0
LINE
  5
3C
330
1F
100
AcDbEntity
  8
0
  6
Continuous
 62
     7
370
    15
100
AcDbLine
 10
421.661458485
 20
288.5664629962
 30
0.0
 11
421.0968162344
 21
288.5664629962
 31
0.0
  0
LINE
  5
3D
330
1F
100
AcDbEntity
  8
0
  6
Continuous
 62
     7
370
    15
100
AcDbLine
 10
421.0968162344
 20
263.5664626237
 30
0.0
 11
421.661458485
 21
263.5664626237
 31
0.0
  0
LINE
  5
3E
330
1F
100
AcDbEntity
  8
0
  6
Continuous
 62
     7
370
    15
100
AcDbLine
 10
467.6991622375
 20
263.5664626237
 30
0.0
 11
477.6991676019
 21
263.5664626237
 31
0.0
  0
LINE
  5
3F
330
1F
100
AcDbEntity
  8
0
  6
Continuous
 62
     7
370
    15
100
AcDbLine
 10
288.2491643952
 20
284.0664631899
 30
0.0
 11
285.2991666125
 21
284.0664631899
 31
0.0
  0
LINE
  5
40
330
1F
100
AcDbEntity
  8
0
  6
Continuous
 62
     7
370
    15
100
AcDbLine
 10
285.2991666125
 20
268.0664624299
 30
0.0
 11
288.2491643952
 21
268.0664624299
 31
0.0
  0
LINE
  5
41
330
1F
100
AcDbEntity
  8
0
  6
Continuous
 62
     7
370
    15
100
AcDbLine
 10
461.2491648124
 20
268.0664624299
 30
0.0
 11
467.6991622375
 21
268.0664624299
 31
0.0
  0
LINE
  5
42
330
1F
100
AcDbEntity
  8
0
  6
Continuous
 62
     7
370
    15
100
AcDbLine
 10
467.6991622375
 20
284.0664631899
 30
0.0
 11
461.2491648124
 21
284.0664631899
 31
0.0
  0
LINE
  5
43
330
1F
100
AcDbEntity
  8
0
  6
Continuous
 62
     7
370
    15
100
AcDbLine
 10
457.1991633104
 20
330.0664642106
 30
0.0
 11
457.1991633104
 21
346.0664631079
 31
0.0
  0
LINE
  5
44
330
1F
100
AcDbEntity
  8
0
  6
Continuous
 62
     7
370
    15
100
AcDbLine
 10
449.1991619991
 20
346.0664631079
 30
0.0
 11
449.1991619991
 21
330.0664642106
 31
0.0
  0
LINE
  5
45
330
1F
100
AcDbEntity
  8
0
  6
Continuous
 62
     7
370
    15
100
AcDbLine
 10
467.6991622375
 20
360.0664616774
 30
0.0
 11
463.1991680191
 21
360.0664616774
 31
0.0
  0
LINE
  5
46
330
1F
100
AcDbEntity
  8
0
  6
Continuous
 62
     7
370
    15
100
AcDbLine
 10
463.1991680191
 20
352.0664603661
 30
0.0
 11
467.6991622375
 21
352.0664603661
 31
0.0
  0
LINE
  5
47
330
1F
100
AcDbEntity
  8
0
  6
Continuous
 62
     7
370
    15
100
AcDbLine
 10
449.1991619991
 20
330.0664642106
 30
0.0
 11
451.1991660522
 21
328.0664638828
 31
0.0
  0
LINE
  5
48
330
1F
100
AcDbEntity
  8
0
  6
Continuous
 62
     7
370
    15
100
AcDbLine
 10
455.1991667078
 20
328.0664638828
 30
0.0
 11
457.1991633104
 21
330.0664642106
 31
0.0
  0
ARC
  5
49
330
1F
100
AcDbEntity
  8
0
  6
Continuous
 62
     7
370
    15
100
AcDbCircle
 10
463.1991652893
 20
346.0664628099
 30
0.0
 40
6.0
100
AcDbArc
 50
90.0
 51
180.0
  0
ARC
  5
4A
330
1F
100
AcDbEntity
  8
0
  6
Continuous
 62
     7
370
    15
100
AcDbCircle
 10
463.1991652893
 20
346.0664628099
 30
0.0
 40
14.0
100
AcDbArc
 50
90.0
 51
180.0
  0
ARC
  5
4B
330
1F
100
AcDbEntity
  8
0
  6
Continuous
 62
     7
370
    15
100
AcDbCircle
 10
457.317997643
 20
338.0646656073
 30
0.0
 40
10.12695189692992
100
AcDbArc
 50
162.5214440331
 51
197.5480351018
  0
LWPOLYLINE
  5
4C
330
1F
100
AcDbEntity
  8
0
  6
Continuous
 62
     7
370
    15
100
AcDbPolyline
 90
        3
 70
   128
 43
0.0
 10
461.2360219882
 20
335.0113363217
 10
461.5765731262
 20
336.535073186
 10
461.6986955927
 20
337.6169310163
  0
LINE
  5
4D
330
1F
100
AcDbEntity
  8
0
  6
Continuous
 62
     7
370
    15
100
AcDbLine
 10
461.431048386
 20
340.2483419727
 30
0.0
 11
461.2397174762
 21
341.106283779
 31
0.0
  0
LINE
  5
4E
330
1F
100
AcDbEntity
  8
0
  6
Continuous
 62
     7
370
    15
100
AcDbLine
 10
461.2493212746
 20
341.0664604257
 30
0.0
 11
461.2491648124
 21
341.0664604257
 31
0.0
  0
LINE
  5
4F
330
1F
100
AcDbEntity
  8
0
  6
Continuous
 62
     7
370
    15
100
AcDbLine
 10
458.2491661833
 20
341.0664604257
 30
0.0
 11
457.1991633104
 21
341.0664604257
 31
0.0
  0
LINE
  5
50
330
1F
100
AcDbEntity
  8
0
  6
Continuous
 62
     7
370
    15
100
AcDbLine
 10
449.1991619991
 20
341.0664604257
 30
0.0
 11
447.6490091012
 21
341.0664604257
 31
0.0
  0
LINE
  5
51
330
1F
100
AcDbEntity
  8
0
  6
Continuous
 62
     7
370
    15
100
AcDbLine
 10
447.6490091012
 20
335.0664631675
 30
0.0
 11
449.1991619991
 21
335.0664631675
 31
0.0
  0
LINE
  5
52
330
1F
100
AcDbEntity
  8
0
  6
Continuous
 62
     7
370
    15
100
AcDbLine
 10
457.1991633104
 20
335.0664631675
 30
0.0
 11
458.2491661833
 21
335.0664631675
 31
0.0
  0
LINE
  5
53
330
1F
100
AcDbEntity
  8
0
  6
Continuous
 62
     7
370
    15
100
AcDbLine
 10
461.2491648124
 20
335.0664631675
 30
0.0
 11
461.2493212746
 21
335.0664631675
 31
0.0
  0
ARC
  5
54
330
1F
100
AcDbEntity
  8
0
  6
Continuous
 62
     7
370
    15
100
AcDbCircle
 10
464.5491652893
 20
248.5609093105
 30
0.0
 40
2.0
100
AcDbArc
 50
304.3297726759
 51
0.0
  0
ARC
  5
55
330
1F
100
AcDbEntity
  8
0
  6
Continuous
 62
     7
370
    15
100
AcDbCircle
 10
464.5491652893
 20
259.5720163094
 30
0.0
 40
2.000000000000018
100
AcDbArc
 50
0.0
 51
55.5529438572
  0
LWPOLYLINE
  5
56
330
1F
100
AcDbEntity
  8
0
  6
Continuous
 62
     7
370
    15
100
AcDbPolyline
 90
        3
 70
   128
 43
0.0
 10
465.2160625385
 20
261.4575543653
 10
464.8327599691
 20
261.5518079351
 10
464.4256453441
 20
261.5681982811
  0
LINE
  5
57
330
1F
100
AcDbEntity
  8
0
  6
Continuous
 62
     7
370
    15
100
AcDbLine
 10
461.2491648124
 20
247.566462795
 30
0.0
 11
461.6491641329
 21
247.566462795
 31
0.0
  0
LINE
  5
58
330
1F
100
AcDbEntity
  8
0
  6
Continuous
 62
     7
370
    15
100
AcDbLine
 10
461.6491641329
 20
260.5664630632
 30
0.0
 11
461.2491648124
 21
260.5664630632
 31
0.0
  0
ARC
  5
59
330
1F
100
AcDbEntity
  8
0
  6
Continuous
 62
     7
370
    15
100
AcDbCircle
 10
464.5491652893
 20
292.5609093105
 30
0.0
 40
2.0
100
AcDbArc
 50
304.3297726759
 51
0.0
  0
ARC
  5
5A
330
1F
100
AcDbEntity
  8
0
  6
Continuous
 62
     7
370
    15
100
AcDbCircle
 10
464.5491652893
 20
303.5720163094
 30
0.0
 40
2.0
100
AcDbArc
 50
0.0
 51
55.5529438571
  0
LWPOLYLINE
  5
5B
330
1F
100
AcDbEntity
  8
0
  6
Continuous
 62
     7
370
    15
100
AcDbPolyline
 90
        3
 70
   128
 43
0.0
 10
465.2160625385
 20
305.4575541269
 10
464.8327599691
 20
305.5518076967
 10
464.4256453441
 20
305.568198974
  0
LINE
  5
5C
330
1F
100
AcDbEntity
  8
0
  6
Continuous
 62
     7
370
    15
100
AcDbLine
 10
461.2491648124
 20
291.5664625566
 30
0.0
 11
461.6491641329
 21
291.5664625566
 31
0.0
  0
LINE
  5
5D
330
1F
100
AcDbEntity
  8
0
  6
Continuous
 62
     7
370
    15
100
AcDbLine
 10
461.6491641329
 20
304.5664628248
 30
0.0
 11
461.2491648124
 21
304.5664628248
 31
0.0
  0
ARC
  5
5E
330
1F
100
AcDbEntity
  8
0
  6
Continuous
 62
     7
370
    15
100
AcDbCircle
 10
454.2176272597
 20
339.0664628099
 30
0.0
 40
64.0315380295994
100
AcDbArc
 50
340.0
 51
0.0
  0
ARC
  5
5F
330
1F
100
AcDbEntity
  8
0
  6
Continuous
 62
     7
370
    15
100
AcDbCircle
 10
454.2176272597
 20
339.0664628099
 30
0.0
 40
64.03153802959947
100
AcDbArc
 50
0.0
 51
16.81898908
  0
ARC
  5
60
330
1F
100
AcDbEntity
  8
0
  6
Continuous
 62
     7
370
    15
100
AcDbCircle
 10
506.3816172407
 20
358.5895650644
 30
0.0
 40
1.140888723102992
100
AcDbArc
 50
153.7545265209
 51
187.994734408
  0
LWPOLYLINE
  5
61
330
1F
100
AcDbEntity
  8
0
  6
Continuous
 62
     7
370
    15
100
AcDbPolyline
 90
       14
 70
   128
 43
0.0
 10
514.322302811
 20
359.6139730166
 10
514.3147628234
 20
359.6310124944
 10
513.7974839138
 20
360.2682681035
 10
513.1671051906
 20
360.7644693207
 10
512.4160866664
 20
361.1632020425
 10
511.4895473646
 20
361.4713133525
 10
510.4791741298
 20
361.6327897857
 10
509.4596068786
 20
361.63438421
 10
508.4730456995
 20
361.4815877031
 10
507.5615565704
 20
361.1870886039
 10
506.7789773868
 20
360.7807041358
 10
506.138093345
 20
360.282506163
 10
505.6552212165
 20
359.7086251925
 10
505.3583453821
 20
359.0940864037
  0
LINE
  5
62
330
1F
100
AcDbEntity
  8
0
  6
Continuous
 62
     7
370
    15
100
AcDbLine
 10
505.249164574
 20
349.5664627503
 30
0.0
 11
486.2491633223
 21
349.5664627503
 31
0.0
  0
LINE
  5
63
330
1F
100
AcDbEntity
  8
0
  6
Continuous
 62
     7
370
    15
100
AcDbLine
 10
486.2491633223
 20
328.5664611708
 30
0.0
 11
505.249164574
 21
328.5664611708
 31
0.0
  0
ARC
  5
64
330
1F
100
AcDbEntity
  8
0
  6
Continuous
 62
     7
370
    15
100
AcDbCircle
 10
266.1662848408
 20
210.6472272767
 30
0.0
 40
289.4369119704754
100
AcDbArc
 50
30.5426141925
 51
30.9790296307
  0
ARC
  5
65
330
1F
100
AcDbEntity
  8
0
  6
Continuous
 62
     7
370
    15
100
AcDbCircle
 10
513.284507422
 20
356.6831370231
 30
0.0
 40
2.402342944451893
100
AcDbArc
 50
22.2912496174
 51
35.5019693233
  0
LINE
  5
66
330
1F
100
AcDbEntity
  8
0
  6
Continuous
 62
     7
370
    15
100
AcDbLine
 10
482.2491626667
 20
344.0664665054
 30
0.0
 11
481.7803572343
 21
343.254464979
 31
0.0
  0
LINE
  5
67
330
1F
100
AcDbEntity
  8
0
  6
Continuous
 62
     7
370
    15
100
AcDbLine
 10
481.7803572343
 20
334.8784626673
 30
0.0
 11
482.2491626667
 21
334.066461141
 31
0.0
  0
LINE
  5
68
330
1F
100
AcDbEntity
  8
0
  6
Continuous
 62
     7
370
    15
100
AcDbLine
 10
478.9420436548
 20
334.066461141
 30
0.0
 11
479.4108490871
 21
334.8784626673
 31
0.0
  0
LINE
  5
69
330
1F
100
AcDbEntity
  8
0
  6
Continuous
 62
     7
370
    15
100
AcDbLine
 10
479.4108490871
 20
343.254464979
 30
0.0
 11
478.9420436548
 21
344.0664665054
 31
0.0
  0
LINE
  5
6A
330
1F
100
AcDbEntity
  8
0
  6
Continuous
 62
     7
370
    15
100
AcDbLine
 10
480.2491660641
 20
344.0664665054
 30
0.0
 11
479.7803531812
 21
343.254464979
 31
0.0
  0
LINE
  5
6B
330
1F
100
AcDbEntity
  8
0
  6
Continuous
 62
     7
370
    15
100
AcDbLine
 10
479.7803531812
 20
334.8784626673
 30
0.0
 11
480.2491660641
 21
334.066461141
 31
0.0
  0
LINE
  5
6C
330
1F
100
AcDbEntity
  8
0
  6
Continuous
 62
     7
370
    15
100
AcDbLine
 10
482.9420443104
 20
334.066461141
 30
0.0
 11
483.4108497427
 21
334.8784626673
 31
0.0
  0
LINE
  5
6D
330
1F
100
AcDbEntity
  8
0
  6
Continuous
 62
     7
370
    15
100
AcDbLine
 10
483.4108497427
 20
343.254464979
 30
0.0
 11
482.9420443104
 21
344.0664665054
 31
0.0
  0
LINE
  5
6E
330
1F
100
AcDbEntity
  8
0
  6
Continuous
 62
     7
370
    15
100
AcDbLine
 10
484.2491667198
 20
344.0664665054
 30
0.0
 11
483.7803538369
 21
343.254464979
 31
0.0
  0
LINE
  5
6F
330
1F
100
AcDbEntity
  8
0
  6
Continuous
 62
     7
370
    15
100
AcDbLine
 10
483.7803538369
 20
334.8784626673
 30
0.0
 11
484.2491667198
 21
334.066461141
 31
0.0
  0
LINE
  5
70
330
1F
100
AcDbEntity
  8
0
  6
Continuous
 62
     7
370
    15
100
AcDbLine
 10
484.942040913
 20
334.066461141
 30
0.0
 11
485.4108537959
 21
334.8784626673
 31
0.0
  0
LINE
  5
71
330
1F
100
AcDbEntity
  8
0
  6
Continuous
 62
     7
370
    15
100
AcDbLine
 10
485.4108537959
 20
343.254464979
 30
0.0
 11
484.942040913
 21
344.0664665054
 31
0.0
  0
LINE
  5
72
330
1F
100
AcDbEntity
  8
0
  6
Continuous
 62
     7
370
    15
100
AcDbLine
 10
480.9420477079
 20
344.0664665054
 30
0.0
 11
480.2491660641
 21
344.0664665054
 31
0.0
  0
LINE
  5
73
330
1F
100
AcDbEntity
  8
0
  6
Continuous
 62
     7
370
    15
100
AcDbLine
 10
480.2491660641
 20
334.066461141
 30
0.0
 11
480.9420477079
 21
334.066461141
 31
0.0
  0
LINE
  5
74
330
1F
100
AcDbEntity
  8
0
  6
Continuous
 62
     7
370
    15
100
AcDbLine
 10
482.9420443104
 20
344.0664665054
 30
0.0
 11
482.2491626667
 21
344.0664665054
 31
0.0
  0
LINE
  5
75
330
1F
100
AcDbEntity
  8
0
  6
Continuous
 62
     7
370
    15
100
AcDbLine
 10
482.2491626667
 20
334.066461141
 30
0.0
 11
482.9420443104
 21
334.066461141
 31
0.0
  0
LINE
  5
76
330
1F
100
AcDbEntity
  8
0
  6
Continuous
 62
     7
370
    15
100
AcDbLine
 10
478.9420436548
 20
344.0664665054
 30
0.0
 11
478.249162011
 21
344.0664665054
 31
0.0
  0
LINE
  5
77
330
1F
100
AcDbEntity
  8
0
  6
Continuous
 62
     7
370
    15
100
AcDbLine
 10
478.249162011
 20
334.066461141
 30
0.0
 11
478.9420436548
 21
334.066461141
 31
0.0
  0
LINE
  5
78
330
1F
100
AcDbEntity
  8
0
  6
Continuous
 62
     7
370
    15
100
AcDbLine
 10
478.249162011
 20
344.0664665054
 30
0.0
 11
477.7803565787
 21
343.254464979
 31
0.0
  0
LINE
  5
79
330
1F
100
AcDbEntity
  8
0
  6
Continuous
 62
     7
370
    15
100
AcDbLine
 10
477.7803565787
 20
334.8784626673
 30
0.0
 11
478.249162011
 21
334.066461141
 31
0.0
  0
LINE
  5
7A
330
1F
100
AcDbEntity
  8
0
  6
Continuous
 62
     7
370
    15
100
AcDbLine
 10
484.942040913
 20
344.0664665054
 30
0.0
 11
484.2491667198
 21
344.0664665054
 31
0.0
  0
LINE
  5
7B
330
1F
100
AcDbEntity
  8
0
  6
Continuous
 62
     7
370
    15
100
AcDbLine
 10
484.2491667198
 20
334.066461141
 30
0.0
 11
484.942040913
 21
334.066461141
 31
0.0
  0
LINE
  5
7C
330
1F
100
AcDbEntity
  8
0
  6
Continuous
 62
     7
370
    15
100
AcDbLine
 10
480.9420477079
 20
334.066461141
 30
0.0
 11
481.4108531402
 21
334.8784626673
 31
0.0
  0
LINE
  5
7D
330
1F
100
AcDbEntity
  8
0
  6
Continuous
 62
     7
370
    15
100
AcDbLine
 10
481.4108531402
 20
343.254464979
 30
0.0
 11
480.9420477079
 21
344.0664665054
 31
0.0
  0
LINE
  5
7E
330
1F
100
AcDbEntity
  8
0
  6
Continuous
 62
     7
370
    15
100
AcDbLine
 10
486.2491633223
 20
344.0664665054
 30
0.0
 11
485.78035789
 21
343.254464979
 31
0.0
  0
LINE
  5
7F
330
1F
100
AcDbEntity
  8
0
  6
Continuous
 62
     7
370
    15
100
AcDbLine
 10
485.78035789
 20
334.8784626673
 30
0.0
 11
486.2491633223
 21
334.066461141
 31
0.0
  0
LINE
  5
80
330
1F
100
AcDbEntity
  8
0
  6
Continuous
 62
     7
370
    15
100
AcDbLine
 10
466.9420416878
 20
344.0664665054
 30
0.0
 11
466.2491674946
 21
344.0664665054
 31
0.0
  0
LINE
  5
81
330
1F
100
AcDbEntity
  8
0
  6
Continuous
 62
     7
370
    15
100
AcDbLine
 10
466.2491674946
 20
334.066461141
 30
0.0
 11
466.9420416878
 21
334.066461141
 31
0.0
  0
LINE
  5
82
330
1F
100
AcDbEntity
  8
0
  6
Continuous
 62
     7
370
    15
100
AcDbLine
 10
466.2491674946
 20
344.0664665054
 30
0.0
 11
465.7803546117
 21
343.254464979
 31
0.0
  0
LINE
  5
83
330
1F
100
AcDbEntity
  8
0
  6
Continuous
 62
     7
370
    15
100
AcDbLine
 10
465.7803546117
 20
334.8784626673
 30
0.0
 11
466.2491674946
 21
334.066461141
 31
0.0
  0
LINE
  5
84
330
1F
100
AcDbEntity
  8
0
  6
Continuous
 62
     7
370
    15
100
AcDbLine
 10
466.9420416878
 20
334.066461141
 30
0.0
 11
467.4108545707
 21
334.8784626673
 31
0.0
  0
LINE
  5
85
330
1F
100
AcDbEntity
  8
0
  6
Continuous
 62
     7
370
    15
100
AcDbLine
 10
467.4108545707
 20
343.254464979
 30
0.0
 11
466.9420416878
 21
344.0664665054
 31
0.0
  0
LINE
  5
86
330
1F
100
AcDbEntity
  8
0
  6
Continuous
 62
     7
370
    15
100
AcDbLine
 10
465.0544594453
 20
334.261170889
 30
0.0
 11
465.4108505176
 21
334.8784626673
 31
0.0
  0
LINE
  5
87
330
1F
100
AcDbEntity
  8
0
  6
Continuous
 62
     7
370
    15
100
AcDbLine
 10
465.4108505176
 20
343.254464979
 30
0.0
 11
465.0544594453
 21
343.8717530321
 31
0.0
  0
LINE
  5
88
330
1F
100
AcDbEntity
  8
0
  6
Continuous
 62
     7
370
    15
100
AcDbLine
 10
465.0544594453
 20
343.8717530321
 30
0.0
 11
461.2491648124
 21
340.0664658498
 31
0.0
  0
LINE
  5
89
330
1F
100
AcDbEntity
  8
0
  6
Continuous
 62
     7
370
    15
100
AcDbLine
 10
461.2491648124
 20
338.0664617966
 30
0.0
 11
465.0544594453
 21
334.261170889
 31
0.0
  0
LINE
  5
8A
330
1F
100
AcDbEntity
  8
0
  6
Continuous
 62
     7
370
    15
100
AcDbLine
 10
481.7803572343
 20
343.254464979
 30
0.0
 11
481.4108531402
 21
343.254464979
 31
0.0
  0
LINE
  5
8B
330
1F
100
AcDbEntity
  8
0
  6
Continuous
 62
     7
370
    15
100
AcDbLine
 10
481.4108531402
 20
334.8784626673
 30
0.0
 11
481.7803572343
 21
334.8784626673
 31
0.0
  0
LINE
  5
8C
330
1F
100
AcDbEntity
  8
0
  6
Continuous
 62
     7
370
    15
100
AcDbLine
 10
479.7803531812
 20
343.254464979
 30
0.0
 11
479.4108490871
 21
343.254464979
 31
0.0
  0
LINE
  5
8D
330
1F
100
AcDbEntity
  8
0
  6
Continuous
 62
     7
370
    15
100
AcDbLine
 10
479.4108490871
 20
334.8784626673
 30
0.0
 11
479.7803531812
 21
334.8784626673
 31
0.0
  0
LINE
  5
8E
330
1F
100
AcDbEntity
  8
0
  6
Continuous
 62
     7
370
    15
100
AcDbLine
 10
483.7803538369
 20
343.254464979
 30
0.0
 11
483.4108497427
 21
343.254464979
 31
0.0
  0
LINE
  5
8F
330
1F
100
AcDbEntity
  8
0
  6
Continuous
 62
     7
370
    15
100
AcDbLine
 10
483.4108497427
 20
334.8784626673
 30
0.0
 11
483.7803538369
 21
334.8784626673
 31
0.0
  0
LINE
  5
90
330
1F
100
AcDbEntity
  8
0
  6
Continuous
 62
     7
370
    15
100
AcDbLine
 10
485.78035789
 20
343.254464979
 30
0.0
 11
485.4108537959
 21
343.254464979
 31
0.0
  0
LINE
  5
91
330
1F
100
AcDbEntity
  8
0
  6
Continuous
 62
     7
370
    15
100
AcDbLine
 10
485.4108537959
 20
334.8784626673
 30
0.0
 11
485.78035789
 21
334.8784626673
 31
0.0
  0
LINE
  5
92
330
1F
100
AcDbEntity
  8
0
  6
Continuous
 62
     7
370
    15
100
AcDbLine
 10
477.7803565787
 20
343.254464979
 30
0.0
 11
477.6991676019
 21
343.254464979
 31
0.0
  0
LINE
  5
93
330
1F
100
AcDbEntity
  8
0
  6
Continuous
 62
     7
370
    15
100
AcDbLine
 10
477.6991676019
 20
334.8784626673
 30
0.0
 11
477.7803565787
 21
334.8784626673
 31
0.0
  0
LINE
  5
94
330
1F
100
AcDbEntity
  8
0
  6
Continuous
 62
     7
370
    15
100
AcDbLine
 10
467.6991622375
 20
343.254464979
 30
0.0
 11
467.4108545707
 21
343.254464979
 31
0.0
  0
LINE
  5
95
330
1F
100
AcDbEntity
  8
0
  6
Continuous
 62
     7
370
    15
100
AcDbLine
 10
467.4108545707
 20
334.8784626673
 30
0.0
 11
467.6991622375
 21
334.8784626673
 31
0.0
  0
LINE
  5
96
330
1F
100
AcDbEntity
  8
0
  6
Continuous
 62
     7
370
    15
100
AcDbLine
 10
465.7803546117
 20
343.254464979
 30
0.0
 11
465.4108505176
 21
343.254464979
 31
0.0
  0
LINE
  5
97
330
1F
100
AcDbEntity
  8
0
  6
Continuous
 62
     7
370
    15
100
AcDbLine
 10
465.4108505176
 20
334.8784626673
 30
0.0
 11
465.7803546117
 21
334.8784626673
 31
0.0
  0
ARC
  5
98
330
1F
100
AcDbEntity
  8
0
  6
Continuous
 62
     7
370
    15
100
AcDbCircle
 10
509.9604404967
 20
318.7777380174
 30
0.0
 40
4.711275207452521
100
AcDbArc
 50
255.1810072227
 51
255.506233997
  0
LWPOLYLINE
  5
99
330
1F
100
AcDbEntity
  8
0
  6
Continuous
 62
     7
370
    15
100
AcDbPolyline
 90
        3
 70
   128
 43
0.0
 10
505.249164574
 20
318.7777393709
 10
505.3123902009
 20
318.0084557484
 10
505.3734551595
 20
317.7027099978
  0
LINE
  5
9A
330
1F
100
AcDbEntity
  8
0
  6
Continuous
 62
     7
370
    15
100
AcDbLine
 10
508.3002220319
 20
314.3686794888
 30
0.0
 11
508.7554525064
 21
314.2231659244
 31
0.0
  0
LINE
  5
9B
330
1F
100
AcDbEntity
  8
0
  6
Continuous
 62
     7
370
    15
100
AcDbLine
 10
511.299244635
 20
314.2606907736
 30
0.0
 11
511.6251181291
 21
314.3703595947
 31
0.0
  0
LINE
  5
9C
330
1F
100
AcDbEntity
  8
0
  6
Continuous
 62
     7
370
    15
100
AcDbLine
 10
514.1977142023
 20
316.7182163547
 30
0.0
 11
514.3875847982
 21
317.1663874041
 31
0.0
  0
ARC
  5
9D
330
1F
100
AcDbEntity
  8
0
  6
Continuous
 62
     7
370
    15
100
AcDbCircle
 10
509.9604404967
 20
318.7777380174
 30
0.0
 40
4.711275207452546
100
AcDbArc
 50
282.4260628537
 51
286.5092184555
  0
LINE
  5
9E
330
1F
100
AcDbEntity
  8
0
  6
Continuous
 62
     7
370
    15
100
AcDbLine
 10
461.2491648124
 20
346.0664631079
 30
0.0
 11
458.2491661833
 21
346.0664631079
 31
0.0
  0
LINE
  5
9F
330
1F
100
AcDbEntity
  8
0
  6
Continuous
 62
     7
370
    15
100
AcDbLine
 10
393.2491648422
 20
191.0664619158
 30
0.0
 11
393.2491648422
 21
191.5856928776
 31
0.0
  0
ARC
  5
A0
330
1F
100
AcDbEntity
  8
0
  6
Continuous
 62
     7
370
    15
100
AcDbCircle
 10
345.2491652893
 20
191.5856957679
 30
0.0
 40
8.000000000000007
100
AcDbArc
 50
0.0
 51
71.6629252192
  0
ARC
  5
A1
330
1F
100
AcDbEntity
  8
0
  6
Continuous
 62
     7
370
    15
100
AcDbCircle
 10
373.2491652893
 20
276.0664628099
 30
0.0
 40
81.00000000000003
100
AcDbArc
 50
199.0166373193
 51
251.6629252192
  0
ARC
  5
A2
330
1F
100
AcDbEntity
  8
0
  6
Continuous
 62
     7
370
    15
100
AcDbCircle
 10
289.1064294174
 20
247.0664628099
 30
0.0
 40
8.000000000000028
100
AcDbArc
 50
19.0166373193
 51
90.0
  0
ARC
  5
A3
330
1F
100
AcDbEntity
  8
0
  6
Continuous
 62
     7
370
    15
100
AcDbCircle
 10
289.1064294174
 20
305.0664628099
 30
0.0
 40
8.000000000000046
100
AcDbArc
 50
270.0
 51
340.9833626807
  0
ARC
  5
A4
330
1F
100
AcDbEntity
  8
0
  6
Continuous
 62
     7
370
    15
100
AcDbCircle
 10
452.7538821305
 20
236.0664628099
 30
0.0
 40
8.0
100
AcDbArc
 50
90.0
 51
153.2923546979
  0
CIRCLE
  5
A5
330
1F
100
AcDbEntity
  8
0
  6
Continuous
 62
     7
370
    15
100
AcDbCircle
 10
421.6859798005
 20
324.5032773212
 30
0.0
 40
4.0
  0
CIRCLE
  5
A6
330
1F
100
AcDbEntity
  8
0
  6
Continuous
 62
     7
370
    15
100
AcDbCircle
 10
421.6859798005
 20
227.6296482986
 30
0.0
 40
4.0
  0
CIRCLE
  5
A7
330
1F
100
AcDbEntity
  8
0
  6
Continuous
 62
     7
370
    15
100
AcDbCircle
 10
324.812350778
 20
227.6296482986
 30
0.0
 40
4.0
  0
ARC
  5
A8
330
1F
100
AcDbEntity
  8
0
  6
Continuous
 62
     7
370
    15
100
AcDbCircle
 10
401.2491652893
 20
360.5472298519
 30
0.0
 40
8.000000000000057
100
AcDbArc
 50
180.0
 51
251.6629252192
  0
CIRCLE
  5
A9
330
1F
100
AcDbEntity
  8
0
  6
Continuous
 62
     7
370
    15
100
AcDbCircle
 10
324.812350778
 20
324.5032773212
 30
0.0
 40
4.0
  0
LINE
  5
AA
330
1F
100
AcDbEntity
  8
0
  6
Continuous
 62
     7
370
    15
100
AcDbLine
 10
393.2491648422
 20
361.066463704
 30
0.0
 11
353.2491657363
 21
361.066463704
 31
0.0
  0
LINE
  5
AB
330
1F
100
AcDbEntity
  8
0
  6
Continuous
 62
     7
370
    15
100
AcDbLine
 10
353.2491657363
 20
191.5856928776
 30
0.0
 11
353.2491657363
 21
191.0664619158
 31
0.0
  0
ARC
  5
AC
330
1F
100
AcDbEntity
  8
0
  6
Continuous
 62
     7
370
    15
100
AcDbCircle
 10
373.2491652893
 20
276.0664628099
 30
0.0
 40
81.0
100
AcDbArc
 50
288.3370747808
 51
333.2923546979
  0
ARC
  5
AD
330
1F
100
AcDbEntity
  8
0
  6
Continuous
 62
     7
370
    15
100
AcDbCircle
 10
345.2491652893
 20
360.5472298519
 30
0.0
 40
8.0
100
AcDbArc
 50
288.3370747808
 51
0.0
  0
LINE
  5
AE
330
1F
100
AcDbEntity
  8
0
  6
Continuous
 62
     7
370
    15
100
AcDbLine
 10
288.2491643952
 20
255.066463093
 30
0.0
 11
289.1064281987
 21
255.066463093
 31
0.0
  0
ARC
  5
AF
330
1F
100
AcDbEntity
  8
0
  6
Continuous
 62
     7
370
    15
100
AcDbCircle
 10
401.2491652893
 20
191.5856957679
 30
0.0
 40
8.000000000000057
100
AcDbArc
 50
108.3370747808
 51
180.0
  0
LINE
  5
B0
330
1F
100
AcDbEntity
  8
0
  6
Continuous
 62
     7
370
    15
100
AcDbLine
 10
353.2491657363
 20
191.0664619158
 30
0.0
 11
393.2491648422
 21
191.0664619158
 31
0.0
  0
ARC
  5
B1
330
1F
100
AcDbEntity
  8
0
  6
Continuous
 62
     7
370
    15
100
AcDbCircle
 10
452.7538821305
 20
316.0664628099
 30
0.0
 40
8.0
100
AcDbArc
 50
206.7076453021
 51
270.0
  0
LINE
  5
B2
330
1F
100
AcDbEntity
  8
0
  6
Continuous
 62
     7
370
    15
100
AcDbLine
 10
353.2491657363
 20
361.066463704
 30
0.0
 11
353.2491657363
 21
360.5472327422
 31
0.0
  0
LINE
  5
B3
330
1F
100
AcDbEntity
  8
0
  6
Continuous
 62
     7
370
    15
100
AcDbLine
 10
452.7538787054
 20
244.06646129
 30
0.0
 11
458.2491661833
 21
244.06646129
 31
0.0
  0
LINE
  5
B4
330
1F
100
AcDbEntity
  8
0
  6
Continuous
 62
     7
370
    15
100
AcDbLine
 10
393.2491648422
 20
360.5472327422
 30
0.0
 11
393.2491648422
 21
361.066463704
 31
0.0
  0
LINE
  5
B5
330
1F
100
AcDbEntity
  8
0
  6
Continuous
 62
     7
370
    15
100
AcDbLine
 10
458.2491661833
 20
308.0664643298
 30
0.0
 11
452.7538787054
 21
308.0664643298
 31
0.0
  0
ARC
  5
B6
330
1F
100
AcDbEntity
  8
0
  6
Continuous
 62
     7
370
    15
100
AcDbCircle
 10
373.2491652893
 20
276.0664628099
 30
0.0
 40
81.0
100
AcDbArc
 50
108.3370747808
 51
160.9833626807
  0
LINE
  5
B7
330
1F
100
AcDbEntity
  8
0
  6
Continuous
 62
     7
370
    15
100
AcDbLine
 10
288.2491643952
 20
297.0664625268
 30
0.0
 11
288.2491643952
 21
255.066463093
 31
0.0
  0
ARC
  5
B8
330
1F
100
AcDbEntity
  8
0
  6
Continuous
 62
     7
370
    15
100
AcDbCircle
 10
373.2491652893
 20
276.0664628099
 30
0.0
 40
80.99999999999997
100
AcDbArc
 50
26.7076453021
 51
71.6629252192
  0
LINE
  5
B9
330
1F
100
AcDbEntity
  8
0
  6
Continuous
 62
     7
370
    15
100
AcDbLine
 10
289.1064281987
 20
297.0664625268
 30
0.0
 11
288.2491643952
 21
297.0664625268
 31
0.0
  0
CIRCLE
  5
BA
330
1F
100
AcDbEntity
  8
0
  6
Continuous
 62
     7
370
    15
100
AcDbCircle
 10
373.2491652893
 20
276.0664628099
 30
0.0
 40
50.49999999999994
  0
CIRCLE
  5
BB
330
1F
100
AcDbEntity
  8
0
  6
Continuous
 62
     7
370
    15
100
AcDbCircle
 10
373.2491652893
 20
276.0664628099
 30
0.0
 40
50.0
  0
CIRCLE
  5
BC
330
1F
100
AcDbEntity
  8
0
  6
Continuous
 62
     7
370
    15
100
AcDbCircle
 10
373.2491652893
 20
276.0664628099
 30
0.0
 40
77.0
  0
CIRCLE
  5
BD
330
1F
100
AcDbEntity
  8
0
  6
Continuous
 62
     7
370
    15
100
AcDbCircle
 10
421.6859798005
 20
324.5032773212
 30
0.0
 40
5.5
  0
CIRCLE
  5
BE
330
1F
100
AcDbEntity
  8
0
  6
Continuous
 62
     7
370
    15
100
AcDbCircle
 10
324.812350778
 20
324.5032773212
 30
0.0
 40
5.499999999999943
  0
CIRCLE
  5
BF
330
1F
100
AcDbEntity
  8
0
  6
Continuous
 62
     7
370
    15
100
AcDbCircle
 10
324.812350778
 20
227.6296482986
 30
0.0
 40
5.5
  0
CIRCLE
  5
C0
330
1F
100
AcDbEntity
  8
0
  6
Continuous
 62
     7
370
    15
100
AcDbCircle
 10
421.6859798005
 20
227.6296482986
 30
0.0
 40
5.5
  0
LINE
  5
C1
330
1F
100
AcDbEntity
  8
0
  6
Continuous
 62
     7
370
    15
100
AcDbLine
 10
283.2991625594
 20
256.6664622377
 30
0.0
 11
283.2991625594
 21
295.4664633821
 31
0.0
  0
LINE
  5
C2
330
1F
100
AcDbEntity
  8
0
  6
Continuous
 62
     7
370
    15
100
AcDbLine
 10
279.799162917
 20
295.4664633821
 30
0.0
 11
279.799162917
 21
256.6664622377
 31
0.0
  0
LINE
  5
C3
330
1F
100
AcDbEntity
  8
0
  6
Continuous
 62
     7
370
    15
100
AcDbLine
 10
275.7991622613
 20
260.6664628934
 30
0.0
 11
275.7991622613
 21
291.4664627265
 31
0.0
  0
LINE
  5
C4
330
1F
100
AcDbEntity
  8
0
  6
Continuous
 62
     7
370
    15
100
AcDbLine
 10
285.2991666125
 20
289.9664624806
 30
0.0
 11
285.2991666125
 21
262.1664631392
 31
0.0
  0
SPLINE
  5
C5
330
1F
100
AcDbEntity
  8
0
  6
Continuous
 62
     7
370
    15
100
AcDbSpline
210
0.0
220
0.0
230
1.0
 70
    24
 71
     3
 72
    55
 73
    51
 74
     0
 42
0.00000001
 43
0.00000001
 40
0.0
 40
0.0
 40
0.0
 40
0.0
 40
0.0624999999999978
 40
0.0624999999999978
 40
0.0937499999999967
 40
0.0937499999999967
 40
0.1249999999999957
 40
0.1562499999999946
 40
0.1562499999999946
 40
0.1874999999999935
 40
0.1874999999999935
 40
0.249999999999992
 40
0.249999999999992
 40
0.2812499999999915
 40
0.2812499999999915
 40
0.312499999999991
 40
0.312499999999991
 40
0.3749999999999892
 40
0.3749999999999892
 40
0.4062499999999888
 40
0.4062499999999888
 40
0.4374999999999884
 40
0.4374999999999884
 40
0.4999999999999886
 40
0.4999999999999886
 40
0.5312499999999891
 40
0.5312499999999891
 40
0.5624999999999897
 40
0.5624999999999897
 40
0.5937499999999903
 40
0.5937499999999903
 40
0.6249999999999909
 40
0.6249999999999909
 40
0.6874999999999921
 40
0.6874999999999921
 40
0.7187499999999931
 40
0.7187499999999931
 40
0.7499999999999941
 40
0.7499999999999941
 40
0.8124999999999957
 40
0.8124999999999957
 40
0.8437499999999963
 40
0.8437499999999963
 40
0.874999999999997
 40
0.874999999999997
 40
0.9062499999999977
 40
0.9062499999999977
 40
0.9374999999999984
 40
0.9374999999999984
 40
1.0
 40
1.0
 40
1.0
 40
1.0
 10
459.836807760734
 20
486.066462809917
 30
0.0
 10
459.8368026212734
 20
486.0664628099169
 30
0.0
 10
459.9195140555825
 20
486.0664628099171
 30
0.0
 10
460.16504725841
 20
486.0664628099171
 30
0.0
 10
460.2678662433551
 20
486.066462809917
 30
0.0
 10
460.5110699506241
 20
486.066462809917
 30
0.0
 10
460.7921611402095
 20
486.0664628099169
 30
0.0
 10
461.1471753198154
 20
486.0664628099169
 30
0.0
 10
461.5398270738439
 20
486.066462809917
 30
0.0
 10
461.7556881719589
 20
486.066462809917
 30
0.0
 10
462.4578735780977
 20
486.066462809917
 30
0.0
 10
462.9872437578795
 20
486.066462809917
 30
0.0
 10
463.8710946734883
 20
486.066462809917
 30
0.0
 10
464.1807881329955
 20
486.066462809917
 30
0.0
 10
464.8308201196849
 20
486.0664628099169
 30
0.0
 10
465.1719706399219
 20
486.066462809917
 30
0.0
 10
466.2193585270462
 20
486.066462809917
 30
0.0
 10
466.9547842511226
 20
486.066462809917
 30
0.0
 10
468.1206208189701
 20
486.0664628099169
 30
0.0
 10
468.5217566130731
 20
486.066462809917
 30
0.0
 10
469.3389428098684
 20
486.066462809917
 30
0.0
 10
469.750725277498
 20
486.066462809917
 30
0.0
 10
470.9943872594993
 20
486.066462809917
 30
0.0
 10
471.8349316113197
 20
486.066462809917
 30
0.0
 10
473.1133956455043
 20
486.066462809917
 30
0.0
 10
473.539646260698
 20
486.066462809917
 30
0.0
 10
474.3814389026925
 20
486.0664628099171
 30
0.0
 10
474.7986360170585
 20
486.066462809917
 30
0.0
 10
475.625754926509
 20
486.0664628099169
 30
0.0
 10
476.0358000604091
 20
486.066462809917
 30
0.0
 10
476.8479705037417
 20
486.066462809917
 30
0.0
 10
477.2524629496752
 20
486.066462809917
 30
0.0
 10
478.4279958167735
 20
486.0664628099169
 30
0.0
 10
479.1651174581925
 20
486.066462809917
 30
0.0
 10
480.2108155718097
 20
486.066462809917
 30
0.0
 10
480.5489115518062
 20
486.066462809917
 30
0.0
 10
481.2035847099609
 20
486.066462809917
 30
0.0
 10
481.5161814841188
 20
486.0664628099169
 30
0.0
 10
482.4047034693677
 20
486.0664628099167
 30
0.0
 10
482.9345230608105
 20
486.066462809917
 30
0.0
 10
483.6354327540423
 20
486.066462809917
 30
0.0
 10
483.8535043035764
 20
486.066462809917
 30
0.0
 10
484.2482884728158
 20
486.066462809917
 30
0.0
 10
484.4264152948149
 20
486.0664628099169
 30
0.0
 10
484.7451657243121
 20
486.0664628099169
 30
0.0
 10
484.8857864263647
 20
486.066462809917
 30
0.0
 10
485.128915914526
 20
486.066462809917
 30
0.0
 10
485.2315258813437
 20
486.066462809917
 30
0.0
 10
485.4786342312688
 20
486.066462809917
 30
0.0
 10
485.5615273622754
 20
486.0664628099169
 30
0.0
 10
485.5615228178305
 20
486.066462809917
 30
0.0
  0
LINE
  5
C6
330
1F
100
AcDbEntity
  8
0
  6
Continuous
 62
     7
370
    15
100
AcDbLine
 10
465.699165635
 20
366.0664663862
 30
0.0
 11
468.6991642641
 21
366.0664663862
 31
0.0
  0
LWPOLYLINE
  5
C7
330
1F
100
AcDbEntity
  8
0
  6
Continuous
 62
     7
370
    15
100
AcDbPolyline
 90
        2
 70
   128
 43
0.0
 10
465.699165635
 20
366.0664663862
 10
465.699165635
 20
366.0664663862
  0
LWPOLYLINE
  5
C8
330
1F
100
AcDbEntity
  8
0
  6
Continuous
 62
     7
370
    15
100
AcDbPolyline
 90
        2
 70
   128
 43
0.0
 10
479.6991642045
 20
366.0664663862
 10
479.6991642045
 20
366.0664663862
  0
LINE
  5
C9
330
1F
100
AcDbEntity
  8
0
  6
Continuous
 62
     7
370
    15
100
AcDbLine
 10
476.6991655754
 20
366.0664663862
 30
0.0
 11
479.6991642045
 21
366.0664663862
 31
0.0
  0
LINE
  5
CA
330
1F
100
AcDbEntity
  8
0
  6
Continuous
 62
     7
370
    15
100
AcDbLine
 10
468.6991642641
 20
366.0664663862
 30
0.0
 11
476.6991655754
 21
366.0664663862
 31
0.0
  0
SPLINE
  5
CB
330
1F
100
AcDbEntity
  8
0
  6
Continuous
 62
     7
370
    15
100
AcDbSpline
210
0.0
220
0.0
230
1.0
 70
     8
 71
     3
 72
    14
 73
    10
 74
     0
 42
0.00000001
 43
0.00000001
 40
0.0
 40
0.0
 40
0.0
 40
0.0
 40
0.25
 40
0.25
 40
0.5
 40
0.5
 40
0.75
 40
0.75
 40
1.0
 40
1.0
 40
1.0
 40
1.0
 10
325.3331871735869
 20
288.2878187583655
 30
0.0
 10
325.3048162595177
 20
288.1765855937811
 30
0.0
 10
325.3565231038256
 20
288.033918476344
 30
0.0
 10
325.5720834563378
 20
287.6914294307269
 30
0.0
 10
325.7325344850928
 20
287.4974061429349
 30
0.0
 10
326.1218799395104
 20
287.0694605596232
 30
0.0
 10
326.3527206664469
 20
286.8342041603158
 30
0.0
 10
326.8497596568502
 20
286.3338174466974
 30
0.0
 10
327.117514272423
 20
286.0672422449615
 30
0.0
 10
327.3901804943467
 20
285.7851526443939
 30
0.0
  0
LINE
  5
CC
330
1F
100
AcDbEntity
  8
0
  6
Continuous
 62
     7
370
    15
100
AcDbLine
 10
345.799164422
 20
285.7851528774
 30
0.0
 11
327.3901823388
 21
285.7851528774
 31
0.0
  0
SPLINE
  5
CD
330
1F
100
AcDbEntity
  8
0
  6
Continuous
 62
     7
370
    15
100
AcDbSpline
210
0.0
220
0.0
230
1.0
 70
     8
 71
     3
 72
     8
 73
     4
 74
     0
 42
0.00000001
 43
0.00000001
 40
0.0
 40
0.0
 40
0.0
 40
0.0
 40
0.0000226150302116
 40
0.0000226150302116
 40
0.0000226150302116
 40
0.0000226150302116
 10
345.8005426994961
 20
285.7709177722071
 30
0.0
 10
345.8005578351447
 20
285.7756691365535
 30
0.0
 10
345.8007215100128
 20
285.7804159482056
 30
0.0
 10
345.8010343533792
 20
285.7851526443939
 30
0.0
  0
SPLINE
  5
CE
330
1F
100
AcDbEntity
  8
0
  6
Continuous
 62
     7
370
    15
100
AcDbSpline
210
0.0
220
0.0
230
1.0
 70
    24
 71
     3
 72
    22
 73
    18
 74
     0
 42
0.00000001
 43
0.00000001
 40
0.0
 40
0.0
 40
0.0
 40
0.0
 40
0.1249999999999999
 40
0.1249999999999999
 40
0.2499999999999999
 40
0.2499999999999999
 40
0.3749999999999999
 40
0.3749999999999999
 40
0.4999999999999999
 40
0.4999999999999999
 40
0.6249999999999999
 40
0.6249999999999999
 40
0.7499999999999999
 40
0.7499999999999999
 40
0.8749999999999999
 40
0.8749999999999999
 40
1.0
 40
1.0
 40
1.0
 40
1.0
 10
345.7991652892563
 20
266.3620061033932
 30
0.0
 10
345.7991652892563
 20
266.945595634192
 30
0.0
 10
345.7991652892563
 20
267.6093562238822
 30
0.0
 10
345.7991652892563
 20
269.0646840016676
 30
0.0
 10
345.7991652892563
 20
269.8561921845414
 30
0.0
 10
345.7991652892563
 20
271.5280998215362
 30
0.0
 10
345.7991652892563
 20
272.4084314893603
 30
0.0
 10
345.7991652892563
 20
274.2146993506619
 30
0.0
 10
345.7991652892563
 20
275.1405623103034
 30
0.0
 10
345.7991652892563
 20
276.9923633095306
 30
0.0
 10
345.7991652892563
 20
277.9182262691721
 30
0.0
 10
345.7991652892563
 20
279.7244941304735
 30
0.0
 10
345.7991652892563
 20
280.6048257982978
 30
0.0
 10
345.7991652892563
 20
282.2767334352926
 30
0.0
 10
345.7991652892563
 20
283.0682416181663
 30
0.0
 10
345.7991652892563
 20
284.5235693959518
 30
0.0
 10
345.7991652892563
 20
285.1873299856418
 30
0.0
 10
345.7991652892563
 20
285.7709195164408
 30
0.0
  0
SPLINE
  5
CF
330
1F
100
AcDbEntity
  8
0
  6
Continuous
 62
     7
370
    15
100
AcDbSpline
210
0.0
220
0.0
230
1.0
 70
     8
 71
     3
 72
     8
 73
     4
 74
     0
 42
0.00000001
 43
0.00000001
 40
0.0
 40
0.0
 40
0.0
 40
0.0
 40
0.0000226150302116
 40
0.0000226150302116
 40
0.0000226150302116
 40
0.0000226150302116
 10
345.8010343533792
 20
266.34777297544
 30
0.0
 10
345.8007215100128
 20
266.3525096716283
 30
0.0
 10
345.8005578351447
 20
266.3572564832805
 30
0.0
 10
345.8005426994961
 20
266.3620078476268
 30
0.0
  0
LINE
  5
D0
330
1F
100
AcDbEntity
  8
0
  6
Continuous
 62
     7
370
    15
100
AcDbLine
 10
327.3901823388
 20
266.3477727424
 30
0.0
 11
345.799164422
 21
266.3477727424
 31
0.0
  0
SPLINE
  5
D1
330
1F
100
AcDbEntity
  8
0
  6
Continuous
 62
     7
370
    15
100
AcDbSpline
210
0.0
220
0.0
230
1.0
 70
     8
 71
     3
 72
    14
 73
    10
 74
     0
 42
0.00000001
 43
0.00000001
 40
0.0
 40
0.0
 40
0.0
 40
0.0
 40
0.2499999999999998
 40
0.2499999999999998
 40
0.4999999999999999
 40
0.4999999999999999
 40
0.7499999999999999
 40
0.7499999999999999
 40
1.0
 40
1.0
 40
1.0
 40
1.0
 10
325.3331871735869
 20
263.8451068614684
 30
0.0
 10
325.3048162595177
 20
263.9563400260528
 30
0.0
 10
325.3565231038256
 20
264.0990071434899
 30
0.0
 10
325.5720834563378
 20
264.4414961891071
 30
0.0
 10
325.7325344850928
 20
264.635519476899
 30
0.0
 10
326.1218799395104
 20
265.0634650602107
 30
0.0
 10
326.3527206664469
 20
265.2987214595181
 30
0.0
 10
326.8497596568502
 20
265.7991081731365
 30
0.0
 10
327.1175142724258
 20
266.0656833748714
 30
0.0
 10
327.3901804943467
 20
266.34777297544
 30
0.0
  0
LINE
  5
D2
330
1F
100
AcDbEntity
  8
0
  6
Continuous
 62
     7
370
    15
100
AcDbLine
 10
323.7991664039
 20
283.4622387986
 30
0.0
 11
323.7991664039
 21
268.6706868212
 31
0.0
  0
SPLINE
  5
D3
330
1F
100
AcDbEntity
  8
0
  6
Continuous
 62
     7
370
    15
100
AcDbSpline
210
0.0
220
0.0
230
1.0
 70
     8
 71
     3
 72
     8
 73
     4
 74
     0
 42
0.00000001
 43
0.00000001
 40
0.0
 40
0.0
 40
0.0
 40
0.0
 40
0.0000226150302116
 40
0.0000226150302116
 40
0.0000226150302116
 40
0.0000226150302116
 10
400.6977878790166
 20
266.3620078476268
 30
0.0
 10
400.697772743368
 20
266.3572564832805
 30
0.0
 10
400.6976090685
 20
266.3525096716283
 30
0.0
 10
400.6972962251336
 20
266.34777297544
 30
0.0
  0
SPLINE
  5
D4
330
1F
100
AcDbEntity
  8
0
  6
Continuous
 62
     7
370
    15
100
AcDbSpline
210
0.0
220
0.0
230
1.0
 70
    24
 71
     3
 72
    14
 73
    10
 74
     0
 42
0.00000001
 43
0.00000001
 40
0.1393700509402416
 40
0.1393700509402416
 40
0.1393700509402416
 40
0.1393700509402416
 40
0.2500000000000002
 40
0.3750000000000002
 40
0.5000000000000003
 40
0.5000000000000003
 40
0.6250000000000002
 40
0.7500000000000002
 40
0.8606299490597574
 40
0.8606299490597574
 40
0.8606299490597574
 40
0.8606299490597574
 10
400.6991652892564
 20
285.7710296838002
 30
0.0
 10
400.6991652892564
 20
285.0547897814118
 30
0.0
 10
400.6991652892564
 20
283.2721213742516
 30
0.0
 10
400.6991652892563
 20
279.9174769563039
 30
0.0
 10
400.6991652892564
 20
277.3501849634147
 30
0.0
 10
400.6991652892564
 20
274.7827406564192
 30
0.0
 10
400.6991652892564
 20
272.21544866353
 30
0.0
 10
400.6991652892564
 20
268.8608042455824
 30
0.0
 10
400.6991652892564
 20
267.0781358384222
 30
0.0
 10
400.6991652892564
 20
266.3618959360337
 30
0.0
  0
SPLINE
  5
D5
330
1F
100
AcDbEntity
  8
0
  6
Continuous
 62
     7
370
    15
100
AcDbSpline
210
0.0
220
0.0
230
1.0
 70
     8
 71
     3
 72
     8
 73
     4
 74
     0
 42
0.00000001
 43
0.00000001
 40
0.0
 40
0.0
 40
0.0
 40
0.0
 40
0.0000226150302116
 40
0.0000226150302116
 40
0.0000226150302116
 40
0.0000226150302116
 10
400.6972962251336
 20
285.7851526443939
 30
0.0
 10
400.6976090685
 20
285.7804159482056
 30
0.0
 10
400.6977727433681
 20
285.7756691365535
 30
0.0
 10
400.6977878790167
 20
285.7709177722071
 30
0.0
  0
LINE
  5
D6
330
1F
100
AcDbEntity
  8
0
  6
Continuous
 62
     7
370
    15
100
AcDbLine
 10
419.1081482397
 20
285.7851528774
 30
0.0
 11
400.6991661565
 21
285.7851528774
 31
0.0
  0
SPLINE
  5
D7
330
1F
100
AcDbEntity
  8
0
  6
Continuous
 62
     7
370
    15
100
AcDbSpline
210
0.0
220
0.0
230
1.0
 70
     8
 71
     3
 72
    14
 73
    10
 74
     0
 42
0.00000001
 43
0.00000001
 40
0.0
 40
0.0
 40
0.0
 40
0.0
 40
0.25
 40
0.25
 40
0.5
 40
0.5
 40
0.75
 40
0.75
 40
1.0
 40
1.0
 40
1.0
 40
1.0
 10
421.1651434049259
 20
288.2878187583655
 30
0.0
 10
421.193514318995
 20
288.1765855937811
 30
0.0
 10
421.1418074746871
 20
288.033918476344
 30
0.0
 10
420.9262471221749
 20
287.6914294307269
 30
0.0
 10
420.7657960934199
 20
287.4974061429349
 30
0.0
 10
420.3764506390023
 20
287.0694605596232
 30
0.0
 10
420.1456099120658
 20
286.8342041603158
 30
0.0
 10
419.6485709216626
 20
286.3338174466974
 30
0.0
 10
419.3808163060845
 20
286.0672422449635
 30
0.0
 10
419.108150084166
 20
285.7851526443939
 30
0.0
  0
SPLINE
  5
D8
330
1F
100
AcDbEntity
  8
0
  6
Continuous
 62
     7
370
    15
100
AcDbSpline
210
0.0
220
0.0
230
1.0
 70
     8
 71
     3
 72
    14
 73
    10
 74
     0
 42
0.00000001
 43
0.00000001
 40
0.0
 40
0.0
 40
0.0
 40
0.0
 40
0.25
 40
0.25
 40
0.5
 40
0.5
 40
0.75
 40
0.75
 40
1.0
 40
1.0
 40
1.0
 40
1.0
 10
421.1651434049259
 20
263.8451068614684
 30
0.0
 10
421.193514318995
 20
263.9563400260528
 30
0.0
 10
421.1418074746871
 20
264.0990071434899
 30
0.0
 10
420.926247122175
 20
264.4414961891071
 30
0.0
 10
420.7657960934199
 20
264.635519476899
 30
0.0
 10
420.3764506390023
 20
265.0634650602107
 30
0.0
 10
420.1456099120658
 20
265.2987214595181
 30
0.0
 10
419.6485709216626
 20
265.7991081731365
 30
0.0
 10
419.3808163060837
 20
266.0656833748701
 30
0.0
 10
419.108150084166
 20
266.34777297544
 30
0.0
  0
LINE
  5
D9
330
1F
100
AcDbEntity
  8
0
  6
Continuous
 62
     7
370
    15
100
AcDbLine
 10
400.6991661565
 20
266.3477727424
 30
0.0
 11
419.1081482397
 21
266.3477727424
 31
0.0
  0
LINE
  5
DA
330
1F
100
AcDbEntity
  8
0
  6
Continuous
 62
     7
370
    15
100
AcDbLine
 10
422.6991641746
 20
283.4622387986
 30
0.0
 11
422.6991641746
 21
268.6706868212
 31
0.0
  0
SPLINE
  5
DB
330
1F
100
AcDbEntity
  8
0
  6
Continuous
 62
     7
370
    15
100
AcDbSpline
210
0.0
220
0.0
230
1.0
 70
     8
 71
     3
 72
    44
 73
    40
 74
     0
 42
0.00000001
 43
0.00000001
 40
0.0
 40
0.0
 40
0.0
 40
0.0
 40
0.0625000000000003
 40
0.0625000000000003
 40
0.1250000000000006
 40
0.1250000000000006
 40
0.1875000000000009
 40
0.1875000000000009
 40
0.2500000000000013
 40
0.2500000000000013
 40
0.2812500000000014
 40
0.2812500000000014
 40
0.3125000000000016
 40
0.3125000000000016
 40
0.3750000000000016
 40
0.3750000000000016
 40
0.4375000000000017
 40
0.4375000000000017
 40
0.5000000000000017
 40
0.5000000000000017
 40
0.5625000000000018
 40
0.5625000000000018
 40
0.5937500000000018
 40
0.5937500000000018
 40
0.6250000000000019
 40
0.6250000000000019
 40
0.6875000000000018
 40
0.6875000000000018
 40
0.7187500000000016
 40
0.7187500000000016
 40
0.7500000000000013
 40
0.7500000000000013
 40
0.8125000000000011
 40
0.8125000000000011
 40
0.8750000000000008
 40
0.8750000000000008
 40
0.9375000000000004
 40
0.9375000000000004
 40
1.0
 40
1.0
 40
1.0
 40
1.0
 10
345.7991652892563
 20
266.361895928708
 30
0.0
 10
346.4248192921663
 20
266.4338367885834
 30
0.0
 10
347.0457241191459
 20
266.55118054021
 30
0.0
 10
348.265339866254
 20
266.8735231342059
 30
0.0
 10
348.856709018886
 20
267.0770869143057
 30
0.0
 10
350.0002022830647
 20
267.5747143898595
 30
0.0
 10
350.5523592956755
 20
267.8686989390413
 30
0.0
 10
351.6120077866939
 20
268.5596717197514
 30
0.0
 10
352.102572060077
 20
268.947867762609
 30
0.0
 10
352.7800450859693
 20
269.5935703472318
 30
0.0
 10
352.9961059387732
 20
269.8194171198081
 30
0.0
 10
353.4080843706205
 20
270.2930113529441
 30
0.0
 10
353.6048910529639
 20
270.5421220462409
 30
0.0
 10
354.1534670735409
 20
271.3101596745847
 30
0.0
 10
354.4661230569357
 20
271.8510207049812
 30
0.0
 10
354.9796170148894
 20
272.9935346221637
 30
0.0
 10
355.180849422986
 20
273.599236918006
 30
0.0
 10
355.4492312719827
 20
274.8210442669141
 30
0.0
 10
355.520055825385
 20
275.4430636176566
 30
0.0
 10
355.5184675430368
 20
276.7106104048275
 30
0.0
 10
355.4462042799059
 20
277.3330827610618
 30
0.0
 10
355.2419431407088
 20
278.2516393816354
 30
0.0
 10
355.1572309514027
 20
278.5564926150136
 30
0.0
 10
354.9568590567882
 20
279.155383832651
 30
0.0
 10
354.8421628329733
 20
279.4470060675174
 30
0.0
 10
354.4565254045107
 20
280.2994948635356
 30
0.0
 10
354.1438975330534
 20
280.8379156951923
 30
0.0
 10
353.5956353873958
 20
281.6028519817071
 30
0.0
 10
353.3983034932881
 20
281.8518853016989
 30
0.0
 10
352.9854681211464
 20
282.3249730747216
 30
0.0
 10
352.7694540421197
 20
282.5500211643099
 30
0.0
 10
352.0938676618691
 20
283.1921722088833
 30
0.0
 10
351.6068895446074
 20
283.5764479455507
 30
0.0
 10
350.5609395914306
 20
284.2587746345665
 30
0.0
 10
349.9996759236907
 20
284.5586028168615
 30
0.0
 10
348.8520890247559
 20
285.0576859875698
 30
0.0
 10
348.2611940317993
 20
285.2605446517105
 30
0.0
 10
347.0480750819644
 20
285.5810772266503
 30
0.0
 10
346.4248192921611
 20
285.699088831207
 30
0.0
 10
345.7991652892564
 20
285.7710296911259
 30
0.0
  0
SPLINE
  5
DC
330
1F
100
AcDbEntity
  8
0
  6
Continuous
 62
     7
370
    15
100
AcDbSpline
210
0.0
220
0.0
230
1.0
 70
     8
 71
     3
 72
    44
 73
    40
 74
     0
 42
0.00000001
 43
0.00000001
 40
0.0
 40
0.0
 40
0.0
 40
0.0
 40
0.0625000000000001
 40
0.0625000000000001
 40
0.1250000000000003
 40
0.1250000000000003
 40
0.1875000000000004
 40
0.1875000000000004
 40
0.2500000000000005
 40
0.2500000000000005
 40
0.2812500000000004
 40
0.2812500000000004
 40
0.3125000000000003
 40
0.3125000000000003
 40
0.3750000000000001
 40
0.3750000000000001
 40
0.4062499999999999
 40
0.4062499999999999
 40
0.4374999999999998
 40
0.4374999999999998
 40
0.4999999999999997
 40
0.4999999999999997
 40
0.5624999999999994
 40
0.5624999999999994
 40
0.6249999999999992
 40
0.6249999999999992
 40
0.6874999999999991
 40
0.6874999999999991
 40
0.718749999999999
 40
0.718749999999999
 40
0.749999999999999
 40
0.749999999999999
 40
0.8124999999999992
 40
0.8124999999999992
 40
0.8749999999999994
 40
0.8749999999999994
 40
0.9374999999999998
 40
0.9374999999999998
 40
1.0
 40
1.0
 40
1.0
 40
1.0
 10
400.6991652892564
 20
285.7710296911259
 30
0.0
 10
400.0730971090141
 20
285.6990412067024
 30
0.0
 10
399.4502554609319
 20
285.581077218971
 30
0.0
 10
398.2371365154428
 20
285.2605446417167
 30
0.0
 10
397.6462415245904
 20
285.0576859766016
 30
0.0
 10
396.4986546297541
 20
284.5586028042433
 30
0.0
 10
395.9373909641919
 20
284.2587746213384
 30
0.0
 10
394.8914410156027
 20
283.5764479319067
 30
0.0
 10
394.4044629004968
 20
283.1921721951973
 30
0.0
 10
393.7288765231805
 20
282.5500211509204
 30
0.0
 10
393.5128624450894
 20
282.3249730614821
 30
0.0
 10
393.1000270747396
 20
281.8518852888544
 30
0.0
 10
392.9026951815786
 20
281.6028519692148
 30
0.0
 10
392.3544330386257
 20
280.8379156840265
 30
0.0
 10
392.0418051686927
 20
280.2994948534044
 30
0.0
 10
391.6561677421188
 20
279.4470060591531
 30
0.0
 10
391.5414715188647
 20
279.1553838249126
 30
0.0
 10
391.3410996252354
 20
278.5564926086009
 30
0.0
 10
391.2563874363819
 20
278.2516393760351
 30
0.0
 10
391.0521262982332
 20
277.3330827577916
 30
0.0
 10
390.9798630354738
 20
276.7106104031628
 30
0.0
 10
390.9782747531299
 20
275.4430636193198
 30
0.0
 10
391.0490993061644
 20
274.8210442701794
 30
0.0
 10
391.3174811537789
 20
273.5992369243632
 30
0.0
 10
391.5187135608409
 20
272.993534629982
 30
0.0
 10
392.0322075162708
 20
271.8510207151601
 30
0.0
 10
392.3448634981371
 20
271.310159685799
 30
0.0
 10
392.8934395160038
 20
270.5421220587818
 30
0.0
 10
393.090246197447
 20
270.2930113657817
 30
0.0
 10
393.5022246274703
 20
269.819417133082
 30
0.0
 10
393.7182854793179
 20
269.593570360676
 30
0.0
 10
394.395758502198
 20
268.9478677764076
 30
0.0
 10
394.8863227729352
 20
268.5596717338134
 30
0.0
 10
395.9459712599892
 20
267.8686989521916
 30
0.0
 10
396.4981282705509
 20
267.574714402399
 30
0.0
 10
397.6416215304832
 20
267.0770869252837
 30
0.0
 10
398.2329906809204
 20
266.8735231442387
 30
0.0
 10
399.4526064234603
 20
266.5511805479498
 30
0.0
 10
400.0730971089198
 20
266.4338844123505
 30
0.0
 10
400.6991652892564
 20
266.361895928708
 30
0.0
  0
LINE
  5
DD
330
1F
100
AcDbEntity
  8
0
  6
Continuous
 62
     7
370
    15
100
AcDbLine
 10
467.6991622375
 20
276.0664628099
 30
0.0
 11
477.6991676019
 21
276.0664628099
 31
0.0
  0
LINE
  5
DE
330
1F
100
AcDbEntity
  8
0
  6
Continuous
 62
     7
370
    15
100
AcDbLine
 10
467.6991622375
 20
366.0664663862
 30
0.0
 11
467.6991622375
 21
276.0664628099
 31
0.0
  0
LINE
  5
DF
330
1F
100
AcDbEntity
  8
0
  6
Continuous
 62
     7
370
    15
100
AcDbLine
 10
477.6991676019
 20
366.0664663862
 30
0.0
 11
477.6991676019
 21
276.0664628099
 31
0.0
  0
LINE
  5
E0
330
1F
100
AcDbEntity
  8
0
  6
Continuous
 62
     7
370
    15
100
AcDbLine
 10
467.6991622375
 20
276.0664628099
 30
0.0
 11
467.6991622375
 21
263.5664626237
 31
0.0
  0
LINE
  5
E1
330
1F
100
AcDbEntity
  8
0
  6
Continuous
 62
     7
370
    15
100
AcDbLine
 10
477.6991676019
 20
276.0664628099
 30
0.0
 11
477.6991676019
 21
263.5664626237
 31
0.0
  0
SPLINE
  5
E2
330
1F
100
AcDbEntity
  8
0
  6
Continuous
 62
     7
370
    15
100
AcDbSpline
210
0.0
220
0.0
230
1.0
 70
     8
 71
     3
 72
    18
 73
    14
 74
     0
 42
0.00000001
 43
0.00000001
 40
0.0
 40
0.0
 40
0.0
 40
0.0
 40
0.2500000000000006
 40
0.2500000000000006
 40
0.5000000000000012
 40
0.5000000000000012
 40
0.7500000000000018
 40
0.7500000000000018
 40
0.8750000000000016
 40
0.8750000000000016
 40
0.9375000000000009
 40
0.9375000000000009
 40
1.0
 40
1.0
 40
1.0
 40
1.0
 10
345.8010343533791
 20
285.7851526443939
 30
0.0
 10
345.8321460067116
 20
286.2562077012627
 30
0.0
 10
345.8670525539555
 20
286.7828487988265
 30
0.0
 10
345.9443772379159
 20
287.9429177995728
 30
0.0
 10
345.9873179994517
 20
288.5840588951967
 30
0.0
 10
346.0772452026359
 20
289.9178982345937
 30
0.0
 10
346.1245255961629
 20
290.6150924146272
 30
0.0
 10
346.1991763494074
 20
291.7077743131886
 30
0.0
 10
346.2244059190262
 20
292.075768983421
 30
0.0
 10
346.2625547955585
 20
292.6301260517257
 30
0.0
 10
346.2753337046465
 20
292.8154795124546
 30
0.0
 10
346.3010188548465
 20
293.1873268215901
 30
0.0
 10
346.3140642030335
 20
293.3757918186371
 30
0.0
 10
346.3268418252306
 20
293.5601045119753
 30
0.0
  0
SPLINE
  5
E3
330
1F
100
AcDbEntity
  8
0
  6
Continuous
 62
     7
370
    15
100
AcDbSpline
210
0.0
220
0.0
230
1.0
 70
     8
 71
     3
 72
    58
 73
    54
 74
     0
 42
0.00000001
 43
0.00000001
 40
0.0
 40
0.0
 40
0.0
 40
0.0
 40
0.015625
 40
0.015625
 40
0.03125
 40
0.03125
 40
0.0625
 40
0.0625
 40
0.125
 40
0.125
 40
0.1562500000000001
 40
0.1562500000000001
 40
0.1875000000000002
 40
0.1875000000000002
 40
0.2500000000000002
 40
0.2500000000000002
 40
0.2812500000000003
 40
0.2812500000000003
 40
0.3125000000000003
 40
0.3125000000000003
 40
0.3750000000000003
 40
0.3750000000000003
 40
0.4062500000000004
 40
0.4062500000000004
 40
0.4375000000000004
 40
0.4375000000000004
 40
0.5000000000000004
 40
0.5000000000000004
 40
0.5625000000000006
 40
0.5625000000000006
 40
0.5937500000000006
 40
0.5937500000000006
 40
0.6250000000000006
 40
0.6250000000000006
 40
0.6875000000000006
 40
0.6875000000000006
 40
0.7187500000000006
 40
0.7187500000000006
 40
0.7500000000000006
 40
0.7500000000000006
 40
0.8125000000000004
 40
0.8125000000000004
 40
0.8437500000000003
 40
0.8437500000000003
 40
0.8750000000000003
 40
0.8750000000000003
 40
0.9375000000000002
 40
0.9375000000000002
 40
0.9687500000000002
 40
0.9687500000000002
 40
0.9843750000000001
 40
0.9843750000000001
 40
1.0
 40
1.0
 40
1.0
 40
1.0
 10
346.3268418252305
 20
293.5601045119755
 30
0.0
 10
346.6036632018163
 20
293.5215302429199
 30
0.0
 10
346.8811582853948
 20
293.4868037392151
 30
0.0
 10
347.4338127947577
 20
293.4040110110835
 30
0.0
 10
347.7091395994597
 20
293.3569007434845
 30
0.0
 10
348.5321731186488
 20
293.1987392408796
 30
0.0
 10
349.0781174933446
 20
293.070511943623
 30
0.0
 10
350.6883896060457
 20
292.6233463465848
 30
0.0
 10
351.7294755899131
 20
292.2421093626578
 30
0.0
 10
353.2412740456581
 20
291.5425203172462
 30
0.0
 10
353.737391866081
 20
291.2875637092284
 30
0.0
 10
354.709699874461
 20
290.7337186039915
 30
0.0
 10
355.1802332362039
 20
290.4380962692767
 30
0.0
 10
356.5453047710465
 20
289.4955290110332
 30
0.0
 10
357.3937521809989
 20
288.7934079172265
 30
0.0
 10
358.5705461879211
 20
287.6254498815098
 30
0.0
 10
358.9467449396458
 20
287.2168977068427
 30
0.0
 10
359.6651264208879
 20
286.35907210003
 30
0.0
 10
360.0032369206759
 20
285.9143927276188
 30
0.0
 10
360.9453638864978
 20
284.5459237501878
 30
0.0
 10
361.4819020531098
 20
283.5828374704838
 30
0.0
 10
362.1443282019982
 20
282.0592404567024
 30
0.0
 10
362.3418127937821
 20
281.5365389577992
 30
0.0
 10
362.6839440463729
 20
280.4701115233228
 30
0.0
 10
362.826871553212
 20
279.9322996248849
 30
0.0
 10
363.1722195105352
 20
278.3052294988661
 30
0.0
 10
363.2922250878541
 20
277.2025034728791
 30
0.0
 10
363.2942098006167
 20
274.9581544110399
 30
0.0
 10
363.1760621161082
 20
273.8563862923763
 30
0.0
 10
362.8348712631879
 20
272.2332492066818
 30
0.0
 10
362.6935539269795
 20
271.6970845743668
 30
0.0
 10
362.3553611197735
 20
270.6345853833669
 30
0.0
 10
362.1578143308162
 20
270.1076050604394
 30
0.0
 10
361.4956402630177
 20
268.5761424604108
 30
0.0
 10
360.9586210954171
 20
267.6087425228561
 30
0.0
 10
360.0153187561127
 20
266.2348766235752
 30
0.0
 10
359.6760547082754
 20
265.7878250291887
 30
0.0
 10
358.9598015976574
 20
264.9307273813067
 30
0.0
 10
358.5839597754879
 20
264.521576864869
 30
0.0
 10
357.4056243861187
 20
263.3497624400572
 30
0.0
 10
356.5526927259327
 20
262.642328500576
 30
0.0
 10
355.1736057317108
 20
261.6903381062697
 30
0.0
 10
354.6987911942227
 20
261.392711413664
 30
0.0
 10
353.7332038808109
 20
260.8432626068487
 30
0.0
 10
353.2405692091915
 20
260.5901168508862
 30
0.0
 10
351.7342635509012
 20
259.8929565997367
 30
0.0
 10
350.6913865846139
 20
259.5103036107097
 30
0.0
 10
349.0738303765006
 20
259.061277257324
 30
0.0
 10
348.5302856217779
 20
258.9337924343816
 30
0.0
 10
347.7084194421593
 20
258.7759021450488
 30
0.0
 10
347.4333694052876
 20
258.7288441681479
 30
0.0
 10
346.8810339145377
 20
258.6461072696338
 30
0.0
 10
346.6035612778429
 20
258.6113811740991
 30
0.0
 10
346.3268418252306
 20
258.5728211078585
 30
0.0
  0
SPLINE
  5
E4
330
1F
100
AcDbEntity
  8
0
  6
Continuous
 62
     7
370
    15
100
AcDbSpline
210
0.0
220
0.0
230
1.0
 70
     8
 71
     3
 72
    18
 73
    14
 74
     0
 42
0.00000001
 43
0.00000001
 40
0.0
 40
0.0
 40
0.0
 40
0.0
 40
0.2499999999999997
 40
0.2499999999999997
 40
0.4999999999999994
 40
0.4999999999999994
 40
0.7499999999999991
 40
0.7499999999999991
 40
0.8749999999999997
 40
0.8749999999999997
 40
0.9374999999999999
 40
0.9374999999999999
 40
1.0
 40
1.0
 40
1.0
 40
1.0
 10
345.8010343533792
 20
266.34777297544
 30
0.0
 10
345.832146105055
 20
265.8767164295743
 30
0.0
 10
345.8670526350201
 20
265.3500756123008
 30
0.0
 10
345.9443768664427
 20
264.1900133858416
 30
0.0
 10
345.9873177703976
 20
263.5488701261075
 30
0.0
 10
346.0772452994479
 20
262.2150259452511
 30
0.0
 10
346.124525297965
 20
261.5178376715248
 30
0.0
 10
346.1991742994829
 20
260.4251812611573
 30
0.0
 10
346.2244051134828
 20
260.0571683608094
 30
0.0
 10
346.2625544219015
 20
259.5028049887794
 30
0.0
 10
346.2753334487568
 20
259.3174498149297
 30
0.0
 10
346.3010187803214
 20
258.9455998741127
 30
0.0
 10
346.3140642477993
 20
258.7571331540673
 30
0.0
 10
346.3268418252306
 20
258.5728211078584
 30
0.0
  0
SPLINE
  5
E5
330
1F
100
AcDbEntity
  8
0
  6
Continuous
 62
     7
370
    15
100
AcDbSpline
210
0.0
220
0.0
230
1.0
 70
     8
 71
     3
 72
    18
 73
    14
 74
     0
 42
0.00000001
 43
0.00000001
 40
0.0
 40
0.0
 40
0.0
 40
0.0
 40
0.2500000000000003
 40
0.2500000000000003
 40
0.5000000000000007
 40
0.5000000000000007
 40
0.750000000000001
 40
0.750000000000001
 40
0.8750000000000011
 40
0.8750000000000011
 40
0.9375000000000006
 40
0.9375000000000006
 40
1.0
 40
1.0
 40
1.0
 40
1.0
 10
400.6972962251336
 20
266.34777297544
 30
0.0
 10
400.6661845718011
 20
265.8767179185713
 30
0.0
 10
400.6312780245573
 20
265.3500768210074
 30
0.0
 10
400.5539533405968
 20
264.1900078202611
 30
0.0
 10
400.5110125790609
 20
263.5488667246372
 30
0.0
 10
400.4210853758766
 20
262.2150273852403
 30
0.0
 10
400.3738049823502
 20
261.5178332052068
 30
0.0
 10
400.2991542291059
 20
260.4251513066453
 30
0.0
 10
400.2739246594757
 20
260.0571566364137
 30
0.0
 10
400.2357757829388
 20
259.5027995681093
 30
0.0
 10
400.2229968738634
 20
259.3174461073795
 30
0.0
 10
400.1973117236604
 20
258.9455987982442
 30
0.0
 10
400.1842663754286
 20
258.7571338012004
 30
0.0
 10
400.1714887532821
 20
258.5728211078586
 30
0.0
  0
SPLINE
  5
E6
330
1F
100
AcDbEntity
  8
0
  6
Continuous
 62
     7
370
    15
100
AcDbSpline
210
0.0
220
0.0
230
1.0
 70
     8
 71
     3
 72
    58
 73
    54
 74
     0
 42
0.00000001
 43
0.00000001
 40
0.0
 40
0.0
 40
0.0
 40
0.0
 40
0.015625
 40
0.015625
 40
0.03125
 40
0.03125
 40
0.0625000000000001
 40
0.0625000000000001
 40
0.1250000000000002
 40
0.1250000000000002
 40
0.1562500000000002
 40
0.1562500000000002
 40
0.1875000000000002
 40
0.1875000000000002
 40
0.2500000000000003
 40
0.2500000000000003
 40
0.2812500000000004
 40
0.2812500000000004
 40
0.3125000000000004
 40
0.3125000000000004
 40
0.3750000000000004
 40
0.3750000000000004
 40
0.4062500000000004
 40
0.4062500000000004
 40
0.4375000000000004
 40
0.4375000000000004
 40
0.5000000000000004
 40
0.5000000000000004
 40
0.5625000000000004
 40
0.5625000000000004
 40
0.5937500000000006
 40
0.5937500000000006
 40
0.6250000000000006
 40
0.6250000000000006
 40
0.6875000000000004
 40
0.6875000000000004
 40
0.7187500000000004
 40
0.7187500000000004
 40
0.7500000000000003
 40
0.7500000000000003
 40
0.8125000000000001
 40
0.8125000000000001
 40
0.8437500000000002
 40
0.8437500000000002
 40
0.8750000000000002
 40
0.8750000000000002
 40
0.9375000000000002
 40
0.9375000000000002
 40
0.9687500000000003
 40
0.9687500000000003
 40
0.9843750000000002
 40
0.9843750000000002
 40
1.0
 40
1.0
 40
1.0
 40
1.0
 10
400.1714887532821
 20
258.5728211078584
 30
0.0
 10
399.8946755254108
 20
258.6113942414139
 30
0.0
 10
399.6171456467854
 20
258.6461268600848
 30
0.0
 10
399.0646839033253
 20
258.72888873516
 30
0.0
 10
398.7895821516805
 20
258.7759601396997
 30
0.0
 10
397.9675935825483
 20
258.9338895737437
 30
0.0
 10
397.4240107883051
 20
259.0613990077268
 30
0.0
 10
395.8064649840521
 20
259.5104648180755
 30
0.0
 10
394.7636236335032
 20
259.8931335396542
 30
0.0
 10
393.2573490457631
 20
260.59032183227
 30
0.0
 10
392.7647246109622
 20
260.8434766721916
 30
0.0
 10
391.7991576490249
 20
261.3929433790561
 30
0.0
 10
391.3243521752236
 20
261.6905797911253
 30
0.0
 10
389.945305179193
 20
262.6425893091435
 30
0.0
 10
389.0923985723151
 20
263.3500342324503
 30
0.0
 10
387.9140994943845
 20
264.5218637439609
 30
0.0
 10
387.5382695628473
 20
264.9310190558643
 30
0.0
 10
386.8220400046662
 20
265.7881260441106
 30
0.0
 10
386.4827905008935
 20
266.2351784069594
 30
0.0
 10
385.5395282029767
 20
267.6090476848448
 30
0.0
 10
385.0025338698118
 20
268.5764488322112
 30
0.0
 10
384.3403953907315
 20
270.1079123147381
 30
0.0
 10
384.1428605650909
 20
270.634892301818
 30
0.0
 10
383.8046923621924
 20
271.6973845983641
 30
0.0
 10
383.6633866505126
 20
272.2335456635578
 30
0.0
 10
383.3222291564616
 20
273.8566717798851
 30
0.0
 10
383.2041017171784
 20
274.9584387201015
 30
0.0
 10
383.2061250333879
 20
277.2027589780306
 30
0.0
 10
383.3261461798048
 20
278.3054712120287
 30
0.0
 10
383.6715141526191
 20
279.9325211955682
 30
0.0
 10
383.8144477567758
 20
280.4703264737304
 30
0.0
 10
384.1565902842836
 20
281.5367408179508
 30
0.0
 10
384.3540785041915
 20
282.0594319642076
 30
0.0
 10
385.0165152650993
 20
283.5830041412921
 30
0.0
 10
385.5530581668592
 20
284.5460751607532
 30
0.0
 10
386.4951895477784
 20
285.9145227384348
 30
0.0
 10
386.8333018738863
 20
286.3591961388827
 30
0.0
 10
387.5516823081832
 20
287.2170057835171
 30
0.0
 10
387.927880087342
 20
287.6255505147138
 30
0.0
 10
389.1046700496094
 20
288.793487569123
 30
0.0
 10
389.9531132772032
 20
289.4955964542196
 30
0.0
 10
391.3181767312639
 20
290.4381475628868
 30
0.0
 10
391.7887070899048
 20
290.7337648849281
 30
0.0
 10
392.761008490139
 20
291.2876006854148
 30
0.0
 10
393.2571215142514
 20
291.5425524220734
 30
0.0
 10
394.7689068362049
 20
292.2421292859167
 30
0.0
 10
395.8099833494047
 20
292.6233599811065
 30
0.0
 10
397.4202403099164
 20
293.0705185704609
 30
0.0
 10
397.9661793762945
 20
293.1987439180395
 30
0.0
 10
398.7892047655322
 20
293.3569031600564
 30
0.0
 10
399.064528840801
 20
293.4040127852084
 30
0.0
 10
399.617177851758
 20
293.4868044542692
 30
0.0
 10
399.8946701509293
 20
293.5215306295014
 30
0.0
 10
400.1714887532822
 20
293.5601045119755
 30
0.0
  0
SPLINE
  5
E7
330
1F
100
AcDbEntity
  8
0
  6
Continuous
 62
     7
370
    15
100
AcDbSpline
210
0.0
220
0.0
230
1.0
 70
     8
 71
     3
 72
    18
 73
    14
 74
     0
 42
0.00000001
 43
0.00000001
 40
0.0
 40
0.0
 40
0.0
 40
0.0
 40
0.2500000000000001
 40
0.2500000000000001
 40
0.5000000000000001
 40
0.5000000000000001
 40
0.7500000000000002
 40
0.7500000000000002
 40
0.8750000000000008
 40
0.8750000000000008
 40
0.9375000000000004
 40
0.9375000000000004
 40
1.0
 40
1.0
 40
1.0
 40
1.0
 10
400.6972962251336
 20
285.7851526443939
 30
0.0
 10
400.6661844734577
 20
286.2562091902596
 30
0.0
 10
400.6312779434926
 20
286.7828500075332
 30
0.0
 10
400.55395371207
 20
287.9429122339924
 30
0.0
 10
400.5110128081153
 20
288.5840554937265
 30
0.0
 10
400.421085279065
 20
289.9178996745831
 30
0.0
 10
400.3738052805481
 20
290.6150879483093
 30
0.0
 10
400.2991562790303
 20
291.7077443586768
 30
0.0
 10
400.2739254650396
 20
292.0757572590254
 30
0.0
 10
400.2357761566244
 20
292.6301206310557
 30
0.0
 10
400.2229971297565
 20
292.8154758049045
 30
0.0
 10
400.1973117981925
 20
293.1873257457215
 30
0.0
 10
400.1842663306239
 20
293.3757924657606
 30
0.0
 10
400.1714887532823
 20
293.5601045119758
 30
0.0
  0
SPLINE
  5
E8
330
1F
100
AcDbEntity
  8
0
  6
Continuous
 62
     7
370
    15
100
AcDbSpline
210
0.0
220
0.0
230
1.0
 70
     8
 71
     3
 72
    12
 73
     8
 74
     0
 42
0.00000001
 43
0.00000001
 40
0.0
 40
0.0
 40
0.0
 40
0.0
 40
0.2499999999999998
 40
0.2499999999999998
 40
0.4999999999999997
 40
0.4999999999999997
 40
1.0
 40
1.0
 40
1.0
 40
1.0
 10
325.3331871735869
 20
288.2878187583655
 30
0.0
 10
325.4636550593833
 20
288.7993410793737
 30
0.0
 10
325.6055101911473
 20
289.3213090325557
 30
0.0
 10
325.9141136136979
 20
290.3843433222548
 30
0.0
 10
326.0795177128492
 20
290.9206025523218
 30
0.0
 10
326.6065608049888
 20
292.5298897557745
 30
0.0
 10
327.0003876819713
 20
293.6083088964354
 30
0.0
 10
327.4401209434542
 20
294.6899414356822
 30
0.0
  0
LWPOLYLINE
  5
E9
330
1F
100
AcDbEntity
  8
0
  6
Continuous
 62
     7
370
    15
100
AcDbPolyline
 90
        9
 70
   128
 43
0.0
 10
327.4401198553
 20
294.6899415206
 10
327.4935218917
 20
294.6682323914
 10
327.6516679154
 20
294.6039376061
 10
327.9084857033
 20
294.4995288949
 10
328.2541032361
 20
294.3590202581
 10
328.6752398537
 20
294.1878077786
 10
329.1557128952
 20
293.9924740444
 10
329.6770560966
 20
293.7805255156
 10
330.2192348467
 20
293.5601038139
  0
SPLINE
  5
EA
330
1F
100
AcDbEntity
  8
0
  6
Continuous
 62
     7
370
    15
100
AcDbSpline
210
0.0
220
0.0
230
1.0
 70
     8
 71
     3
 72
    18
 73
    14
 74
     0
 42
0.00000001
 43
0.00000001
 40
0.0
 40
0.0
 40
0.0
 40
0.0
 40
0.2499999999999995
 40
0.2499999999999995
 40
0.3749999999999999
 40
0.3749999999999999
 40
0.5000000000000003
 40
0.5000000000000003
 40
0.7500000000000004
 40
0.7500000000000004
 40
0.8750000000000002
 40
0.8750000000000002
 40
1.0
 40
1.0
 40
1.0
 40
1.0
 10
330.2192338461318
 20
293.5601045119755
 30
0.0
 10
329.8506392104936
 20
292.8626818021025
 30
0.0
 10
329.5143352891169
 20
292.1631825583561
 30
0.0
 10
329.0565866010942
 20
291.1131038800452
 30
0.0
 10
328.9117989989373
 20
290.7629578841725
 30
0.0
 10
328.6376278192866
 20
290.0631079910777
 30
0.0
 10
328.5090513171415
 20
289.715208181483
 30
0.0
 10
328.1546013894601
 20
288.7006815950522
 30
0.0
 10
327.9565542228462
 20
288.0544427518599
 30
0.0
 10
327.7067943837413
 20
287.139255619269
 30
0.0
 10
327.6324469317963
 20
286.8469082094695
 30
0.0
 10
327.5000530290619
 20
286.2934951812909
 30
0.0
 10
327.441774746429
 20
286.0315642115544
 30
0.0
 10
327.3901804943467
 20
285.7851526443939
 30
0.0
  0
LINE
  5
EB
330
1F
100
AcDbEntity
  8
0
  6
Continuous
 62
     7
370
    15
100
AcDbLine
 10
330.2192348467
 20
293.5601038139
 30
0.0
 11
346.3268424796
 21
293.5601038139
 31
0.0
  0
SPLINE
  5
EC
330
1F
100
AcDbEntity
  8
0
  6
Continuous
 62
     7
370
    15
100
AcDbSpline
210
0.0
220
0.0
230
1.0
 70
     8
 71
     3
 72
    18
 73
    14
 74
     0
 42
0.00000001
 43
0.00000001
 40
0.0
 40
0.0
 40
0.0
 40
0.0
 40
0.2499999999999996
 40
0.2499999999999996
 40
0.3750000000000001
 40
0.3750000000000001
 40
0.5000000000000006
 40
0.5000000000000006
 40
0.7500000000000003
 40
0.7500000000000003
 40
0.8750000000000002
 40
0.8750000000000002
 40
1.0
 40
1.0
 40
1.0
 40
1.0
 10
416.2790967323809
 20
258.5728211078585
 30
0.0
 10
416.6476913680191
 20
259.2702438177315
 30
0.0
 10
416.9839952893959
 20
259.9697430614778
 30
0.0
 10
417.4417439774185
 20
261.0198217397887
 30
0.0
 10
417.5865315795755
 20
261.3699677356615
 30
0.0
 10
417.8607027592262
 20
262.0698176287561
 30
0.0
 10
417.9892792613713
 20
262.4177174383508
 30
0.0
 10
418.3437291890527
 20
263.4322440247817
 30
0.0
 10
418.5417763556666
 20
264.0784828679739
 30
0.0
 10
418.7915361947714
 20
264.993670000565
 30
0.0
 10
418.8658836467164
 20
265.2860174103644
 30
0.0
 10
418.9982775494509
 20
265.839430438543
 30
0.0
 10
419.0565558320837
 20
266.1013614082795
 30
0.0
 10
419.108150084166
 20
266.34777297544
 30
0.0
  0
LINE
  5
ED
330
1F
100
AcDbEntity
  8
0
  6
Continuous
 62
     7
370
    15
100
AcDbLine
 10
416.2790957318
 20
258.572821806
 30
0.0
 11
400.171488099
 21
258.572821806
 31
0.0
  0
SPLINE
  5
EE
330
1F
100
AcDbEntity
  8
0
  6
Continuous
 62
     7
370
    15
100
AcDbSpline
210
0.0
220
0.0
230
1.0
 70
     8
 71
     3
 72
    12
 73
     8
 74
     0
 42
0.00000001
 43
0.00000001
 40
0.0
 40
0.0
 40
0.0
 40
0.0
 40
0.2499999999999997
 40
0.2499999999999997
 40
0.4999999999999993
 40
0.4999999999999993
 40
1.0
 40
1.0
 40
1.0
 40
1.0
 10
421.1651434049259
 20
263.8451068614684
 30
0.0
 10
421.0346755191296
 20
263.3335845404603
 30
0.0
 10
420.8928203873654
 20
262.8116165872782
 30
0.0
 10
420.5842169648149
 20
261.7485822975792
 30
0.0
 10
420.4188128656637
 20
261.2123230675121
 30
0.0
 10
419.891769773524
 20
259.6030358640593
 30
0.0
 10
419.4979428965414
 20
258.5246167233985
 30
0.0
 10
419.0582096350585
 20
257.4429841841518
 30
0.0
  0
LWPOLYLINE
  5
EF
330
1F
100
AcDbEntity
  8
0
  6
Continuous
 62
     7
370
    15
100
AcDbPolyline
 90
        9
 70
   128
 43
0.0
 10
419.0582107233
 20
257.4429840993
 10
419.0048086868
 20
257.4646932285
 10
418.8466626631
 20
257.5289880137
 10
418.5898448752
 20
257.6333967249
 10
418.2442273425
 20
257.7739053618
 10
417.8230907248
 20
257.9451178412
 10
417.3426176833
 20
258.1404515754
 10
416.8212744819
 20
258.3524001043
 10
416.2790957318
 20
258.572821806
  0
LINE
  5
F0
330
1F
100
AcDbEntity
  8
0
  6
Continuous
 62
     7
370
    15
100
AcDbLine
 10
346.3268424796
 20
258.572821806
 30
0.0
 11
330.2192348467
 21
258.572821806
 31
0.0
  0
SPLINE
  5
F1
330
1F
100
AcDbEntity
  8
0
  6
Continuous
 62
     7
370
    15
100
AcDbSpline
210
0.0
220
0.0
230
1.0
 70
     8
 71
     3
 72
    18
 73
    14
 74
     0
 42
0.00000001
 43
0.00000001
 40
0.0
 40
0.0
 40
0.0
 40
0.0
 40
0.1249999999999999
 40
0.1249999999999999
 40
0.2499999999999999
 40
0.2499999999999999
 40
0.4999999999999998
 40
0.4999999999999998
 40
0.6249999999999997
 40
0.6249999999999997
 40
0.7499999999999994
 40
0.7499999999999994
 40
1.0
 40
1.0
 40
1.0
 40
1.0
 10
327.3901804943467
 20
266.34777297544
 30
0.0
 10
327.4417799586307
 20
266.101336515065
 30
0.0
 10
327.500071951178
 20
265.8393424449189
 30
0.0
 10
327.6325242466984
 20
265.2857031349847
 30
0.0
 10
327.7070029636948
 20
264.9928815779268
 30
0.0
 10
327.9565931583678
 20
264.0783885233026
 30
0.0
 10
328.1543719398043
 20
263.4330822448239
 30
0.0
 10
328.5079494306159
 20
262.4207810494685
 30
0.0
 10
328.6357494840406
 20
262.0747645526745
 30
0.0
 10
328.9104817774345
 20
261.3731795568733
 30
0.0
 10
329.0555299488034
 20
261.0223112776441
 30
0.0
 10
329.5139580761485
 20
259.9704777832172
 30
0.0
 10
329.8505801786754
 20
259.2703555126034
 30
0.0
 10
330.2192338461318
 20
258.5728211078584
 30
0.0
  0
SPLINE
  5
F2
330
1F
100
AcDbEntity
  8
0
  6
Continuous
 62
     7
370
    15
100
AcDbSpline
210
0.0
220
0.0
230
1.0
 70
     8
 71
     3
 72
    12
 73
     8
 74
     0
 42
0.00000001
 43
0.00000001
 40
0.0
 40
0.0
 40
0.0
 40
0.0
 40
0.5000000000000004
 40
0.5000000000000004
 40
0.7500000000000002
 40
0.7500000000000002
 40
1.0
 40
1.0
 40
1.0
 40
1.0
 10
327.4401209434542
 20
257.4429841841518
 30
0.0
 10
327.0006507953079
 20
258.5239695311771
 30
0.0
 10
326.6067046096725
 20
259.6025564719256
 30
0.0
 10
326.0791895302482
 20
261.2133453111307
 30
0.0
 10
325.9133144843496
 20
261.7512593220197
 30
0.0
 10
325.6052543818324
 20
262.8125737289814
 30
0.0
 10
325.4635641214637
 20
263.3339410785874
 30
0.0
 10
325.3331871735869
 20
263.8451068614683
 30
0.0
  0
LWPOLYLINE
  5
F3
330
1F
100
AcDbEntity
  8
0
  6
Continuous
 62
     7
370
    15
100
AcDbPolyline
 90
        9
 70
   128
 43
0.0
 10
327.4401198553
 20
257.4429840993
 10
327.4935218917
 20
257.4646932285
 10
327.6516679154
 20
257.5289880137
 10
327.9084857033
 20
257.6333967249
 10
328.2541032361
 20
257.7739053618
 10
328.6752398537
 20
257.9451178412
 10
329.1557128952
 20
258.1404515754
 10
329.6770560966
 20
258.3524001043
 10
330.2192348467
 20
258.572821806
  0
LINE
  5
F4
330
1F
100
AcDbEntity
  8
0
  6
Continuous
 62
     7
370
    15
100
AcDbLine
 10
400.171488099
 20
293.5601038139
 30
0.0
 11
416.2790957318
 21
293.5601038139
 31
0.0
  0
SPLINE
  5
F5
330
1F
100
AcDbEntity
  8
0
  6
Continuous
 62
     7
370
    15
100
AcDbSpline
210
0.0
220
0.0
230
1.0
 70
     8
 71
     3
 72
    18
 73
    14
 74
     0
 42
0.00000001
 43
0.00000001
 40
0.0
 40
0.0
 40
0.0
 40
0.0
 40
0.1250000000000003
 40
0.1250000000000003
 40
0.2500000000000006
 40
0.2500000000000006
 40
0.5000000000000002
 40
0.5000000000000002
 40
0.6250000000000003
 40
0.6250000000000003
 40
0.7500000000000006
 40
0.7500000000000006
 40
1.0
 40
1.0
 40
1.0
 40
1.0
 10
419.108150084166
 20
285.7851526443939
 30
0.0
 10
419.056550619882
 20
286.0315891047689
 30
0.0
 10
418.9982586273347
 20
286.2935831749151
 30
0.0
 10
418.8658063318144
 20
286.8472224848492
 30
0.0
 10
418.791327614818
 20
287.1400440419071
 30
0.0
 10
418.541737420145
 20
288.0545370965314
 30
0.0
 10
418.3439586387085
 20
288.69984337501
 30
0.0
 10
417.9903811478969
 20
289.7121445703654
 30
0.0
 10
417.8625810944721
 20
290.0581610671594
 30
0.0
 10
417.5878488010782
 20
290.7597460629606
 30
0.0
 10
417.4428006297093
 20
291.1106143421898
 30
0.0
 10
416.9843725023642
 20
292.1624478366167
 30
0.0
 10
416.6477503998374
 20
292.8625701072306
 30
0.0
 10
416.2790967323809
 20
293.5601045119755
 30
0.0
  0
SPLINE
  5
F6
330
1F
100
AcDbEntity
  8
0
  6
Continuous
 62
     7
370
    15
100
AcDbSpline
210
0.0
220
0.0
230
1.0
 70
     8
 71
     3
 72
    12
 73
     8
 74
     0
 42
0.00000001
 43
0.00000001
 40
0.0
 40
0.0
 40
0.0
 40
0.0
 40
0.5
 40
0.5
 40
0.75
 40
0.75
 40
1.0
 40
1.0
 40
1.0
 40
1.0
 10
419.0582096350585
 20
294.6899414356822
 30
0.0
 10
419.4976797832048
 20
293.6089560886568
 30
0.0
 10
419.8916259688402
 20
292.5303691479083
 30
0.0
 10
420.4191410482646
 20
290.9195803087032
 30
0.0
 10
420.5850160941631
 20
290.3816662978142
 30
0.0
 10
420.8930761966804
 20
289.3203518908525
 30
0.0
 10
421.034766457049
 20
288.7989845412465
 30
0.0
 10
421.1651434049259
 20
288.2878187583656
 30
0.0
  0
LWPOLYLINE
  5
F7
330
1F
100
AcDbEntity
  8
0
  6
Continuous
 62
     7
370
    15
100
AcDbPolyline
 90
        9
 70
   128
 43
0.0
 10
419.0582107233
 20
294.6899415206
 10
419.0048086868
 20
294.6682323914
 10
418.8466626631
 20
294.6039376061
 10
418.5898448752
 20
294.4995288949
 10
418.2442273425
 20
294.3590202581
 10
417.8230907248
 20
294.1878077786
 10
417.3426176833
 20
293.9924740444
 10
416.8212744819
 20
293.7805255156
 10
416.2790957318
 20
293.5601038139
  0
ARC
  5
F8
330
1F
100
AcDbEntity
  8
0
  6
Continuous
 62
     7
370
    15
100
AcDbCircle
 10
373.2491652893
 20
276.0664628099
 30
0.0
 40
49.45000000000005
100
AcDbArc
 50
202.1239984151
 51
337.8760015849
  0
ARC
  5
F9
330
1F
100
AcDbEntity
  8
0
  6
Continuous
 62
     7
370
    15
100
AcDbCircle
 10
373.2491652893
 20
276.0664628099
 30
0.0
 40
46.45000000000001
100
AcDbArc
 50
202.1239984151
 51
337.8760015849
  0
ARC
  5
FA
330
1F
100
AcDbEntity
  8
0
  6
Continuous
 62
     7
370
    15
100
AcDbCircle
 10
373.2491652893
 20
276.0664628099
 30
0.0
 40
49.45000000000005
100
AcDbArc
 50
22.1239984151
 51
157.8760015849
  0
ARC
  5
FB
330
1F
100
AcDbEntity
  8
0
  6
Continuous
 62
     7
370
    15
100
AcDbCircle
 10
373.2491652893
 20
276.0664628099
 30
0.0
 40
46.44999999999998
100
AcDbArc
 50
22.1239984151
 51
157.8760015849
  0
LINE
  5
FC
330
1F
100
AcDbEntity
  8
0
  6
Continuous
 62
     7
370
    15
100
AcDbLine
 10
449.1991619991
 20
330.0664642106
 30
0.0
 11
457.1991633104
 21
330.0664642106
 31
0.0
  0
LINE
  5
FD
330
1F
100
AcDbEntity
  8
0
  6
Continuous
 62
     7
370
    15
100
AcDbLine
 10
455.1991667078
 20
328.0664638828
 30
0.0
 11
451.1991660522
 21
328.0664638828
 31
0.0
  0
SPLINE
  5
FE
330
1F
100
AcDbEntity
  8
0
  6
Continuous
 62
     7
370
    15
100
AcDbSpline
210
0.0
220
0.0
230
1.0
 70
     8
 71
     3
 72
    18
 73
    14
 74
     0
 42
0.00000001
 43
0.00000001
 40
0.0
 40
0.0
 40
0.0
 40
0.0
 40
0.0326417143101299
 40
0.1400450019947607
 40
0.2474481229810143
 40
0.3548513502225174
 40
0.4622547245889765
 40
0.5696577875986272
 40
0.6770616639450074
 40
0.7844649263611607
 40
0.8918681513158696
 40
0.9992713833147067
 40
0.9999999999999999
 40
0.9999999999999999
 40
0.9999999999999999
 40
0.9999999999999999
 10
447.6490091012452
 20
335.1024606476989
 30
0.0
 10
447.6490048325912
 20
335.0919313536912
 30
0.0
 10
447.6489865184901
 20
335.0467567961816
 30
0.0
 10
447.6491283381519
 20
335.3125279515825
 30
0.0
 10
447.6489105087628
 20
335.8777648842538
 30
0.0
 10
447.6491054205093
 20
336.7142833448988
 30
0.0
 10
447.6489906378758
 20
337.6964846292656
 30
0.0
 10
447.6490313392432
 20
338.7229383766775
 30
0.0
 10
447.6490280198872
 20
339.6719895052549
 30
0.0
 10
447.6489558926662
 20
340.4510561951283
 30
0.0
 10
447.6491136100581
 20
340.9205563257298
 30
0.0
 10
447.6490089822857
 20
341.1209527471925
 30
0.0
 10
447.649009100449
 20
341.0656854398504
 30
0.0
 10
447.6490091012452
 20
341.0653130363193
 30
0.0
  0
SPLINE
  5
FF
330
1F
100
AcDbEntity
  8
0
  6
Continuous
 62
     7
370
    15
100
AcDbSpline
210
0.0
220
0.0
230
1.0
 70
     8
 71
     3
 72
    13
 73
     9
 74
     0
 42
0.00000001
 43
0.00000001
 40
0.0
 40
0.0
 40
0.0
 40
0.0
 40
0.0651603162276111
 40
0.2795618063859808
 40
0.4939629637763202
 40
0.7083643332764036
 40
0.9227659964714982
 40
1.0
 40
1.0
 40
1.0
 40
1.0
 10
461.2493212746118
 20
335.1024606476989
 30
0.0
 10
461.2493255450257
 20
335.0919316855249
 30
0.0
 10
461.2493438666778
 20
335.0467585517045
 30
0.0
 10
461.2492018886323
 20
335.312499844826
 30
0.0
 10
461.2494204062212
 20
335.8778665333361
 30
0.0
 10
461.2492229479087
 20
336.7139048546353
 30
0.0
 10
461.249320725023
 20
337.4880548625907
 30
0.0
 10
461.2493152689622
 20
337.9452399736894
 30
0.0
 10
461.2493138240312
 20
338.0663165103164
 30
0.0
  0
SPLINE
  5
100
330
1F
100
AcDbEntity
  8
0
  6
Continuous
 62
     7
370
    15
100
AcDbSpline
210
0.0
220
0.0
230
1.0
 70
     8
 71
     3
 72
    11
 73
     7
 74
     0
 42
0.00000001
 43
0.00000001
 40
0.0
 40
0.0
 40
0.0
 40
0.0
 40
0.1799539943139043
 40
0.5885909002937535
 40
0.9972278330743876
 40
1.0
 40
1.0
 40
1.0
 40
1.0
 10
461.2493287251924
 20
340.0666223119464
 30
0.0
 10
461.2493343320231
 20
340.1830483057131
 30
0.0
 10
461.2493526707634
 20
340.5638527482598
 30
0.0
 10
461.2492139090527
 20
340.9110886255792
 30
0.0
 10
461.2493213968233
 20
341.120963524036
 30
0.0
 10
461.2493212754297
 20
341.0656855119811
 30
0.0
 10
461.2493212746118
 20
341.0653130363193
 30
0.0
  0
SPLINE
  5
101
330
1F
100
AcDbEntity
  8
0
  6
Continuous
 62
     7
370
    15
100
AcDbSpline
210
0.0
220
0.0
230
1.0
 70
     8
 71
     3
 72
    20
 73
    16
 74
     0
 42
0.00000001
 43
0.00000001
 40
0.0
 40
0.0
 40
0.0
 40
0.0
 40
0.0390549335950107
 40
0.0779747407388756
 40
0.138711294482977
 40
0.2379400765780819
 40
0.3629151703330339
 40
0.4914001851700334
 40
0.6252288113657888
 40
0.761835705068241
 40
0.8317388140505453
 40
0.9020808660765025
 40
0.948119553094119
 40
0.98754416995929
 40
1.0
 40
1.0
 40
1.0
 40
1.0
 10
464.5491685198281
 20
246.5609100859132
 30
0.0
 10
464.6668834143968
 20
246.5671073962602
 30
0.0
 10
464.9019059209072
 20
246.5794805748349
 30
0.0
 10
465.2716368691049
 20
246.6852254501399
 30
0.0
 10
465.6842808538415
 20
246.9064696224299
 30
0.0
 10
466.039323746831
 20
247.3035984146427
 30
0.0
 10
466.2396571735101
 20
247.8254849911585
 30
0.0
 10
466.3036214848424
 20
248.4070327952739
 30
0.0
 10
466.2516637562058
 20
249.0055416070486
 30
0.0
 10
466.0691682136547
 20
249.51245704908
 30
0.0
 10
465.7495360731385
 20
249.897873968925
 30
0.0
 10
465.4158546684824
 20
250.1283891333595
 30
0.0
 10
465.0298547943571
 20
250.2660108948208
 30
0.0
 10
464.7422776675464
 20
250.3103457995239
 30
0.0
 10
464.5865554318075
 20
250.3130389784673
 30
0.0
 10
464.5491685198281
 20
250.3136855761971
 30
0.0
  0
SPLINE
  5
102
330
1F
100
AcDbEntity
  8
0
  6
Continuous
 62
     7
370
    15
100
AcDbSpline
210
0.0
220
0.0
230
1.0
 70
     8
 71
     3
 72
    20
 73
    16
 74
     0
 42
0.00000001
 43
0.00000001
 40
0.0
 40
0.0
 40
0.0
 40
0.0
 40
0.0390549437694376
 40
0.0779748192158505
 40
0.138711306077957
 40
0.2379400460600811
 40
0.362915200392282
 40
0.4914000818835746
 40
0.625228836945238
 40
0.7618358463887326
 40
0.8317387188106158
 40
0.9020807542933862
 40
0.948119598189962
 40
0.9875441530385317
 40
1.0
 40
1.0
 40
1.0
 40
1.0
 10
464.5491685198281
 20
250.3136855761971
 30
0.0
 10
464.6668834675598
 20
250.32607981603
 30
0.0
 10
464.9019062555217
 20
250.3508254312329
 30
0.0
 10
465.2716361600973
 20
250.5623220188272
 30
0.0
 10
465.6842812813955
 20
251.0048048766633
 30
0.0
 10
466.0393237761383
 20
251.7990628201039
 30
0.0
 10
466.2396570436484
 20
252.8428342486361
 30
0.0
 10
466.3036215751666
 20
254.0059319427079
 30
0.0
 10
466.25166352712
 20
255.2029510244482
 30
0.0
 10
466.069169036368
 20
256.2167799449347
 30
0.0
 10
465.7495357278411
 20
256.9876142375698
 30
0.0
 10
465.4158534909834
 20
257.4486430996305
 30
0.0
 10
465.0298560604383
 20
257.7238898028007
 30
0.0
 10
464.7422772199405
 20
257.8125571236471
 30
0.0
 10
464.5865554123103
 20
257.8179463863132
 30
0.0
 10
464.5491685198281
 20
257.8192402820554
 30
0.0
  0
SPLINE
  5
103
330
1F
100
AcDbEntity
  8
0
  6
Continuous
 62
     7
370
    15
100
AcDbSpline
210
0.0
220
0.0
230
1.0
 70
     8
 71
     3
 72
    18
 73
    14
 74
     0
 42
0.00000001
 43
0.00000001
 40
0.0
 40
0.0
 40
0.0
 40
0.0
 40
0.0344336968426155
 40
0.0724907586076296
 40
0.1306339265223383
 40
0.2236184335552305
 40
0.4104355142262736
 40
0.5001955538088658
 40
0.7376507025184023
 40
0.8568706362586389
 40
0.9094909383831686
 40
0.9625702446592751
 40
0.9999999999999999
 40
0.9999999999999999
 40
0.9999999999999999
 40
0.9999999999999999
 10
464.5491685198281
 20
257.8192402820554
 30
0.0
 10
464.6527601691153
 20
257.8240371503912
 30
0.0
 10
464.8708441371704
 20
257.8341356485631
 30
0.0
 10
465.2261506814591
 20
257.926435411093
 30
0.0
 10
465.6342120351243
 20
258.1292745644819
 30
0.0
 10
466.087089352305
 20
258.5919283616681
 30
0.0
 10
466.2553964435843
 20
259.1472770512913
 30
0.0
 10
466.3072530688682
 20
259.9161525103907
 30
0.0
 10
466.2082465138764
 20
260.5910587040772
 30
0.0
 10
465.752576850686
 20
261.1753792988433
 30
0.0
 10
465.3098006948026
 20
261.4323705115147
 30
0.0
 10
464.9342195778464
 20
261.552279995924
 30
0.0
 10
464.661818982276
 20
261.5662425362948
 30
0.0
 10
464.5491685198281
 20
261.5720167036619
 30
0.0
  0
LINE
  5
104
330
1F
100
AcDbEntity
  8
0
  6
Continuous
 62
     7
370
    15
100
AcDbLine
 10
466.5491651224
 20
258.8344116907
 30
0.0
 11
466.5491651224
 21
259.5720154445
 31
0.0
  0
LINE
  5
105
330
1F
100
AcDbEntity
  8
0
  6
Continuous
 62
     7
370
    15
100
AcDbLine
 10
466.5491651224
 20
248.5609085511
 30
0.0
 11
466.5491651224
 21
258.8344116907
 31
0.0
  0
LINE
  5
106
330
1F
100
AcDbEntity
  8
0
  6
Continuous
 62
     7
370
    15
100
AcDbLine
 10
461.6491641329
 20
254.0664629291
 30
0.0
 11
461.6491641329
 21
257.8192402821
 31
0.0
  0
LINE
  5
107
330
1F
100
AcDbEntity
  8
0
  6
Continuous
 62
     7
370
    15
100
AcDbLine
 10
464.5491685198
 20
257.8192402821
 30
0.0
 11
461.6491641329
 21
257.8192402821
 31
0.0
  0
LINE
  5
108
330
1F
100
AcDbEntity
  8
0
  6
Continuous
 62
     7
370
    15
100
AcDbLine
 10
464.5491685198
 20
250.3136855762
 30
0.0
 11
461.6491641329
 21
250.3136855762
 31
0.0
  0
LINE
  5
109
330
1F
100
AcDbEntity
  8
0
  6
Continuous
 62
     7
370
    15
100
AcDbLine
 10
461.6491641329
 20
250.3136855762
 30
0.0
 11
461.6491641329
 21
254.0664629291
 31
0.0
  0
LINE
  5
10A
330
1F
100
AcDbEntity
  8
0
  6
Continuous
 62
     7
370
    15
100
AcDbLine
 10
464.5491685198
 20
246.5609100859
 30
0.0
 11
461.6491641329
 21
246.5609100859
 31
0.0
  0
LINE
  5
10B
330
1F
100
AcDbEntity
  8
0
  6
Continuous
 62
     7
370
    15
100
AcDbLine
 10
461.6491641329
 20
246.5609100859
 30
0.0
 11
461.6491641329
 21
248.4372978311
 31
0.0
  0
LINE
  5
10C
330
1F
100
AcDbEntity
  8
0
  6
Continuous
 62
     7
370
    15
100
AcDbLine
 10
461.6491641329
 20
248.4372978311
 30
0.0
 11
461.6491641329
 21
250.3136855762
 31
0.0
  0
LINE
  5
10D
330
1F
100
AcDbEntity
  8
0
  6
Continuous
 62
     7
370
    15
100
AcDbLine
 10
461.6491641329
 20
259.6956280272
 30
0.0
 11
461.6491641329
 21
261.5720167037
 31
0.0
  0
LINE
  5
10E
330
1F
100
AcDbEntity
  8
0
  6
Continuous
 62
     7
370
    15
100
AcDbLine
 10
464.5491685198
 20
261.5720167037
 30
0.0
 11
461.6491641329
 21
261.5720167037
 31
0.0
  0
LINE
  5
10F
330
1F
100
AcDbEntity
  8
0
  6
Continuous
 62
     7
370
    15
100
AcDbLine
 10
461.6491641329
 20
257.8192402821
 30
0.0
 11
461.6491641329
 21
259.6956280272
 31
0.0
  0
SPLINE
  5
110
330
1F
100
AcDbEntity
  8
0
  6
Continuous
 62
     7
370
    15
100
AcDbSpline
210
0.0
220
0.0
230
1.0
 70
     8
 71
     3
 72
    20
 73
    16
 74
     0
 42
0.00000001
 43
0.00000001
 40
0.0
 40
0.0
 40
0.0
 40
0.0
 40
0.0390549437694376
 40
0.0779748192158505
 40
0.138711306077957
 40
0.2379400460600811
 40
0.362915200392282
 40
0.4914000818835746
 40
0.625228836945238
 40
0.7618358463887326
 40
0.8317387188106158
 40
0.9020807542933862
 40
0.948119598189962
 40
0.9875441530385317
 40
1.0
 40
1.0
 40
1.0
 40
1.0
 10
464.5491685198281
 20
294.3136853377786
 30
0.0
 10
464.6668834675598
 20
294.3260795776115
 30
0.0
 10
464.9019062555217
 20
294.3508251928143
 30
0.0
 10
465.2716361600973
 20
294.5623217804086
 30
0.0
 10
465.6842812813955
 20
295.0048046382448
 30
0.0
 10
466.0393237761383
 20
295.7990625816853
 30
0.0
 10
466.2396570436484
 20
296.8428340102175
 30
0.0
 10
466.3036215751666
 20
298.0059317042894
 30
0.0
 10
466.25166352712
 20
299.2029507860296
 30
0.0
 10
466.069169036368
 20
300.2167797065161
 30
0.0
 10
465.7495357278411
 20
300.9876139991512
 30
0.0
 10
465.4158534909834
 20
301.4486428612119
 30
0.0
 10
465.0298560604383
 20
301.7238895643821
 30
0.0
 10
464.7422772199405
 20
301.8125568852285
 30
0.0
 10
464.5865554123103
 20
301.8179461478946
 30
0.0
 10
464.5491685198281
 20
301.8192400436368
 30
0.0
  0
SPLINE
  5
111
330
1F
100
AcDbEntity
  8
0
  6
Continuous
 62
     7
370
    15
100
AcDbSpline
210
0.0
220
0.0
230
1.0
 70
     8
 71
     3
 72
    18
 73
    14
 74
     0
 42
0.00000001
 43
0.00000001
 40
0.0
 40
0.0
 40
0.0
 40
0.0
 40
0.0344337099397702
 40
0.0724907514227567
 40
0.1306338562933534
 40
0.2236184012514117
 40
0.4104355802565756
 40
0.5001956043846918
 40
0.7376506597932112
 40
0.8568707208032778
 40
0.9094909162023825
 40
0.9625702476219359
 40
1.0
 40
1.0
 40
1.0
 40
1.0
 10
464.5491685198281
 20
301.8192400436368
 30
0.0
 10
464.6527601506202
 20
301.824036908303
 30
0.0
 10
464.8708439751736
 20
301.8341353939073
 30
0.0
 10
465.2261505843621
 20
301.9264351101851
 30
0.0
 10
465.6342124425083
 20
302.1292746456658
 30
0.0
 10
466.0870891928533
 20
302.5919275190697
 30
0.0
 10
466.2553963865411
 20
303.1472800685702
 30
0.0
 10
466.3072531845032
 20
303.9161503246576
 30
0.0
 10
466.2082454406301
 20
304.5910582128275
 30
0.0
 10
465.7525779152037
 20
305.1753805764585
 30
0.0
 10
465.3098000909582
 20
305.4323696726383
 30
0.0
 10
464.9342197465631
 20
305.552281642703
 30
0.0
 10
464.6618190057976
 20
305.5662421918785
 30
0.0
 10
464.5491685198281
 20
305.5720155339208
 30
0.0
  0
SPLINE
  5
112
330
1F
100
AcDbEntity
  8
0
  6
Continuous
 62
     7
370
    15
100
AcDbSpline
210
0.0
220
0.0
230
1.0
 70
     8
 71
     3
 72
    20
 73
    16
 74
     0
 42
0.00000001
 43
0.00000001
 40
0.0
 40
0.0
 40
0.0
 40
0.0
 40
0.0390549492982464
 40
0.0779748054260322
 40
0.1387112580900216
 40
0.2379400747458327
 40
0.3629152197592042
 40
0.4914001458828374
 40
0.6252287728080939
 40
0.7618357550049689
 40
0.8317387821349663
 40
0.9020808345443586
 40
0.9481195727190599
 40
0.9875441648774401
 40
1.0
 40
1.0
 40
1.0
 40
1.0
 10
464.5491685198281
 20
290.560908916172
 30
0.0
 10
464.6668834512543
 20
290.5671060321651
 30
0.0
 10
464.9019061318266
 20
290.5794788279939
 30
0.0
 10
465.2716361605111
 20
290.6852271131007
 30
0.0
 10
465.684281631949
 20
290.9064688675662
 30
0.0
 10
466.0393235054794
 20
291.303596946228
 30
0.0
 10
466.2396571466187
 20
291.8254847351985
 30
0.0
 10
466.3036215230685
 20
292.4070326966902
 30
0.0
 10
466.25166360204
 20
293.0055417111514
 30
0.0
 10
466.069168574003
 20
293.512456258944
 30
0.0
 10
465.7495359279393
 20
293.8978739427544
 30
0.0
 10
465.4158542984763
 20
294.128389010092
 30
0.0
 10
465.0298552343439
 20
294.2660105583302
 30
0.0
 10
464.7422775098165
 20
294.3103455713983
 30
0.0
 10
464.5865554249749
 20
294.3130387416316
 30
0.0
 10
464.5491685198281
 20
294.3136853377786
 30
0.0
  0
LINE
  5
113
330
1F
100
AcDbEntity
  8
0
  6
Continuous
 62
     7
370
    15
100
AcDbLine
 10
466.5491651224
 20
292.5609101753
 30
0.0
 11
466.5491651224
 21
303.5720170687
 31
0.0
  0
LINE
  5
114
330
1F
100
AcDbEntity
  8
0
  6
Continuous
 62
     7
370
    15
100
AcDbLine
 10
461.6491641329
 20
298.0664626907
 30
0.0
 11
461.6491641329
 21
301.8192400436
 31
0.0
  0
LINE
  5
115
330
1F
100
AcDbEntity
  8
0
  6
Continuous
 62
     7
370
    15
100
AcDbLine
 10
464.5491685198
 20
301.8192400436
 30
0.0
 11
461.6491641329
 21
301.8192400436
 31
0.0
  0
LINE
  5
116
330
1F
100
AcDbEntity
  8
0
  6
Continuous
 62
     7
370
    15
100
AcDbLine
 10
464.5491685198
 20
294.3136853378
 30
0.0
 11
461.6491641329
 21
294.3136853378
 31
0.0
  0
LINE
  5
117
330
1F
100
AcDbEntity
  8
0
  6
Continuous
 62
     7
370
    15
100
AcDbLine
 10
461.6491641329
 20
294.3136853378
 30
0.0
 11
461.6491641329
 21
298.0664626907
 31
0.0
  0
LINE
  5
118
330
1F
100
AcDbEntity
  8
0
  6
Continuous
 62
     7
370
    15
100
AcDbLine
 10
464.5491685198
 20
290.5609089162
 30
0.0
 11
461.6491641329
 21
290.5609089162
 31
0.0
  0
LINE
  5
119
330
1F
100
AcDbEntity
  8
0
  6
Continuous
 62
     7
370
    15
100
AcDbLine
 10
461.6491641329
 20
290.5609089162
 30
0.0
 11
461.6491641329
 21
292.4372975926
 31
0.0
  0
LINE
  5
11A
330
1F
100
AcDbEntity
  8
0
  6
Continuous
 62
     7
370
    15
100
AcDbLine
 10
461.6491641329
 20
292.4372975926
 30
0.0
 11
461.6491641329
 21
294.3136853378
 31
0.0
  0
LINE
  5
11B
330
1F
100
AcDbEntity
  8
0
  6
Continuous
 62
     7
370
    15
100
AcDbLine
 10
461.6491641329
 20
303.6956277888
 30
0.0
 11
461.6491641329
 21
305.5720155339
 31
0.0
  0
LINE
  5
11C
330
1F
100
AcDbEntity
  8
0
  6
Continuous
 62
     7
370
    15
100
AcDbLine
 10
464.5491685198
 20
305.5720155339
 30
0.0
 11
461.6491641329
 21
305.5720155339
 31
0.0
  0
LINE
  5
11D
330
1F
100
AcDbEntity
  8
0
  6
Continuous
 62
     7
370
    15
100
AcDbLine
 10
461.6491641329
 20
301.8192400436
 30
0.0
 11
461.6491641329
 21
303.6956277888
 31
0.0
  0
SPLINE
  5
11E
330
1F
100
AcDbEntity
  8
0
  6
Continuous
 62
     7
370
    15
100
AcDbSpline
210
0.0
220
0.0
230
1.0
 70
     8
 71
     3
 72
    11
 73
     7
 74
     0
 42
0.00000001
 43
0.00000001
 40
0.0
 40
0.0
 40
0.0
 40
0.0
 40
0.3340931672287332
 40
0.6236929823694408
 40
0.918517064921058
 40
1.0
 40
1.0
 40
1.0
 40
1.0
 10
514.3875847981903
 20
345.5536396454539
 30
0.0
 10
514.1749364243918
 20
345.375721311611
 30
0.0
 10
513.7779594387486
 20
345.043579181399
 30
0.0
 10
512.616658480247
 20
344.761742503956
 30
0.0
 10
511.5445928864813
 20
344.6482214133518
 30
0.0
 10
510.8932339847286
 20
344.6205645456359
 30
0.0
 10
510.7521932052109
 20
344.6145759175982
 30
0.0
  0
SPLINE
  5
11F
330
1F
100
AcDbEntity
  8
0
  6
Continuous
 62
     7
370
    15
100
AcDbSpline
210
0.0
220
0.0
230
1.0
 70
     8
 71
     3
 72
    11
 73
     7
 74
     0
 42
0.00000001
 43
0.00000001
 40
0.0
 40
0.0
 40
0.0
 40
0.0
 40
0.0091480287441651
 40
0.5000046725267722
 40
0.9908519712558349
 40
1.0
 40
1.0
 40
1.0
 40
1.0
 10
510.7521932052109
 20
344.6145759175982
 30
0.0
 10
510.7474153685612
 20
344.6147552900209
 30
0.0
 10
510.4862726987797
 20
344.6245592654989
 30
0.0
 10
509.9604398155918
 20
344.6340687679123
 30
0.0
 10
509.4346071344639
 20
344.62455908227
 30
0.0
 10
509.1734693452768
 20
344.614755290021
 30
0.0
 10
509.1686915086243
 20
344.6145759175982
 30
0.0
  0
SPLINE
  5
120
330
1F
100
AcDbEntity
  8
0
  6
Continuous
 62
     7
370
    15
100
AcDbSpline
210
0.0
220
0.0
230
1.0
 70
     8
 71
     3
 72
    12
 73
     8
 74
     0
 42
0.00000001
 43
0.00000001
 40
0.0
 40
0.0
 40
0.0
 40
0.0
 40
0.1136357142525299
 40
0.3008420754543745
 40
0.491920903537533
 40
0.6964445520697214
 40
0.9999999999999999
 40
0.9999999999999999
 40
0.9999999999999999
 40
0.9999999999999999
 10
509.1686915086244
 20
344.6145759175982
 30
0.0
 10
508.8919368832225
 20
344.6279767965963
 30
0.0
 10
508.1592496603261
 20
344.6634546239432
 30
0.0
 10
507.0882664115903
 20
344.8025921703115
 30
0.0
 10
506.1211720196853
 20
345.0824040152331
 30
0.0
 10
505.3795123605072
 20
345.5651374299036
 30
0.0
 10
505.2979153091598
 20
346.0883701738413
 30
0.0
 10
505.2491645740006
 20
346.4009792755809
 30
0.0
  0
ARC
  5
121
330
1F
100
AcDbEntity
  8
0
  6
Continuous
 62
     7
370
    15
100
AcDbCircle
 10
505.9603091279
 20
346.3416980776
 30
0.0
 40
0.713611124451344
100
AcDbArc
 50
85.9204982281
 51
175.234825926
  0
SPLINE
  5
122
330
1F
100
AcDbEntity
  8
0
  6
Continuous
 62
     7
370
    15
100
AcDbSpline
210
0.0
220
0.0
230
1.0
 70
     8
 71
     3
 72
    16
 73
    12
 74
     0
 42
0.00000001
 43
0.00000001
 40
0.0
 40
0.0
 40
0.0
 40
0.0
 40
0.1632160359848265
 40
0.2700787487363326
 40
0.3688080741377484
 40
0.465413836951368
 40
0.5626678535157867
 40
0.6630034428831222
 40
0.7707090400336427
 40
0.8765172068908508
 40
1.0
 40
1.0
 40
1.0
 40
1.0
 10
506.0110758470032
 20
347.0535011242595
 30
0.0
 10
506.0497247020284
 20
346.7291703196938
 30
0.0
 10
506.1136781876174
 20
346.1924898560052
 30
0.0
 10
506.7376154216093
 20
345.6789458360093
 30
0.0
 10
507.5518541900477
 20
345.3831536822939
 30
0.0
 10
508.5891348230866
 20
345.2180903444264
 30
0.0
 10
509.7738588956129
 20
345.1556848347637
 30
0.0
 10
511.0271066665152
 20
345.1890428509645
 30
0.0
 10
512.187046441173
 20
345.3398625186563
 30
0.0
 10
513.1657947957677
 20
345.639765420732
 30
0.0
 10
513.4945696604524
 20
345.9840004407565
 30
0.0
 10
513.6716287063095
 20
346.1693854283061
 30
0.0
  0
ARC
  5
123
330
1F
100
AcDbEntity
  8
0
  6
Continuous
 62
     7
370
    15
100
AcDbCircle
 10
513.5784392797
 20
345.336919256
 30
0.0
 40
0.8376659222377435
100
AcDbArc
 50
14.9940869352
 51
83.6126848435
  0
LINE
  5
124
330
1F
100
AcDbEntity
  8
0
  6
Continuous
 62
     7
370
    15
100
AcDbLine
 10
505.249164574
 20
346.4009792756
 30
0.0
 11
505.249164574
 21
340.6658874105
 31
0.0
  0
SPLINE
  5
125
330
1F
100
AcDbEntity
  8
0
  6
Continuous
 62
     7
370
    15
100
AcDbSpline
210
0.0
220
0.0
230
1.0
 70
     8
 71
     3
 72
    12
 73
     8
 74
     0
 42
0.00000001
 43
0.00000001
 40
0.0
 40
0.0
 40
0.0
 40
0.0
 40
0.2917315934193974
 40
0.5225560192853045
 40
0.761146229291173
 40
0.9714510641611681
 40
1.0
 40
1.0
 40
1.0
 40
1.0
 10
505.2491645740006
 20
340.6658874105182
 30
0.0
 10
505.2943407530894
 20
341.2273678081331
 30
0.0
 10
505.3752613144674
 20
342.2331037932054
 30
0.0
 10
506.1832423122295
 20
343.439754281664
 30
0.0
 10
507.3947240019822
 20
344.232799371561
 30
0.0
 10
508.513671478823
 20
344.5347139650096
 30
0.0
 10
509.0987590646137
 20
344.6060495500462
 30
0.0
 10
509.1686915086243
 20
344.6145759175982
 30
0.0
  0
ARC
  5
126
330
1F
100
AcDbEntity
  8
0
  6
Continuous
 62
     7
370
    15
100
AcDbCircle
 10
513.5337989265
 20
342.7104334558
 30
0.0
 40
0.9484636759303893
100
AcDbArc
 50
278.3557514009
 51
334.1814379046
  0
SPLINE
  5
127
330
1F
100
AcDbEntity
  8
0
  6
Continuous
 62
     7
370
    15
100
AcDbSpline
210
0.0
220
0.0
230
1.0
 70
     8
 71
     3
 72
    16
 73
    12
 74
     0
 42
0.00000001
 43
0.00000001
 40
0.0
 40
0.0
 40
0.0
 40
0.0
 40
0.0982180886355325
 40
0.1976628686003582
 40
0.2943624070728909
 40
0.3914066858248335
 40
0.4911098463394043
 40
0.5996266640158984
 40
0.7226908600024605
 40
0.8431784824396973
 40
0.9999999999999999
 40
0.9999999999999999
 40
0.9999999999999999
 40
0.9999999999999999
 10
513.6716287063095
 20
341.7720378588405
 30
0.0
 10
513.5377288554797
 20
342.0571243118782
 30
0.0
 10
513.2682568163892
 20
342.6308577950826
 30
0.0
 10
512.500224453162
 20
343.2902850773671
 30
0.0
 10
511.49586022275
 20
343.7340005026684
 30
0.0
 10
510.326180535479
 20
343.9342955706311
 30
0.0
 10
509.0698629696506
 20
343.8827595473524
 30
0.0
 10
507.8107974266044
 20
343.5284677590788
 30
0.0
 10
506.7877608020698
 20
342.812096145553
 30
0.0
 10
506.1104078657575
 20
341.69787382206
 30
0.0
 10
506.0469576665711
 20
340.772157918898
 30
0.0
 10
506.0110758470032
 20
340.2486548970904
 30
0.0
  0
LWPOLYLINE
  5
128
330
1F
100
AcDbEntity
  8
0
  6
Continuous
 62
     7
370
    15
100
AcDbPolyline
 90
        9
 70
   128
 43
0.0
 10
506.011075847
 20
340.2486548971
 10
505.8624367641
 20
340.2566717218
 10
505.7195048259
 20
340.2804167222
 10
505.587778561
 20
340.3189734768
 10
505.472324364
 20
340.37085932
 10
505.37756788
 20
340.434084947
 10
505.3071598934
 20
340.5062214683
 10
505.2638124155
 20
340.5844898175
 10
505.249164574
 20
340.6658874105
  0
SPLINE
  5
129
330
1F
100
AcDbEntity
  8
0
  6
Continuous
 62
     7
370
    15
100
AcDbSpline
210
0.0
220
0.0
230
1.0
 70
     8
 71
     3
 72
    11
 73
     7
 74
     0
 42
0.00000001
 43
0.00000001
 40
0.0
 40
0.0
 40
0.0
 40
0.0
 40
0.1990373065918737
 40
0.4636314619600062
 40
0.7350858230440989
 40
1.0
 40
1.0
 40
1.0
 40
1.0
 10
510.752193205211
 20
344.6145759175982
 30
0.0
 10
511.0952432703236
 20
344.5605318031975
 30
0.0
 10
511.8943336817497
 20
344.4346430831428
 30
0.0
 10
512.9880875847754
 20
343.9652043661652
 30
0.0
 10
513.9018384133586
 20
343.2408209406452
 30
0.0
 10
514.2269909137365
 20
342.6092773781271
 30
0.0
 10
514.3875847981903
 20
342.2973559449878
 30
0.0
  0
LINE
  5
12A
330
1F
100
AcDbEntity
  8
0
  6
Continuous
 62
     7
370
    15
100
AcDbLine
 10
514.3875847982
 20
345.5536396455
 30
0.0
 11
514.3875847982
 21
342.297355945
 31
0.0
  0
SPLINE
  5
12B
330
1F
100
AcDbEntity
  8
0
  6
Continuous
 62
     7
370
    15
100
AcDbSpline
210
0.0
220
0.0
230
1.0
 70
     8
 71
     3
 72
    14
 73
    10
 74
     0
 42
0.00000001
 43
0.00000001
 40
0.0
 40
0.0
 40
0.0
 40
0.0
 40
0.0621969194802571
 40
0.2157647509697529
 40
0.3692820900962883
 40
0.5269931935971464
 40
0.6847104657575764
 40
0.8423237334962456
 40
1.0
 40
1.0
 40
1.0
 40
1.0
 10
513.6716287063095
 20
327.0882622550693
 30
0.0
 10
513.7582223826353
 20
327.3965355815065
 30
0.0
 10
514.0586209098308
 20
328.4659537788253
 30
0.0
 10
514.4513345897419
 20
330.372269018348
 30
0.0
 10
514.7510206038903
 20
332.814266553926
 30
0.0
 10
514.8242232711266
 20
335.2615015584489
 30
0.0
 10
514.6691118525484
 20
337.6302931237441
 30
0.0
 10
514.2978139164819
 20
339.8468884845594
 30
0.0
 10
513.8803849122004
 20
341.1302359244939
 30
0.0
 10
513.6716287063095
 20
341.7720378588405
 30
0.0
  0
SPLINE
  5
12C
330
1F
100
AcDbEntity
  8
0
  6
Continuous
 62
     7
370
    15
100
AcDbSpline
210
0.0
220
0.0
230
1.0
 70
     8
 71
     3
 72
    16
 73
    12
 74
     0
 42
0.00000001
 43
0.00000001
 40
0.0
 40
0.0
 40
0.0
 40
0.0
 40
0.1632157785218685
 40
0.2700786366813905
 40
0.368807935462018
 40
0.4654137750191368
 40
0.5626678157404635
 40
0.6630034258968402
 40
0.7707090460495887
 40
0.8765172308593276
 40
1.0
 40
1.0
 40
1.0
 40
1.0
 10
506.0110758470032
 20
328.9491900454726
 30
0.0
 10
506.0497250573148
 20
328.291316537234
 30
0.0
 10
506.1136792051569
 20
327.2027111228374
 30
0.0
 10
506.7376146300614
 20
325.8727320934931
 30
0.0
 10
507.5518548977282
 20
324.9921995596101
 30
0.0
 10
508.5891343772113
 20
324.4245467678746
 30
0.0
 10
509.7738589299919
 20
324.1899809207782
 30
0.0
 10
511.0271066568362
 20
324.3186064440503
 30
0.0
 10
512.1870464249673
 20
324.8483945086517
 30
0.0
 10
513.1657946331914
 20
325.7847683978353
 30
0.0
 10
513.4945696228635
 20
326.6319951906214
 30
0.0
 10
513.6716287063097
 20
327.0882622550693
 30
0.0
  0
LINE
  5
12D
330
1F
100
AcDbEntity
  8
0
  6
Continuous
 62
     7
370
    15
100
AcDbLine
 10
506.011075847
 20
340.2486548971
 30
0.0
 11
506.011075847
 21
328.9491900455
 31
0.0
  0
SPLINE
  5
12E
330
1F
100
AcDbEntity
  8
0
  6
Continuous
 62
     7
370
    15
100
AcDbSpline
210
0.0
220
0.0
230
1.0
 70
     8
 71
     3
 72
    14
 73
    10
 74
     0
 42
0.00000001
 43
0.00000001
 40
0.0
 40
0.0
 40
0.0
 40
0.0
 40
0.0621969382239147
 40
0.2157646946083262
 40
0.3692823083701669
 40
0.5269934323040533
 40
0.6847106787038684
 40
0.8423235805941272
 40
1.0
 40
1.0
 40
1.0
 40
1.0
 10
513.6716287063097
 20
346.1693854283061
 30
0.0
 10
513.7582223708819
 20
346.3058571739206
 30
0.0
 10
514.058620688307
 20
346.7792853740225
 30
0.0
 10
514.451335206767
 20
347.8013660723738
 30
0.0
 10
514.7510203253446
 20
349.3703894680868
 30
0.0
 10
514.8242232426138
 20
351.2379423846505
 30
0.0
 10
514.6691123465541
 20
353.3389393273352
 30
0.0
 10
514.29781290251
 20
355.5986715138088
 30
0.0
 10
513.8803848031018
 20
357.1626899422553
 30
0.0
 10
513.6716287063095
 20
357.9448566983905
 30
0.0
  0
LINE
  5
12F
330
1F
100
AcDbEntity
  8
0
  6
Continuous
 62
     7
370
    15
100
AcDbLine
 10
506.011075847
 20
356.1149643015
 30
0.0
 11
506.011075847
 21
347.0535011243
 31
0.0
  0
SPLINE
  5
130
330
1F
100
AcDbEntity
  8
0
  6
Continuous
 62
     7
370
    15
100
AcDbSpline
210
0.0
220
0.0
230
1.0
 70
     8
 71
     3
 72
    16
 73
    12
 74
     0
 42
0.00000001
 43
0.00000001
 40
0.0
 40
0.0
 40
0.0
 40
0.0
 40
0.0982182307888148
 40
0.1976628671582263
 40
0.2943623977241305
 40
0.391406704840818
 40
0.4911098556430707
 40
0.599626533685269
 40
0.7226906110079192
 40
0.8431782020737734
 40
1.0
 40
1.0
 40
1.0
 40
1.0
 10
513.6716287063095
 20
357.9448566983905
 30
0.0
 10
513.5377290909842
 20
358.3157601186176
 30
0.0
 10
513.2682579178218
 20
359.0621982583814
 30
0.0
 10
512.5002236685257
 20
360.0039642685541
 30
0.0
 10
511.4958600582796
 20
360.6697777295481
 30
0.0
 10
510.3261807283786
 20
360.9825829951329
 30
0.0
 10
509.0698638569909
 20
360.9015227373935
 30
0.0
 10
507.8107970836429
 20
360.3544467101707
 30
0.0
 10
506.7877605091887
 20
359.3132646397065
 30
0.0
 10
506.1104073799184
 20
357.8154497309499
 30
0.0
 10
506.0469575114677
 20
356.7292329613412
 30
0.0
 10
506.0110758470033
 20
356.1149643014636
 30
0.0
  0
SPLINE
  5
131
330
1F
100
AcDbEntity
  8
0
  6
Continuous
 62
     7
370
    15
100
AcDbSpline
210
0.0
220
0.0
230
1.0
 70
     8
 71
     3
 72
    14
 73
    10
 74
     0
 42
0.00000001
 43
0.00000001
 40
0.0
 40
0.0
 40
0.0
 40
0.0
 40
0.1575840187077535
 40
0.3151115687280981
 40
0.4729864278412743
 40
0.6308558605337818
 40
0.7843615863118426
 40
0.9379120338701586
 40
1.0
 40
1.0
 40
1.0
 40
1.0
 10
514.3875847981903
 20
342.2973559449878
 30
0.0
 10
514.5990383631504
 20
341.6174350825203
 30
0.0
 10
515.0218697207594
 20
340.2578370005572
 30
0.0
 10
515.3971624626224
 20
337.9125048077677
 30
0.0
 10
515.5541384935782
 20
335.4070170113361
 30
0.0
 10
515.4799859770608
 20
332.8184734795298
 30
0.0
 10
515.1770143639695
 20
330.2348257866943
 30
0.0
 10
514.779651409383
 20
328.21695790901
 30
0.0
 10
514.4752344427518
 20
327.0837079442543
 30
0.0
 10
514.3875847981903
 20
326.7574154983726
 30
0.0
  0
ARC
  5
132
330
1F
100
AcDbEntity
  8
0
  6
Continuous
 62
     7
370
    15
100
AcDbCircle
 10
513.3756563549
 20
325.507682883
 30
0.0
 40
1.608051859944382
100
AcDbArc
 50
51.0023557235
 51
79.3938723892
  0
SPLINE
  5
133
330
1F
100
AcDbEntity
  8
0
  6
Continuous
 62
     7
370
    15
100
AcDbSpline
210
0.0
220
0.0
230
1.0
 70
     8
 71
     3
 72
    14
 73
    10
 74
     0
 42
0.00000001
 43
0.00000001
 40
0.0
 40
0.0
 40
0.0
 40
0.0
 40
0.1575841164802878
 40
0.315111517318805
 40
0.4729863743237909
 40
0.6308558580758045
 40
0.784361468323571
 40
0.9379119902862166
 40
1.0
 40
1.0
 40
1.0
 40
1.0
 10
514.3875847981905
 20
324.1460801314082
 30
0.0
 10
514.5990383092247
 20
324.1268109076182
 30
0.0
 10
515.0218692276742
 20
324.0882793951686
 30
0.0
 10
515.3971627065847
 20
323.5541480249905
 30
0.0
 10
515.554138413066
 20
322.6521914512284
 30
0.0
 10
515.4799861600039
 20
321.3996045602823
 30
0.0
 10
515.1770140636235
 20
319.838185480286
 30
0.0
 10
514.7796513619157
 20
318.4040183718541
 30
0.0
 10
514.4752344426759
 20
317.4925802313613
 30
0.0
 10
514.3875847981903
 20
317.2301531981196
 30
0.0
  0
LINE
  5
134
330
1F
100
AcDbEntity
  8
0
  6
Continuous
 62
     7
370
    15
100
AcDbLine
 10
514.3875847982
 20
326.7574154984
 30
0.0
 11
514.3875847982
 21
324.1460801314
 31
0.0
  0
SPLINE
  5
135
330
1F
100
AcDbEntity
  8
0
  6
Continuous
 62
     7
370
    15
100
AcDbSpline
210
0.0
220
0.0
230
1.0
 70
     8
 71
     3
 72
    14
 73
    10
 74
     0
 42
0.00000001
 43
0.00000001
 40
0.0
 40
0.0
 40
0.0
 40
0.0
 40
0.1575839084339297
 40
0.3151115830191515
 40
0.4729864037798056
 40
0.6308558385581932
 40
0.784361574087554
 40
0.9379121567160814
 40
1.0
 40
1.0
 40
1.0
 40
1.0
 10
514.3875847981903
 20
358.0157042692866
 30
0.0
 10
514.5990384132208
 20
357.1871270774765
 30
0.0
 10
515.0218701860172
 20
355.5302683717902
 30
0.0
 10
515.3971622268693
 20
353.1398145726837
 30
0.0
 10
515.5541385282099
 20
350.9174801523856
 30
0.0
 10
515.4799860435254
 20
348.9422086698661
 30
0.0
 10
515.1770139648332
 20
347.2818656055369
 30
0.0
 10
514.7796521658215
 20
346.1997900697731
 30
0.0
 10
514.4752344733495
 20
345.6980915419168
 30
0.0
 10
514.3875847981903
 20
345.5536396454539
 30
0.0
  0
LINE
  5
136
330
1F
100
AcDbEntity
  8
0
  6
Continuous
 62
     7
370
    15
100
AcDbLine
 10
514.3875847982
 20
359.4648868989
 30
0.0
 11
514.3875847982
 21
358.0157042693
 31
0.0
  0
ARC
  5
137
330
1F
100
AcDbEntity
  8
0
  6
Continuous
 62
     7
370
    15
100
AcDbCircle
 10
514.1643561354
 20
356.618559249
 30
0.0
 40
1.41486580406607
100
AcDbArc
 50
80.9223005942
 51
110.3803324295
  0
LINE
  5
138
330
1F
100
AcDbEntity
  8
0
  6
Continuous
 62
     7
370
    15
100
AcDbLine
 10
505.249164574
 20
328.8498775314
 30
0.0
 11
505.249164574
 21
340.6658874105
 31
0.0
  0
ARC
  5
139
330
1F
100
AcDbEntity
  8
0
  6
Continuous
 62
     7
370
    15
100
AcDbCircle
 10
505.8238284307
 20
327.4134322829
 30
0.0
 40
1.547130731475094
100
AcDbArc
 50
83.0485172365
 51
111.8043582359
  0
SPLINE
  5
13A
330
1F
100
AcDbEntity
  8
0
  6
Continuous
 62
     7
370
    15
100
AcDbSpline
210
0.0
220
0.0
230
1.0
 70
     8
 71
     3
 72
    11
 73
     7
 74
     0
 42
0.00000001
 43
0.00000001
 40
0.0
 40
0.0
 40
0.0
 40
0.0
 40
0.334093183413553
 40
0.6236929404253014
 40
0.9185171594738929
 40
1.0
 40
1.0
 40
1.0
 40
1.0
 10
514.3875847981903
 20
326.7574154983726
 30
0.0
 10
514.1749365129151
 20
326.232549900991
 30
0.0
 10
513.7779597384579
 20
325.252718572455
 30
0.0
 10
512.6166576637434
 20
324.1699995251651
 30
0.0
 10
511.5445938708909
 20
323.6749437346024
 30
0.0
 10
510.89323401249
 20
323.5483966473813
 30
0.0
 10
510.752193205211
 20
323.5209950457778
 30
0.0
  0
SPLINE
  5
13B
330
1F
100
AcDbEntity
  8
0
  6
Continuous
 62
     7
370
    15
100
AcDbSpline
210
0.0
220
0.0
230
1.0
 70
     8
 71
     3
 72
    11
 73
     7
 74
     0
 42
0.00000001
 43
0.00000001
 40
0.0
 40
0.0
 40
0.0
 40
0.0
 40
0.0091480394166582
 40
0.5000046725283415
 40
0.9908519605833419
 40
1.0
 40
1.0
 40
1.0
 40
1.0
 10
510.7521932052109
 20
323.5209950457778
 30
0.0
 10
510.7474153686141
 20
323.5204905440083
 30
0.0
 10
510.4862730063909
 20
323.4929159752384
 30
0.0
 10
509.9604398155993
 20
323.4664675894725
 30
0.0
 10
509.4346068268559
 20
323.4929164905687
 30
0.0
 10
509.1734693452238
 20
323.5204905440077
 30
0.0
 10
509.1686915086243
 20
323.5209950457778
 30
0.0
  0
SPLINE
  5
13C
330
1F
100
AcDbEntity
  8
0
  6
Continuous
 62
     7
370
    15
100
AcDbSpline
210
0.0
220
0.0
230
1.0
 70
     8
 71
     3
 72
    12
 73
     8
 74
     0
 42
0.00000001
 43
0.00000001
 40
0.0
 40
0.0
 40
0.0
 40
0.0
 40
0.1136357193095876
 40
0.3008421812055239
 40
0.4919206401627774
 40
0.6964441356482189
 40
1.0
 40
1.0
 40
1.0
 40
1.0
 10
509.1686915086243
 20
323.5209950457778
 30
0.0
 10
508.8919368318265
 20
323.5820643525083
 30
0.0
 10
508.1592492479172
 20
323.7437408355116
 30
0.0
 10
507.0882682038429
 20
324.3387896234081
 30
0.0
 10
506.1211711459658
 20
325.3554463003803
 30
0.0
 10
505.3795119407689
 20
326.8679410651264
 30
0.0
 10
505.2979151782204
 20
328.1086228160096
 30
0.0
 10
505.2491645740006
 20
328.8498775314059
 30
0.0
  0
SPLINE
  5
13D
330
1F
100
AcDbEntity
  8
0
  6
Continuous
 62
     7
370
    15
100
AcDbSpline
210
0.0
220
0.0
230
1.0
 70
     8
 71
     3
 72
    12
 73
     8
 74
     0
 42
0.00000001
 43
0.00000001
 40
0.0
 40
0.0
 40
0.0
 40
0.0
 40
0.291731622068609
 40
0.5225561438647313
 40
0.7611462844464133
 40
0.9714509781262469
 40
1.0
 40
1.0
 40
1.0
 40
1.0
 10
505.2491645740006
 20
324.2506900082793
 30
0.0
 10
505.2943407804963
 20
324.2308699955333
 30
0.0
 10
505.375261402311
 20
324.1953679496513
 30
0.0
 10
506.1832421632851
 20
323.9341497238452
 30
0.0
 10
507.3947228280737
 20
323.6788178974688
 30
0.0
 10
508.5136735335114
 20
323.5543087717677
 30
0.0
 10
509.0987590813085
 20
323.5245517569062
 30
0.0
 10
509.1686915086243
 20
323.5209950457778
 30
0.0
  0
LINE
  5
13E
330
1F
100
AcDbEntity
  8
0
  6
Continuous
 62
     7
370
    15
100
AcDbLine
 10
505.249164574
 20
328.8498775314
 30
0.0
 11
505.249164574
 21
324.2506900083
 31
0.0
  0
ARC
  5
13F
330
1F
100
AcDbEntity
  8
0
  6
Continuous
 62
     7
370
    15
100
AcDbCircle
 10
513.6670339343
 20
324.2983060916
 30
0.0
 40
0.7364552195685313
100
AcDbArc
 50
270.357472859
 51
348.0709134551
  0
SPLINE
  5
140
330
1F
100
AcDbEntity
  8
0
  6
Continuous
 62
     7
370
    15
100
AcDbSpline
210
0.0
220
0.0
230
1.0
 70
     8
 71
     3
 72
    16
 73
    12
 74
     0
 42
0.00000001
 43
0.00000001
 40
0.0
 40
0.0
 40
0.0
 40
0.0
 40
0.112816809517302
 40
0.2270423716300191
 40
0.3381147981159857
 40
0.4495832524842647
 40
0.5641057618008357
 40
0.6887518057486718
 40
0.8301076862127615
 40
0.9685039878254832
 40
1.0
 40
1.0
 40
1.0
 40
1.0
 10
513.6716287063095
 20
323.5618652056422
 30
0.0
 10
513.5377307430814
 20
323.5464584554729
 30
0.0
 10
513.268262821964
 20
323.5154525698027
 30
0.0
 10
512.5002032832944
 20
323.3959877635832
 30
0.0
 10
511.4959344659458
 20
323.2834429720175
 30
0.0
 10
510.3258981423496
 20
323.2205355321146
 30
0.0
 10
509.0709909945023
 20
323.2368209446323
 30
0.0
 10
507.8059142219663
 20
323.3442367904526
 30
0.0
 10
506.8084668600363
 20
323.4830849942267
 30
0.0
 10
506.2786842546722
 20
323.5816329992477
 30
0.0
 10
506.2181701967349
 20
323.5547085131318
 30
0.0
 10
506.2069516108963
 20
323.5497170339789
 30
0.0
  0
ARC
  5
141
330
1F
100
AcDbEntity
  8
0
  6
Continuous
 62
     7
370
    15
100
AcDbCircle
 10
506.0094027971
 20
324.2523660008
 30
0.0
 40
0.7602400705062171
100
AcDbArc
 50
180.1263119127
 51
270.1260901389
  0
SPLINE
  5
142
330
1F
100
AcDbEntity
  8
0
  6
Continuous
 62
     7
370
    15
100
AcDbSpline
210
0.0
220
0.0
230
1.0
 70
     8
 71
     3
 72
    11
 73
     7
 74
     0
 42
0.00000001
 43
0.00000001
 40
0.0
 40
0.0
 40
0.0
 40
0.0
 40
0.1990375103699237
 40
0.4636312691642578
 40
0.7350865844015047
 40
1.0
 40
1.0
 40
1.0
 40
1.0
 10
510.7521932052109
 20
323.5209950457778
 30
0.0
 10
511.0952430212614
 20
323.5435854452879
 30
0.0
 10
511.8943317021159
 20
323.5962067606187
 30
0.0
 10
512.9880913756092
 20
323.7698147791234
 30
0.0
 10
513.9018352450412
 20
323.9857332945852
 30
0.0
 10
514.2269902138447
 20
324.0930675584809
 30
0.0
 10
514.3875847981903
 20
324.1460801314082
 30
0.0
  0
LWPOLYLINE
  5
143
330
1F
100
AcDbEntity
  8
0
  6
Continuous
 62
     7
370
    15
100
AcDbPolyline
 90
        9
 70
   128
 43
0.0
 10
506.011075847
 20
356.1149643015
 10
505.8624367641
 20
356.110389645
 10
505.7195048259
 20
356.0968295883
 10
505.587778561
 20
356.074805672
 10
505.472324364
 20
356.045174713
 10
505.37756788
 20
356.0090691994
 10
505.3071598934
 20
355.9678749393
 10
505.2638124155
 20
355.9231714557
 10
505.249164574
 20
355.8766872834
  0
LINE
  5
144
330
1F
100
AcDbEntity
  8
0
  6
Continuous
 62
     7
370
    15
100
AcDbLine
 10
505.249164574
 20
346.4009792756
 30
0.0
 11
505.249164574
 21
355.8766872834
 31
0.0
  0
SPLINE
  5
145
330
1F
100
AcDbEntity
  8
0
  6
Continuous
 62
     7
370
    15
100
AcDbSpline
210
0.0
220
0.0
230
1.0
 70
    24
 71
     1
 72
     4
 73
     2
 74
     0
 42
0.00000001
 43
0.00000001
 40
0.0
 40
0.0
 40
1.0
 40
1.0
 10
513.7517373488877
 20
323.5439428340163
 30
0.0
 10
513.6716287063095
 20
323.5618652056422
 30
0.0
  0
SPLINE
  5
146
330
1F
100
AcDbEntity
  8
0
  6
Continuous
 62
     7
370
    15
100
AcDbSpline
210
0.0
220
0.0
230
1.0
 70
     8
 71
     3
 72
    16
 73
    12
 74
     0
 42
0.00000001
 43
0.00000001
 40
0.0
 40
0.0
 40
0.0
 40
0.0
 40
0.1632158240516444
 40
0.2700788056459447
 40
0.368808001467065
 40
0.4654137870569194
 40
0.5626678188201371
 40
0.6630034069909854
 40
0.7707090608746339
 40
0.8765172827159753
 40
1.0
 40
1.0
 40
1.0
 40
1.0
 10
506.0110758470032
 20
318.463391924974
 30
0.0
 10
506.0497252314115
 20
317.9673653467405
 30
0.0
 10
506.1136796895075
 20
317.1465732048246
 30
0.0
 10
506.7376136785482
 20
316.0016701286821
 30
0.0
 10
507.5518551968443
 20
315.1994497009432
 30
0.0
 10
508.5891346705983
 20
314.6566719064297
 30
0.0
 10
509.7738587694545
 20
314.4265766050829
 30
0.0
 10
511.027107073988
 20
314.5536036374091
 30
0.0
 10
512.187046407495
 20
315.063425441691
 30
0.0
 10
513.1657942961493
 20
315.9311546001449
 30
0.0
 10
513.4945695457757
 20
316.6433964982342
 30
0.0
 10
513.6716287063097
 20
317.0269684146609
 30
0.0
  0
LINE
  5
147
330
1F
100
AcDbEntity
  8
0
  6
Continuous
 62
     7
370
    15
100
AcDbLine
 10
506.011075847
 20
323.4921277713
 30
0.0
 11
506.011075847
 21
318.463391925
 31
0.0
  0
ARC
  5
148
330
1F
100
AcDbEntity
  8
0
  6
Continuous
 62
     7
370
    15
100
AcDbCircle
 10
513.8973239022
 20
317.5946818944
 30
0.0
 40
0.6109311880210243
100
AcDbArc
 50
248.3196441076
 51
323.3677132232
  0
ARC
  5
149
330
1F
100
AcDbEntity
  8
0
  6
Continuous
 62
     7
370
    15
100
AcDbCircle
 10
505.9123109861
 20
319.1344128001
 30
0.0
 40
0.6782503317996122
100
AcDbArc
 50
192.1142549092
 51
278.3730169498
  0
LINE
  5
14A
330
1F
100
AcDbEntity
  8
0
  6
Continuous
 62
     7
370
    15
100
AcDbLine
 10
505.249164574
 20
318.9920739483
 30
0.0
 11
505.249164574
 21
324.2506900083
 31
0.0
  0
SPLINE
  5
14B
330
1F
100
AcDbEntity
  8
0
  6
Continuous
 62
     7
370
    15
100
AcDbSpline
210
0.0
220
0.0
230
1.0
 70
     8
 71
     3
 72
    11
 73
     7
 74
     0
 42
0.00000001
 43
0.00000001
 40
0.0
 40
0.0
 40
0.0
 40
0.0
 40
0.1990374626276772
 40
0.4636313102324444
 40
0.7350862988613814
 40
1.0
 40
1.0
 40
1.0
 40
1.0
 10
510.7521932052109
 20
361.5303145002093
 30
0.0
 10
511.0952430847486
 20
361.4403293784866
 30
0.0
 10
511.8943321759446
 20
361.2307209995668
 30
0.0
 10
512.9880902260077
 20
360.4717507549458
 30
0.0
 10
513.9018363447875
 20
359.3525228459393
 30
0.0
 10
514.226990453333
 20
358.457672744959
 30
0.0
 10
514.3875847981903
 20
358.0157042692866
 30
0.0
  0
SPLINE
  5
14C
330
1F
100
AcDbEntity
  8
0
  6
Continuous
 62
     7
370
    15
100
AcDbSpline
210
0.0
220
0.0
230
1.0
 70
     8
 71
     3
 72
    12
 73
     8
 74
     0
 42
0.00000001
 43
0.00000001
 40
0.0
 40
0.0
 40
0.0
 40
0.0
 40
0.2917317801072279
 40
0.522556101618799
 40
0.7611462372403631
 40
0.9714510020703523
 40
1.0
 40
1.0
 40
1.0
 40
1.0
 10
505.2491645740006
 20
355.8766872833934
 30
0.0
 10
505.2943406221742
 20
356.5966618534049
 30
0.0
 10
505.3752609100201
 20
357.8862954491401
 30
0.0
 10
506.1832425601746
 20
359.652179999258
 30
0.0
 10
507.3947233830611
 20
360.8964387382341
 30
0.0
 10
508.5136728760957
 20
361.397393780944
 30
0.0
 10
509.0987590758561
 20
361.516123347772
 30
0.0
 10
509.1686915086244
 20
361.5303145002093
 30
0.0
  0
SPLINE
  5
14D
330
1F
100
AcDbEntity
  8
0
  6
Continuous
 62
     7
370
    15
100
AcDbSpline
210
0.0
220
0.0
230
1.0
 70
     8
 71
     3
 72
    11
 73
     7
 74
     0
 42
0.00000001
 43
0.00000001
 40
0.0
 40
0.0
 40
0.0
 40
0.0
 40
0.0091482408254457
 40
0.499995327475713
 40
0.9908517591745543
 40
1.0
 40
1.0
 40
1.0
 40
1.0
 10
509.1686915086243
 20
361.5303145002093
 30
0.0
 10
509.1734693442226
 20
361.5310444788581
 30
0.0
 10
509.4346010219
 20
361.5709413202848
 30
0.0
 10
509.9604398156472
 20
361.6090661457463
 30
0.0
 10
510.4862788114571
 20
361.5709420659063
 30
0.0
 10
510.7474153696153
 20
361.531044478857
 30
0.0
 10
510.7521932052109
 20
361.5303145002093
 30
0.0
  0
SPLINE
  5
14E
330
1F
100
AcDbEntity
  8
0
  6
Continuous
 62
     7
370
    15
100
AcDbSpline
210
0.0
220
0.0
230
1.0
 70
     8
 71
     3
 72
    12
 73
     8
 74
     0
 42
0.00000001
 43
0.00000001
 40
0.0
 40
0.0
 40
0.0
 40
0.0
 40
0.1136356172459068
 40
0.3008419990494814
 40
0.4919206855811588
 40
0.6964443508709619
 40
1.0
 40
1.0
 40
1.0
 40
1.0
 10
509.1686915086243
 20
361.5303145002093
 30
0.0
 10
508.8919368249193
 20
361.4859561448226
 30
0.0
 10
508.1592490082818
 20
361.3685206379585
 30
0.0
 10
507.0882671481746
 20
360.9469774009361
 30
0.0
 10
506.1211714816797
 20
360.2792301748157
 30
0.0
 10
505.3795123256949
 20
359.3686883355284
 30
0.0
 10
505.2979153032757
 20
358.7804733891819
 30
0.0
 10
505.2491645740006
 20
358.4290401290622
 30
0.0
  0
LINE
  5
14F
330
1F
100
AcDbEntity
  8
0
  6
Continuous
 62
     7
370
    15
100
AcDbLine
 10
505.249164574
 20
358.4290401291
 30
0.0
 11
505.249164574
 21
355.8766872834
 31
0.0
  0
SPLINE
  5
150
330
1F
100
AcDbEntity
  8
0
  6
Continuous
 62
     7
370
    15
100
AcDbSpline
210
0.0
220
0.0
230
1.0
 70
     8
 71
     3
 72
    11
 73
     7
 74
     0
 42
0.00000001
 43
0.00000001
 40
0.0
 40
0.0
 40
0.0
 40
0.0
 40
0.334093208742848
 40
0.6236932190365655
 40
0.9185170653480814
 40
0.9999999999999999
 40
0.9999999999999999
 40
0.9999999999999999
 40
0.9999999999999999
 10
514.3875847981903
 20
359.4648868988719
 30
0.0
 10
514.1749362785214
 20
359.7678932971413
 30
0.0
 10
513.7779589192546
 20
360.333552912422
 30
0.0
 10
512.6166598023168
 20
361.0648292215681
 30
0.0
 10
511.54459238197
 20
361.4183087554809
 30
0.0
 10
510.8932339672371
 20
361.5103783669432
 30
0.0
 10
510.7521932052109
 20
361.5303145002093
 30
0.0
  0
LWPOLYLINE
  5
151
330
1F
100
AcDbEntity
  8
0
  6
Continuous
 62
     7
370
    15
100
AcDbPolyline
 90
        3
 70
   128
 43
0.0
 10
514.3875847982
 20
359.4648868989
 10
514.3496017383
 20
359.5684574197
 10
514.324061148
 20
359.6156568478
  0
LINE
  5
152
330
1F
100
AcDbEntity
  8
0
  6
Continuous
 62
     7
370
    15
100
AcDbLine
 10
486.2491633223
 20
349.5664627503
 30
0.0
 11
486.2491633223
 21
328.5664611708
 31
0.0
  0
LINE
  5
153
330
1F
100
AcDbEntity
  8
0
  6
Continuous
 62
     7
370
    15
100
AcDbLine
 10
505.249164574
 20
357.341590638
 30
0.0
 11
505.249164574
 21
358.4290401291
 31
0.0
  0
LINE
  5
154
330
1F
100
AcDbEntity
  8
0
  6
Continuous
 62
     7
370
    15
100
AcDbLine
 10
482.2491626667
 20
344.0664665054
 30
0.0
 11
482.2491626667
 21
334.066461141
 31
0.0
  0
LINE
  5
155
330
1F
100
AcDbEntity
  8
0
  6
Continuous
 62
     7
370
    15
100
AcDbLine
 10
481.7803572343
 20
343.254464979
 30
0.0
 11
481.7803572343
 21
334.8784626673
 31
0.0
  0
LINE
  5
156
330
1F
100
AcDbEntity
  8
0
  6
Continuous
 62
     7
370
    15
100
AcDbLine
 10
479.4108490871
 20
343.254464979
 30
0.0
 11
479.4108490871
 21
334.8784626673
 31
0.0
  0
LINE
  5
157
330
1F
100
AcDbEntity
  8
0
  6
Continuous
 62
     7
370
    15
100
AcDbLine
 10
478.9420436548
 20
344.0664665054
 30
0.0
 11
478.9420436548
 21
334.066461141
 31
0.0
  0
LINE
  5
158
330
1F
100
AcDbEntity
  8
0
  6
Continuous
 62
     7
370
    15
100
AcDbLine
 10
480.2491660641
 20
344.0664665054
 30
0.0
 11
480.2491660641
 21
334.066461141
 31
0.0
  0
LINE
  5
159
330
1F
100
AcDbEntity
  8
0
  6
Continuous
 62
     7
370
    15
100
AcDbLine
 10
479.7803531812
 20
343.254464979
 30
0.0
 11
479.7803531812
 21
334.8784626673
 31
0.0
  0
LINE
  5
15A
330
1F
100
AcDbEntity
  8
0
  6
Continuous
 62
     7
370
    15
100
AcDbLine
 10
483.4108497427
 20
343.254464979
 30
0.0
 11
483.4108497427
 21
334.8784626673
 31
0.0
  0
LINE
  5
15B
330
1F
100
AcDbEntity
  8
0
  6
Continuous
 62
     7
370
    15
100
AcDbLine
 10
482.9420443104
 20
344.0664665054
 30
0.0
 11
482.9420443104
 21
334.066461141
 31
0.0
  0
LINE
  5
15C
330
1F
100
AcDbEntity
  8
0
  6
Continuous
 62
     7
370
    15
100
AcDbLine
 10
484.2491667198
 20
344.0664665054
 30
0.0
 11
484.2491667198
 21
334.066461141
 31
0.0
  0
LINE
  5
15D
330
1F
100
AcDbEntity
  8
0
  6
Continuous
 62
     7
370
    15
100
AcDbLine
 10
483.7803538369
 20
343.254464979
 30
0.0
 11
483.7803538369
 21
334.8784626673
 31
0.0
  0
LINE
  5
15E
330
1F
100
AcDbEntity
  8
0
  6
Continuous
 62
     7
370
    15
100
AcDbLine
 10
485.4108537959
 20
343.254464979
 30
0.0
 11
485.4108537959
 21
334.8784626673
 31
0.0
  0
LINE
  5
15F
330
1F
100
AcDbEntity
  8
0
  6
Continuous
 62
     7
370
    15
100
AcDbLine
 10
484.942040913
 20
344.0664665054
 30
0.0
 11
484.942040913
 21
334.066461141
 31
0.0
  0
LINE
  5
160
330
1F
100
AcDbEntity
  8
0
  6
Continuous
 62
     7
370
    15
100
AcDbLine
 10
480.9420477079
 20
344.0664665054
 30
0.0
 11
480.9420477079
 21
334.066461141
 31
0.0
  0
LINE
  5
161
330
1F
100
AcDbEntity
  8
0
  6
Continuous
 62
     7
370
    15
100
AcDbLine
 10
478.249162011
 20
344.0664665054
 30
0.0
 11
478.249162011
 21
334.066461141
 31
0.0
  0
LINE
  5
162
330
1F
100
AcDbEntity
  8
0
  6
Continuous
 62
     7
370
    15
100
AcDbLine
 10
477.7803565787
 20
343.254464979
 30
0.0
 11
477.7803565787
 21
334.8784626673
 31
0.0
  0
LINE
  5
163
330
1F
100
AcDbEntity
  8
0
  6
Continuous
 62
     7
370
    15
100
AcDbLine
 10
481.4108531402
 20
343.254464979
 30
0.0
 11
481.4108531402
 21
334.8784626673
 31
0.0
  0
LINE
  5
164
330
1F
100
AcDbEntity
  8
0
  6
Continuous
 62
     7
370
    15
100
AcDbLine
 10
485.78035789
 20
343.254464979
 30
0.0
 11
485.78035789
 21
334.8784626673
 31
0.0
  0
LINE
  5
165
330
1F
100
AcDbEntity
  8
0
  6
Continuous
 62
     7
370
    15
100
AcDbLine
 10
466.2491674946
 20
344.0664665054
 30
0.0
 11
466.2491674946
 21
334.066461141
 31
0.0
  0
LINE
  5
166
330
1F
100
AcDbEntity
  8
0
  6
Continuous
 62
     7
370
    15
100
AcDbLine
 10
466.9420416878
 20
344.0664665054
 30
0.0
 11
466.9420416878
 21
334.066461141
 31
0.0
  0
LINE
  5
167
330
1F
100
AcDbEntity
  8
0
  6
Continuous
 62
     7
370
    15
100
AcDbLine
 10
465.7803546117
 20
343.254464979
 30
0.0
 11
465.7803546117
 21
334.8784626673
 31
0.0
  0
LINE
  5
168
330
1F
100
AcDbEntity
  8
0
  6
Continuous
 62
     7
370
    15
100
AcDbLine
 10
467.4108545707
 20
343.254464979
 30
0.0
 11
467.4108545707
 21
334.8784626673
 31
0.0
  0
LINE
  5
169
330
1F
100
AcDbEntity
  8
0
  6
Continuous
 62
     7
370
    15
100
AcDbLine
 10
465.0544594453
 20
343.8717530321
 30
0.0
 11
465.0544594453
 21
334.261170889
 31
0.0
  0
LINE
  5
16A
330
1F
100
AcDbEntity
  8
0
  6
Continuous
 62
     7
370
    15
100
AcDbLine
 10
465.4108505176
 20
343.254464979
 30
0.0
 11
465.4108505176
 21
334.8784626673
 31
0.0
  0
SPLINE
  5
16B
330
1F
100
AcDbEntity
  8
0
  6
Continuous
 62
     7
370
    15
100
AcDbSpline
210
0.0
220
0.0
230
1.0
 70
     8
 71
     3
 72
    11
 73
     7
 74
     0
 42
0.00000001
 43
0.00000001
 40
0.0
 40
0.0
 40
0.0
 40
0.0
 40
0.334093113944848
 40
0.6236929259848001
 40
0.9185171271114039
 40
0.9999999999999999
 40
0.9999999999999999
 40
0.9999999999999999
 40
0.9999999999999999
 10
514.3875847981903
 20
317.2301531981196
 30
0.0
 10
514.1749364442657
 20
316.7535741849676
 30
0.0
 10
513.7779594682987
 20
315.8638852127345
 30
0.0
 10
512.6166579547518
 20
314.7955969082238
 30
0.0
 10
511.5445935914338
 20
314.2917994197912
 30
0.0
 10
510.8932340043464
 20
314.161650016175
 30
0.0
 10
510.7521932052109
 20
314.1334683846202
 30
0.0
  0
SPLINE
  5
16C
330
1F
100
AcDbEntity
  8
0
  6
Continuous
 62
     7
370
    15
100
AcDbSpline
210
0.0
220
0.0
230
1.0
 70
     8
 71
     3
 72
    11
 73
     7
 74
     0
 42
0.00000001
 43
0.00000001
 40
0.0
 40
0.0
 40
0.0
 40
0.0
 40
0.0091481584204378
 40
0.5000046725249415
 40
0.9908518415795623
 40
1.0
 40
1.0
 40
1.0
 40
1.0
 10
510.7521932052109
 20
314.1334683846202
 30
0.0
 10
510.7474153692058
 20
314.1326586858922
 30
0.0
 10
510.4862764363862
 20
314.0884035332456
 30
0.0
 10
509.9604398156241
 20
314.0460354392508
 30
0.0
 10
509.4346033969286
 20
314.0884043603075
 30
0.0
 10
509.1734693446322
 20
314.132658685891
 30
0.0
 10
509.1686915086243
 20
314.1334683846202
 30
0.0
  0
SPLINE
  5
16D
330
1F
100
AcDbEntity
  8
0
  6
Continuous
 62
     7
370
    15
100
AcDbSpline
210
0.0
220
0.0
230
1.0
 70
     8
 71
     3
 72
    12
 73
     8
 74
     0
 42
0.00000001
 43
0.00000001
 40
0.0
 40
0.0
 40
0.0
 40
0.0
 40
0.1136355918318261
 40
0.3008420904265959
 40
0.4919206983949481
 40
0.6964442031443264
 40
1.0
 40
1.0
 40
1.0
 40
1.0
 10
509.1686915086243
 20
314.1334683846202
 30
0.0
 10
508.8919367725022
 20
314.1962193038844
 30
0.0
 10
508.1592484306872
 20
314.3623478682131
 30
0.0
 10
507.0882679454488
 20
314.9652231647082
 30
0.0
 10
506.1211715273892
 20
315.9531684208055
 30
0.0
 10
505.3795119318581
 20
317.3564873723045
 30
0.0
 10
505.2979151715998
 20
318.3803559639937
 30
0.0
 10
505.2491645740007
 20
318.9920739482608
 30
0.0
  0
LINE
  5
16E
330
1F
100
AcDbEntity
  8
0
  6
Continuous
 62
     7
370
    15
100
AcDbLine
 10
505.249164574
 20
318.9920739483
 30
0.0
 11
505.249164574
 21
318.7777393709
 31
0.0
  0
LINE
  5
16F
330
1F
100
AcDbEntity
  8
0
  6
Continuous
 62
     7
370
    15
100
AcDbLine
 10
458.2491661833
 20
245.1841098468
 30
0.0
 11
461.2491648124
 21
245.1841098468
 31
0.0
  0
LINE
  5
170
330
1F
100
AcDbEntity
  8
0
  6
Continuous
 62
     7
370
    15
100
AcDbLine
 10
461.2491648124
 20
346.0664631079
 30
0.0
 11
461.2491648124
 21
245.1841098468
 31
0.0
  0
LINE
  5
171
330
1F
100
AcDbEntity
  8
0
  6
Continuous
 62
     7
370
    15
100
AcDbLine
 10
458.2491661833
 20
346.0664631079
 30
0.0
 11
458.2491661833
 21
245.1841098468
 31
0.0
  0
LINE
  5
172
330
1F
100
AcDbEntity
  8
0
  6
Continuous
 62
     7
370
    15
100
AcDbLine
 10
461.2491648124
 20
244.06646129
 30
0.0
 11
458.2491661833
 21
244.06646129
 31
0.0
  0
LINE
  5
173
330
1F
100
AcDbEntity
  8
0
  6
Continuous
 62
     7
370
    15
100
AcDbLine
 10
461.2491648124
 20
245.1841098468
 30
0.0
 11
461.2491648124
 21
244.06646129
 31
0.0
  0
LINE
  5
174
330
1F
100
AcDbEntity
  8
0
  6
Continuous
 62
     7
370
    15
100
AcDbLine
 10
458.2491661833
 20
244.06646129
 30
0.0
 11
458.2491661833
 21
245.1841098468
 31
0.0
  0
LWPOLYLINE
  5
175
330
1F
100
AcDbEntity
  8
0
  6
Continuous
 62
     7
370
    15
100
AcDbPolyline
 90
       20
 70
   128
 43
0.0
 10
487.557008438
 20
483.9334295343
 10
487.2375722455
 20
483.9386896442
 10
486.5128170179
 20
483.9505211662
 10
485.3949840592
 20
483.9684025596
 10
483.96723675
 20
483.9905754875
 10
482.2385083364
 20
484.0162501882
 10
480.1880191492
 20
484.0476022314
 10
477.9191236423
 20
484.0688065838
 10
475.4636134432
 20
484.065498526
 10
472.927756183
 20
484.0581522535
 10
470.5212410019
 20
484.062264974
 10
468.1699867772
 20
484.0690599035
 10
465.8160875963
 20
484.0547398876
 10
463.6706482099
 20
484.0235666584
 10
461.8021022008
 20
483.9961932253
 10
460.2482165621
 20
483.9722619604
 10
459.0548049139
 20
483.9532629799
 10
458.2547243165
 20
483.940239365
 10
457.8412394451
 20
483.9334295343
 10
457.8412394451
 20
483.9334295343
  0
LINE
  5
176
330
1F
100
AcDbEntity
  8
0
  6
Continuous
 62
     7
370
    15
100
AcDbLine
 10
457.1991633104
 20
346.0664631079
 30
0.0
 11
449.1991619991
 21
346.0664631079
 31
0.0
  0
LINE
  5
177
330
1F
100
AcDbEntity
  8
0
  6
Continuous
 62
     7
370
    15
100
AcDbLine
 10
463.1991680191
 20
352.0664603661
 30
0.0
 11
463.1991680191
 21
360.0664616774
 31
0.0
  0
SPLINE
  5
178
330
1F
100
AcDbEntity
  8
0
  6
Continuous
 62
     7
370
    15
100
AcDbSpline
210
0.0
220
0.0
230
1.0
 70
     8
 71
     3
 72
    11
 73
     7
 74
     0
 42
0.00000001
 43
0.00000001
 40
0.0
 40
0.0
 40
0.0
 40
0.0
 40
0.2615517891325123
 40
0.5645066567024972
 40
0.8758028267262036
 40
1.0
 40
1.0
 40
1.0
 40
1.0
 10
515.5018340276215
 20
357.5922579716411
 30
0.0
 10
515.4937515818143
 20
357.6059931443099
 30
0.0
 10
515.476307256636
 20
357.6356377375594
 30
0.0
 10
515.1760535201867
 20
358.1439743503801
 30
0.0
 10
514.7828098433748
 20
358.80583937656
 30
0.0
 10
514.4752865404311
 20
359.3186420780276
 30
0.0
 10
514.3875847981903
 20
359.4648868988719
 30
0.0
  0
LINE
  5
179
330
1F
100
AcDbEntity
  8
0
  6
Continuous
 62
     7
370
    15
100
AcDbLine
 10
514.3875847982
 20
317.2301531981
 30
0.0
 11
514.3875847982
 21
317.1663874041
 31
0.0
  0
SPLINE
  5
17A
330
1F
100
AcDbEntity
  8
0
  6
Continuous
 62
     7
370
    15
100
AcDbSpline
210
0.0
220
0.0
230
1.0
 70
    24
 71
     1
 72
     4
 73
     2
 74
     0
 42
0.00000001
 43
0.00000001
 40
0.0
 40
0.0
 40
1.0
 40
1.0
 10
506.115369074199
 20
323.5227906357017
 30
0.0
 10
506.0110758470032
 20
323.492127771255
 30
0.0
  0
SPLINE
  5
17B
330
1F
100
AcDbEntity
  8
0
  6
Continuous
 62
     7
370
    15
100
AcDbSpline
210
0.0
220
0.0
230
1.0
 70
     8
 71
     3
 72
    14
 73
    10
 74
     0
 42
0.00000001
 43
0.00000001
 40
0.0
 40
0.0
 40
0.0
 40
0.0
 40
0.0685336355101451
 40
0.235439879075948
 40
0.4069224465310982
 40
0.5780225877913067
 40
0.7545115399444328
 40
0.9257559340147332
 40
1.0
 40
1.0
 40
1.0
 40
1.0
 10
513.6716287063095
 20
317.0269684146609
 30
0.0
 10
513.758194254785
 20
317.2748712967805
 30
0.0
 10
514.0555808170697
 20
318.1265147876645
 30
0.0
 10
514.451043875359
 20
319.4847922249169
 30
0.0
 10
514.7478930333073
 20
320.9512226345873
 30
0.0
 10
514.8277691846355
 20
322.1504746525221
 30
0.0
 10
514.6655828143383
 20
322.985680612486
 30
0.0
 10
514.3880062724854
 20
323.4344434753294
 30
0.0
 10
514.10068492473
 20
323.4735074041804
 30
0.0
 10
514.0137891696427
 20
323.4853216658797
 30
0.0
  0
LINE
  5
17C
330
1F
100
AcDbEntity
  8
0
  6
Continuous
 62
     7
370
    15
100
AcDbLine
 10
171.5429759189
 20
353.0664623927
 30
0.0
 11
167.7429749235
 21
353.0664623927
 31
0.0
  0
LINE
  5
17D
330
1F
100
AcDbEntity
  8
0
  6
Continuous
 62
     7
370
    15
100
AcDbLine
 10
167.7429749235
 20
199.0664632271
 30
0.0
 11
171.5429759189
 21
199.0664632271
 31
0.0
  0
LINE
  5
17E
330
1F
100
AcDbEntity
  8
0
  6
Continuous
 62
     7
370
    15
100
AcDbLine
 10
125.7429754897
 20
353.0664623927
 30
0.0
 11
121.9429744943
 21
353.0664623927
 31
0.0
  0
LINE
  5
17F
330
1F
100
AcDbEntity
  8
0
  6
Continuous
 62
     7
370
    15
100
AcDbLine
 10
121.9429744943
 20
199.0664632271
 30
0.0
 11
125.7429754897
 21
199.0664632271
 31
0.0
  0
LINE
  5
180
330
1F
100
AcDbEntity
  8
0
  6
Continuous
 62
     7
370
    15
100
AcDbLine
 10
167.7429749235
 20
332.0664645385
 30
0.0
 11
167.5429752632
 21
332.0664645385
 31
0.0
  0
LINE
  5
181
330
1F
100
AcDbEntity
  8
0
  6
Continuous
 62
     7
370
    15
100
AcDbLine
 10
125.7429754897
 20
220.0664610814
 30
0.0
 11
125.94297515
 21
220.0664610814
 31
0.0
  0
LINE
  5
182
330
1F
100
AcDbEntity
  8
0
  6
Continuous
 62
     7
370
    15
100
AcDbLine
 10
167.5429752632
 20
220.0664610814
 30
0.0
 11
167.7429749235
 21
220.0664610814
 31
0.0
  0
LWPOLYLINE
  5
183
330
1F
100
AcDbEntity
  8
0
  6
Continuous
 62
     7
370
    15
100
AcDbPolyline
 90
       21
 70
   128
 43
0.0
 10
131.7513444065
 20
484.0583459686
 10
131.8006830826
 20
472.3721252035
 10
131.8505172222
 20
460.8645544599
 10
131.8972761347
 20
450.2614543985
 10
131.9405677333
 20
440.5627952169
 10
131.9801005139
 20
431.7685918163
 10
132.0150781959
 20
424.011807258
 10
132.0461331471
 20
417.1274558853
 10
132.0732355654
 20
411.1155525993
 10
132.0964189782
 20
405.9760974001
 10
132.1130868583
 20
402.2995040964
 10
132.1271703183
 20
399.2280022453
 10
132.1404118627
 20
396.2758586954
 10
132.1534326836
 20
393.2482631158
 10
132.1661629319
 20
390.145222957
 10
132.1785392776
 20
386.9667382191
 10
132.1898297011
 20
383.9007721494
 10
132.2012253641
 20
380.5924461435
 10
132.2140561953
 20
376.5334145378
 10
132.2280912265
 20
371.6914237689
 10
132.2429756238
 20
366.0664663862
  0
LWPOLYLINE
  5
184
330
1F
100
AcDbEntity
  8
0
  6
Continuous
 62
     7
370
    15
100
AcDbPolyline
 90
        3
 70
   128
 43
0.0
 10
161.2429747894
 20
366.0664663862
 10
161.3597030356
 20
400.3310383509
 10
161.7344225361
 20
484.0585396837
  0
LINE
  5
185
330
1F
100
AcDbEntity
  8
0
  6
Continuous
 62
     7
370
    15
100
AcDbLine
 10
146.4733807207
 20
486.0664562534
 30
0.0
 11
144.8894380429
 21
486.0664562534
 31
0.0
  0
ARC
  5
186
330
1F
100
AcDbEntity
  8
0
  6
Continuous
 62
     7
370
    15
100
AcDbCircle
 10
159.734671909
 20
484.0664640827
 30
0.0
 40
1.999992170721337
100
AcDbArc
 50
359.9356263045
 51
90.0003232088
  0
ARC
  5
187
330
1F
100
AcDbEntity
  8
0
  6
Continuous
 62
     7
370
    15
100
AcDbCircle
 10
133.7512843008
 20
484.0664628099
 30
0.0
 40
2.000000000000052
100
AcDbArc
 50
90.0000189072
 51
180.1699205162
  0
ARC
  5
188
330
1F
100
AcDbEntity
  8
0
  6
Continuous
 62
     7
370
    15
100
AcDbCircle
 10
170.3798910898
 20
344.44437437
 30
0.0
 40
0.7499446803215073
100
AcDbArc
 50
14.1063291705
 51
77.1680701292
  0
ARC
  5
189
330
1F
100
AcDbEntity
  8
0
  6
Continuous
 62
     7
370
    15
100
AcDbCircle
 10
165.6847721209
 20
323.9394761078
 30
0.0
 40
0.7501179343612439
100
AcDbArc
 50
322.685192669
 51
25.7312702884
  0
ARC
  5
18A
330
1F
100
AcDbEntity
  8
0
  6
Continuous
 62
     7
370
    15
100
AcDbCircle
 10
170.3781893433
 20
344.4774722705
 30
0.0
 40
0.7466653213740475
100
AcDbArc
 50
309.0435724002
 51
11.5909949482
  0
ARC
  5
18B
330
1F
100
AcDbEntity
  8
0
  6
Continuous
 62
     7
370
    15
100
AcDbCircle
 10
165.709743417
 20
323.9615385899
 30
0.0
 40
0.7467777871303043
100
AcDbArc
 50
257.620227356
 51
320.157178091
  0
ARC
  5
18C
330
1F
100
AcDbEntity
  8
0
  6
Continuous
 62
     7
370
    15
100
AcDbCircle
 10
157.2487069345
 20
360.9188706001
 30
0.0
 40
0.7467531778464134
100
AcDbArc
 50
0.4759735812
 51
63.0154182215
  0
ARC
  5
18D
330
1F
100
AcDbEntity
  8
0
  6
Continuous
 62
     7
370
    15
100
AcDbCircle
 10
157.2757399093
 20
360.899539416
 30
0.0
 40
0.7500155067094989
100
AcDbArc
 50
65.5379143496
 51
128.5934806606
  0
ARC
  5
18E
330
1F
100
AcDbEntity
  8
0
  6
Continuous
 62
     7
370
    15
100
AcDbCircle
 10
146.7262635601
 20
314.8256085394
 30
0.0
 40
0.7500769111315008
100
AcDbArc
 50
271.2547445596
 51
334.3044529489
  0
ARC
  5
18F
330
1F
100
AcDbEntity
  8
0
  6
Continuous
 62
     7
370
    15
100
AcDbCircle
 10
146.7590353582
 20
314.8198437227
 30
0.0
 40
0.7467407815095477
100
AcDbArc
 50
206.1897672938
 51
268.7301980425
  0
ARC
  5
190
330
1F
100
AcDbEntity
  8
0
  6
Continuous
 62
     7
370
    15
100
AcDbCircle
 10
136.240298101
 20
360.913982519
 30
0.0
 40
0.7500549567422321
100
AcDbArc
 50
116.9680742482
 51
180.0201030693
  0
ARC
  5
191
330
1F
100
AcDbEntity
  8
0
  6
Continuous
 62
     7
370
    15
100
AcDbCircle
 10
136.2082881272
 20
360.9049008259
 30
0.0
 40
0.7467777693197418
100
AcDbArc
 50
51.905988271
 51
114.4428109865
  0
ARC
  5
192
330
1F
100
AcDbEntity
  8
0
  6
Continuous
 62
     7
370
    15
100
AcDbCircle
 10
127.780291621
 20
323.9656043055
 30
0.0
 40
0.7500791342875844
100
AcDbArc
 50
219.8263719148
 51
282.8759718525
  0
ARC
  5
193
330
1F
100
AcDbEntity
  8
0
  6
Continuous
 62
     7
370
    15
100
AcDbCircle
 10
127.7962093605
 20
323.9363869518
 30
0.0
 40
0.7467324618078036
100
AcDbArc
 50
154.7608688175
 51
217.3021066759
  0
ARC
  5
194
330
1F
100
AcDbEntity
  8
0
  6
Continuous
 62
     7
370
    15
100
AcDbCircle
 10
123.1008334818
 20
344.4460512683
 30
0.0
 40
0.7469063776713663
100
AcDbArc
 50
103.3404729926
 51
165.8657835561
  0
ARC
  5
195
330
1F
100
AcDbEntity
  8
0
  6
Continuous
 62
     7
370
    15
100
AcDbCircle
 10
123.1135371111
 20
344.4768318626
 30
0.0
 40
0.7500141429979297
100
AcDbArc
 50
168.3946856987
 51
231.4505660531
  0
LINE
  5
196
330
1F
100
AcDbEntity
  8
0
  6
Continuous
 62
     7
370
    15
100
AcDbLine
 10
164.7429744318
 20
244.06646129
 30
0.0
 11
167.5429752632
 21
244.06646129
 31
0.0
  0
LINE
  5
197
330
1F
100
AcDbEntity
  8
0
  6
Continuous
 62
     7
370
    15
100
AcDbLine
 10
166.7429747596
 20
308.0664643298
 30
0.0
 11
167.5429752632
 21
308.0664643298
 31
0.0
  0
LINE
  5
198
330
1F
100
AcDbEntity
  8
0
  6
Continuous
 62
     7
370
    15
100
AcDbLine
 10
167.5429752632
 20
244.06646129
 30
0.0
 11
167.5429752632
 21
308.0664643298
 31
0.0
  0
LINE
  5
199
330
1F
100
AcDbEntity
  8
0
  6
Continuous
 62
     7
370
    15
100
AcDbLine
 10
167.5429752632
 20
312.4709570061
 30
0.0
 11
167.5429752632
 21
308.0664643298
 31
0.0
  0
LINE
  5
19A
330
1F
100
AcDbEntity
  8
0
  6
Continuous
 62
     7
370
    15
100
AcDbLine
 10
167.5429752632
 20
239.6619686137
 30
0.0
 11
125.94297515
 21
239.6619686137
 31
0.0
  0
LINE
  5
19B
330
1F
100
AcDbEntity
  8
0
  6
Continuous
 62
     7
370
    15
100
AcDbLine
 10
125.94297515
 20
239.6619686137
 30
0.0
 11
125.94297515
 21
244.06646129
 31
0.0
  0
LINE
  5
19C
330
1F
100
AcDbEntity
  8
0
  6
Continuous
 62
     7
370
    15
100
AcDbLine
 10
167.5429752632
 20
244.06646129
 30
0.0
 11
167.5429752632
 21
239.6619686137
 31
0.0
  0
LINE
  5
19D
330
1F
100
AcDbEntity
  8
0
  6
Continuous
 62
     7
370
    15
100
AcDbLine
 10
125.94297515
 20
346.2876112412
 30
0.0
 11
125.94297515
 21
352.9534519862
 31
0.0
  0
LINE
  5
19E
330
1F
100
AcDbEntity
  8
0
  6
Continuous
 62
     7
370
    15
100
AcDbLine
 10
167.5429752632
 20
312.4709570061
 30
0.0
 11
167.5429752632
 21
340.1182026814
 31
0.0
  0
LINE
  5
19F
330
1F
100
AcDbEntity
  8
0
  6
Continuous
 62
     7
370
    15
100
AcDbLine
 10
167.5429752632
 20
346.2992192458
 30
0.0
 11
167.5429752632
 21
352.9534519862
 31
0.0
  0
LINE
  5
1A0
330
1F
100
AcDbEntity
  8
0
  6
Continuous
 62
     7
370
    15
100
AcDbLine
 10
125.94297515
 20
199.1794736336
 30
0.0
 11
167.5429752632
 21
199.1794736336
 31
0.0
  0
LINE
  5
1A1
330
1F
100
AcDbEntity
  8
0
  6
Continuous
 62
     7
370
    15
100
AcDbLine
 10
125.94297515
 20
199.1794736336
 30
0.0
 11
125.94297515
 21
239.6619686137
 31
0.0
  0
LINE
  5
1A2
330
1F
100
AcDbEntity
  8
0
  6
Continuous
 62
     7
370
    15
100
AcDbLine
 10
167.5429752632
 20
199.1794736336
 30
0.0
 11
167.5429752632
 21
239.6619686137
 31
0.0
  0
LINE
  5
1A3
330
1F
100
AcDbEntity
  8
0
  6
Continuous
 62
     7
370
    15
100
AcDbLine
 10
125.94297515
 20
352.9534519862
 30
0.0
 11
125.94297515
 21
360.5472327422
 31
0.0
  0
LINE
  5
1A4
330
1F
100
AcDbEntity
  8
0
  6
Continuous
 62
     7
370
    15
100
AcDbLine
 10
167.5429752632
 20
360.5472327422
 30
0.0
 11
167.5429752632
 21
352.9534519862
 31
0.0
  0
LINE
  5
1A5
330
1F
100
AcDbEntity
  8
0
  6
Continuous
 62
     7
370
    15
100
AcDbLine
 10
167.5429752632
 20
191.5856928776
 30
0.0
 11
125.94297515
 21
191.5856928776
 31
0.0
  0
LINE
  5
1A6
330
1F
100
AcDbEntity
  8
0
  6
Continuous
 62
     7
370
    15
100
AcDbLine
 10
125.94297515
 20
191.5856928776
 30
0.0
 11
125.94297515
 21
199.1794736336
 31
0.0
  0
LINE
  5
1A7
330
1F
100
AcDbEntity
  8
0
  6
Continuous
 62
     7
370
    15
100
AcDbLine
 10
167.5429752632
 20
199.1794736336
 30
0.0
 11
167.5429752632
 21
191.5856928776
 31
0.0
  0
LINE
  5
1A8
330
1F
100
AcDbEntity
  8
0
  6
Continuous
 62
     7
370
    15
100
AcDbLine
 10
125.94297515
 20
361.066463704
 30
0.0
 11
134.2429750203
 21
361.066463704
 31
0.0
  0
LINE
  5
1A9
330
1F
100
AcDbEntity
  8
0
  6
Continuous
 62
     7
370
    15
100
AcDbLine
 10
159.2429753929
 20
361.066463704
 30
0.0
 11
167.5429752632
 21
361.066463704
 31
0.0
  0
LINE
  5
1AA
330
1F
100
AcDbEntity
  8
0
  6
Continuous
 62
     7
370
    15
100
AcDbLine
 10
125.94297515
 20
360.5472327422
 30
0.0
 11
125.94297515
 21
361.066463704
 31
0.0
  0
LINE
  5
1AB
330
1F
100
AcDbEntity
  8
0
  6
Continuous
 62
     7
370
    15
100
AcDbLine
 10
167.5429752632
 20
360.5472327422
 30
0.0
 11
167.5429752632
 21
361.066463704
 31
0.0
  0
LINE
  5
1AC
330
1F
100
AcDbEntity
  8
0
  6
Continuous
 62
     7
370
    15
100
AcDbLine
 10
125.94297515
 20
191.0664619158
 30
0.0
 11
167.5429752632
 21
191.0664619158
 31
0.0
  0
LINE
  5
1AD
330
1F
100
AcDbEntity
  8
0
  6
Continuous
 62
     7
370
    15
100
AcDbLine
 10
125.94297515
 20
191.0664619158
 30
0.0
 11
125.94297515
 21
191.5856928776
 31
0.0
  0
LINE
  5
1AE
330
1F
100
AcDbEntity
  8
0
  6
Continuous
 62
     7
370
    15
100
AcDbLine
 10
167.5429752632
 20
191.0664619158
 30
0.0
 11
167.5429752632
 21
191.5856928776
 31
0.0
  0
LINE
  5
1AF
330
1F
100
AcDbEntity
  8
0
  6
Continuous
 62
     7
370
    15
100
AcDbLine
 10
171.5429759189
 20
353.0664623927
 30
0.0
 11
171.5429759189
 21
199.0664632271
 31
0.0
  0
LINE
  5
1B0
330
1F
100
AcDbEntity
  8
0
  6
Continuous
 62
     7
370
    15
100
AcDbLine
 10
167.7429749235
 20
353.0664623927
 30
0.0
 11
167.7429749235
 21
346.2086201857
 31
0.0
  0
LINE
  5
1B1
330
1F
100
AcDbEntity
  8
0
  6
Continuous
 62
     7
370
    15
100
AcDbLine
 10
167.7429749235
 20
340.4613987755
 30
0.0
 11
167.7429749235
 21
199.0664632271
 31
0.0
  0
LINE
  5
1B2
330
1F
100
AcDbEntity
  8
0
  6
Continuous
 62
     7
370
    15
100
AcDbLine
 10
125.7429754897
 20
353.0664623927
 30
0.0
 11
125.7429754897
 21
346.2087766479
 31
0.0
  0
LINE
  5
1B3
330
1F
100
AcDbEntity
  8
0
  6
Continuous
 62
     7
370
    15
100
AcDbLine
 10
125.7429754897
 20
244.06646129
 30
0.0
 11
125.7429754897
 21
199.0664632271
 31
0.0
  0
LINE
  5
1B4
330
1F
100
AcDbEntity
  8
0
  6
Continuous
 62
     7
370
    15
100
AcDbLine
 10
121.9429744943
 20
353.0664623927
 30
0.0
 11
121.9429744943
 21
341.5260718416
 31
0.0
  0
LINE
  5
1B5
330
1F
100
AcDbEntity
  8
0
  6
Continuous
 62
     7
370
    15
100
AcDbLine
 10
121.9429744943
 20
244.06646129
 30
0.0
 11
121.9429744943
 21
199.0664632271
 31
0.0
  0
LWPOLYLINE
  5
1B6
330
1F
100
AcDbEntity
  8
0
  6
Continuous
 62
     7
370
    15
100
AcDbPolyline
 90
        2
 70
   128
 43
0.0
 10
161.2429747894
 20
366.0664663862
 10
161.2429747894
 20
366.0664663862
  0
LINE
  5
1B7
330
1F
100
AcDbEntity
  8
0
  6
Continuous
 62
     7
370
    15
100
AcDbLine
 10
158.242975229
 20
366.0664663862
 30
0.0
 11
161.2429747894
 21
366.0664663862
 31
0.0
  0
LINE
  5
1B8
330
1F
100
AcDbEntity
  8
0
  6
Continuous
 62
     7
370
    15
100
AcDbLine
 10
135.2429751843
 20
366.0664663862
 30
0.0
 11
158.242975229
 21
366.0664663862
 31
0.0
  0
LINE
  5
1B9
330
1F
100
AcDbEntity
  8
0
  6
Continuous
 62
     7
370
    15
100
AcDbLine
 10
132.2429756238
 20
366.0664663862
 30
0.0
 11
135.2429751843
 21
366.0664663862
 31
0.0
  0
LWPOLYLINE
  5
1BA
330
1F
100
AcDbEntity
  8
0
  6
Continuous
 62
     7
370
    15
100
AcDbPolyline
 90
        2
 70
   128
 43
0.0
 10
132.2429756238
 20
366.0664663862
 10
132.2429756238
 20
366.0664663862
  0
SPLINE
  5
1BB
330
1F
100
AcDbEntity
  8
0
  6
Continuous
 62
     7
370
    15
100
AcDbSpline
210
0.0
220
0.0
230
1.0
 70
    24
 71
     3
 72
    26
 73
    22
 74
     0
 42
0.00000001
 43
0.00000001
 40
0.0
 40
0.0
 40
0.0
 40
0.0
 40
0.0541618263353594
 40
0.1098854394792419
 40
0.1632387243032663
 40
0.21823021895598
 40
0.270376028457051
 40
0.3239296109181148
 40
0.3779262148535635
 40
0.4334759535201273
 40
0.5007564970236398
 40
0.5550275201256953
 40
0.6108692444774939
 40
0.6651394350649686
 40
0.7209894594931251
 40
0.7751893310560664
 40
0.8309805901959995
 40
0.8848717630275098
 40
0.9405613331328865
 40
0.9916733811030121
 40
1.0
 40
1.0
 40
1.0
 40
1.0
 10
133.7527826964237
 20
486.066456253406
 30
0.0
 10
133.7985603906318
 20
486.066456253406
 30
0.0
 10
133.8914358046781
 20
486.066456253406
 30
0.0
 10
134.4788587017239
 20
486.066456253406
 30
0.0
 10
135.4374574280466
 20
486.066456253406
 30
0.0
 10
136.6891654460382
 20
486.0664562534059
 30
0.0
 10
138.2128445299452
 20
486.066456253406
 30
0.0
 10
139.9539840836392
 20
486.0664562534062
 30
0.0
 10
141.9190162280863
 20
486.0664562534059
 30
0.0
 10
144.1950694091883
 20
486.066456253406
 30
0.0
 10
146.569329474937
 20
486.0664562534059
 30
0.0
 10
148.9442000419007
 20
486.066456253406
 30
0.0
 10
151.0844256659578
 20
486.066456253406
 30
0.0
 10
153.120574335861
 20
486.066456253406
 30
0.0
 10
154.95637898291
 20
486.0664562534059
 30
0.0
 10
156.5747220573148
 20
486.066456253406
 30
0.0
 10
157.8907337224678
 20
486.066456253406
 30
0.0
 10
158.9164309073037
 20
486.066456253406
 30
0.0
 10
159.494195269167
 20
486.0664562534059
 30
0.0
 10
159.7499089788065
 20
486.0664562534062
 30
0.0
 10
159.7146474090566
 20
486.066456253406
 30
0.0
 10
159.7097077011444
 20
486.066456253406
 30
0.0
  0
ARC
  5
1BC
330
1F
100
AcDbEntity
  8
0
  6
Continuous
 62
     7
370
    15
100
AcDbCircle
 10
146.7429752066
 20
276.0664628099
 30
0.0
 40
12.50000000000003
100
AcDbArc
 50
180.0
 51
0.0
  0
LINE
  5
1BD
330
1F
100
AcDbEntity
  8
0
  6
Continuous
 62
     7
370
    15
100
AcDbLine
 10
134.2429750203
 20
366.0664663862
 30
0.0
 11
134.2429750203
 21
355.0791622351
 31
0.0
  0
LINE
  5
1BE
330
1F
100
AcDbEntity
  8
0
  6
Continuous
 62
     7
370
    15
100
AcDbLine
 10
134.2429750203
 20
323.2502074193
 30
0.0
 11
134.2429750203
 21
276.0664628099
 31
0.0
  0
LINE
  5
1BF
330
1F
100
AcDbEntity
  8
0
  6
Continuous
 62
     7
370
    15
100
AcDbLine
 10
159.2429753929
 20
276.0664628099
 30
0.0
 11
159.2429753929
 21
323.2923777055
 31
0.0
  0
LINE
  5
1C0
330
1F
100
AcDbEntity
  8
0
  6
Continuous
 62
     7
370
    15
100
AcDbLine
 10
159.2429753929
 20
355.0389216493
 30
0.0
 11
159.2429753929
 21
366.0664663862
 31
0.0
  0
SPLINE
  5
1C1
330
1F
100
AcDbEntity
  8
0
  6
Continuous
 62
     7
370
    15
100
AcDbSpline
210
0.0
220
0.0
230
1.0
 70
    24
 71
     3
 72
    20
 73
    16
 74
     0
 42
0.00000001
 43
0.00000001
 40
0.0
 40
0.0
 40
0.0
 40
0.0
 40
0.0390549437694376
 40
0.0779748192158505
 40
0.138711306077957
 40
0.2379400460600811
 40
0.362915200392282
 40
0.4914000818835746
 40
0.625228836945238
 40
0.7618358463887326
 40
0.8317387188106158
 40
0.9020807542933862
 40
0.948119598189962
 40
0.9875441530385317
 40
1.0
 40
1.0
 40
1.0
 40
1.0
 10
139.7429749905445
 20
257.8192402820554
 30
0.0
 10
139.7429749905445
 20
257.8068460422224
 30
0.0
 10
139.7429749905445
 20
257.7821004270195
 30
0.0
 10
139.7429749905445
 20
257.5706038394253
 30
0.0
 10
139.7429749905445
 20
257.1281209815892
 30
0.0
 10
139.7429749905445
 20
256.3338630381485
 30
0.0
 10
139.7429749905445
 20
255.2900916096165
 30
0.0
 10
139.7429749905445
 20
254.1269939155446
 30
0.0
 10
139.7429749905445
 20
252.9299748338043
 30
0.0
 10
139.7429749905445
 20
251.9161459133178
 30
0.0
 10
139.7429749905445
 20
251.1453116206827
 30
0.0
 10
139.7429749905445
 20
250.684282758622
 30
0.0
 10
139.7429749905445
 20
250.4090360554517
 30
0.0
 10
139.7429749905445
 20
250.3203687346054
 30
0.0
 10
139.7429749905445
 20
250.3149794719393
 30
0.0
 10
139.7429749905445
 20
250.3136855761971
 30
0.0
  0
SPLINE
  5
1C2
330
1F
100
AcDbEntity
  8
0
  6
Continuous
 62
     7
370
    15
100
AcDbSpline
210
0.0
220
0.0
230
1.0
 70
     8
 71
     3
 72
    18
 73
    14
 74
     0
 42
0.00000001
 43
0.00000001
 40
0.0
 40
0.0
 40
0.0
 40
0.0
 40
0.0344337099397702
 40
0.0724907514227567
 40
0.1306338562933534
 40
0.2236184012514117
 40
0.4104355802565756
 40
0.5001956043846918
 40
0.7376506597932112
 40
0.8568707208032778
 40
0.9094909162023825
 40
0.9625702476219359
 40
1.0
 40
1.0
 40
1.0
 40
1.0
 10
139.7429749905445
 20
250.3136855761971
 30
0.0
 10
139.7346662708688
 20
250.3088887115309
 30
0.0
 10
139.7171745357724
 20
250.2987902259266
 30
0.0
 10
139.5573080007789
 20
250.2064905096487
 30
0.0
 10
139.2059797138014
 20
250.0036509741681
 30
0.0
 10
138.4046392441685
 20
249.5409981007643
 30
0.0
 10
137.442743977383
 20
248.9856455512637
 30
0.0
 10
136.1110172005974
 20
248.2167752951763
 30
0.0
 10
134.9420424818944
 20
247.5418674070064
 30
0.0
 10
133.9299702360882
 20
246.9575450433755
 30
0.0
 10
133.4848485906498
 20
246.7005559471956
 30
0.0
 10
133.2771595841342
 20
246.580643977131
 30
0.0
 10
133.25297593141
 20
246.5666834279555
 30
0.0
 10
133.242974856434
 20
246.5609100859132
 30
0.0
  0
SPLINE
  5
1C3
330
1F
100
AcDbEntity
  8
0
  6
Continuous
 62
     7
370
    15
100
AcDbSpline
210
0.0
220
0.0
230
1.0
 70
     8
 71
     3
 72
    20
 73
    16
 74
     0
 42
0.00000001
 43
0.00000001
 40
0.0
 40
0.0
 40
0.0
 40
0.0
 40
0.0390549335950107
 40
0.0779747407388756
 40
0.138711294482977
 40
0.2379400765780819
 40
0.3629151703330339
 40
0.4914001851700334
 40
0.6252288113657888
 40
0.761835705068241
 40
0.8317388140505453
 40
0.9020808660765025
 40
0.948119553094119
 40
0.98754416995929
 40
1.0
 40
1.0
 40
1.0
 40
1.0
 10
133.242974856434
 20
246.5609100859132
 30
0.0
 10
133.2322413507614
 20
246.5671073962602
 30
0.0
 10
133.2108114763511
 20
246.5794805748349
 30
0.0
 10
133.0276501987684
 20
246.6852254501399
 30
0.0
 10
132.6444484348282
 20
246.9064696224299
 30
0.0
 10
131.9566013617653
 20
247.3035984146427
 30
0.0
 10
131.0526686286635
 20
247.8254849911585
 30
0.0
 10
130.0453960994811
 20
248.4070327952739
 30
0.0
 10
129.0087470876747
 20
249.0055416070486
 30
0.0
 10
128.1307460648272
 20
249.51245704908
 30
0.0
 10
127.4631836203678
 20
249.897873968925
 30
0.0
 10
127.0639180919325
 20
250.1283891333595
 30
0.0
 10
126.8255537632663
 20
250.2660108948208
 30
0.0
 10
126.74875825686
 20
250.3103457995239
 30
0.0
 10
126.7440951950036
 20
250.3130389784673
 30
0.0
 10
126.7429756536462
 20
250.3136855761971
 30
0.0
  0
SPLINE
  5
1C4
330
1F
100
AcDbEntity
  8
0
  6
Continuous
 62
     7
370
    15
100
AcDbSpline
210
0.0
220
0.0
230
1.0
 70
    24
 71
     3
 72
    20
 73
    16
 74
     0
 42
0.00000001
 43
0.00000001
 40
0.0
 40
0.0
 40
0.0
 40
0.0
 40
0.0390549437694376
 40
0.0779748192158505
 40
0.138711306077957
 40
0.2379400460600811
 40
0.362915200392282
 40
0.4914000818835746
 40
0.625228836945238
 40
0.7618358463887326
 40
0.8317387188106158
 40
0.9020807542933862
 40
0.948119598189962
 40
0.9875441530385317
 40
1.0
 40
1.0
 40
1.0
 40
1.0
 10
126.7429756536462
 20
250.3136855761971
 30
0.0
 10
126.7429756536462
 20
250.32607981603
 30
0.0
 10
126.7429756536462
 20
250.3508254312329
 30
0.0
 10
126.7429756536462
 20
250.5623220188272
 30
0.0
 10
126.7429756536462
 20
251.0048048766633
 30
0.0
 10
126.7429756536462
 20
251.7990628201039
 30
0.0
 10
126.7429756536462
 20
252.8428342486361
 30
0.0
 10
126.7429756536462
 20
254.0059319427079
 30
0.0
 10
126.7429756536462
 20
255.2029510244482
 30
0.0
 10
126.7429756536462
 20
256.2167799449347
 30
0.0
 10
126.7429756536462
 20
256.9876142375698
 30
0.0
 10
126.7429756536462
 20
257.4486430996305
 30
0.0
 10
126.7429756536462
 20
257.7238898028007
 30
0.0
 10
126.7429756536462
 20
257.8125571236471
 30
0.0
 10
126.7429756536462
 20
257.8179463863132
 30
0.0
 10
126.7429756536462
 20
257.8192402820554
 30
0.0
  0
SPLINE
  5
1C5
330
1F
100
AcDbEntity
  8
0
  6
Continuous
 62
     7
370
    15
100
AcDbSpline
210
0.0
220
0.0
230
1.0
 70
     8
 71
     3
 72
    18
 73
    14
 74
     0
 42
0.00000001
 43
0.00000001
 40
0.0
 40
0.0
 40
0.0
 40
0.0
 40
0.0344336968426155
 40
0.0724907586076296
 40
0.1306339265223383
 40
0.2236184335552305
 40
0.4104355142262736
 40
0.5001955538088658
 40
0.7376507025184023
 40
0.8568706362586389
 40
0.9094909383831686
 40
0.9625702446592751
 40
0.9999999999999999
 40
0.9999999999999999
 40
0.9999999999999999
 40
0.9999999999999999
 10
126.7429756536462
 20
257.8192402820554
 30
0.0
 10
126.7512839618803
 20
257.8240371503912
 30
0.0
 10
126.7687748391855
 20
257.8341356485631
 30
0.0
 10
126.928642441558
 20
257.926435411093
 30
0.0
 10
127.2799714491002
 20
258.1292745644819
 30
0.0
 10
128.0813106697859
 20
258.5919283616681
 30
0.0
 10
129.0432079237012
 20
259.1472770512913
 30
0.0
 10
130.3749315482806
 20
259.9161525103907
 30
0.0
 10
131.5439080299198
 20
260.5910587040772
 30
0.0
 10
132.5559797742119
 20
261.1753792988433
 30
0.0
 10
133.0011017970697
 20
261.4323705115147
 30
0.0
 10
133.2087914528114
 20
261.552279995924
 30
0.0
 10
133.2329741665361
 20
261.5662425362948
 30
0.0
 10
133.242974856434
 20
261.5720167036619
 30
0.0
  0
SPLINE
  5
1C6
330
1F
100
AcDbEntity
  8
0
  6
Continuous
 62
     7
370
    15
100
AcDbSpline
210
0.0
220
0.0
230
1.0
 70
     8
 71
     3
 72
    20
 73
    16
 74
     0
 42
0.00000001
 43
0.00000001
 40
0.0
 40
0.0
 40
0.0
 40
0.0
 40
0.0390549492982464
 40
0.0779748054260322
 40
0.1387112580900216
 40
0.2379400747458327
 40
0.3629152197592042
 40
0.4914001458828374
 40
0.6252287728080939
 40
0.7618357550049689
 40
0.8317387821349663
 40
0.9020808345443586
 40
0.9481195727190599
 40
0.9875441648774401
 40
1.0
 40
1.0
 40
1.0
 40
1.0
 10
133.242974856434
 20
261.5720167036619
 30
0.0
 10
133.2537087668947
 20
261.5658195876688
 30
0.0
 10
133.2751394586424
 20
261.5534467918401
 30
0.0
 10
133.4583001071371
 20
261.4476985067332
 30
0.0
 10
133.8415012754893
 20
261.2264567522677
 30
0.0
 10
134.5293498284439
 20
260.8293286736059
 30
0.0
 10
135.4332814543314
 20
260.3074408846354
 30
0.0
 10
136.4405538697129
 20
259.7258929231437
 30
0.0
 10
137.4772027112691
 20
259.1273839086825
 30
0.0
 10
138.355204328267
 20
258.6204693608899
 30
0.0
 10
139.0227663940397
 20
258.2350516770796
 30
0.0
 10
139.4220309480385
 20
258.0045366097419
 30
0.0
 10
139.660397815369
 20
257.8669150615037
 30
0.0
 10
139.7371904895923
 20
257.8225800484355
 30
0.0
 10
139.7418550810652
 20
257.8198868782023
 30
0.0
 10
139.7429749905445
 20
257.8192402820554
 30
0.0
  0
CIRCLE
  5
1C7
330
1F
100
AcDbEntity
  8
0
  6
Continuous
 62
     7
370
    15
100
AcDbCircle
 10
133.2429752066
 20
254.0664628099
 30
0.0
 40
5.505553499465115
  0
SPLINE
  5
1C8
330
1F
100
AcDbEntity
  8
0
  6
Continuous
 62
     7
370
    15
100
AcDbSpline
210
0.0
220
0.0
230
1.0
 70
     8
 71
     3
 72
    11
 73
     7
 74
     0
 42
0.00000001
 43
0.00000001
 40
0.0
 40
0.0
 40
0.0
 40
0.0
 40
0.2999221084026298
 40
0.5572994644348294
 40
0.8169225592771174
 40
1.0
 40
1.0
 40
1.0
 40
1.0
 10
159.2429753928758
 20
304.9946663181748
 30
0.0
 10
159.3944301244581
 20
305.0821088891328
 30
0.0
 10
159.6758553293101
 20
305.2445900687405
 30
0.0
 10
159.999756006494
 20
305.431592650795
 30
0.0
 10
160.2090152475724
 20
305.5524112132043
 30
0.0
 10
160.2330401376255
 20
305.5662800989903
 30
0.0
 10
160.2429755567886
 20
305.5720155339208
 30
0.0
  0
SPLINE
  5
1C9
330
1F
100
AcDbEntity
  8
0
  6
Continuous
 62
     7
370
    15
100
AcDbSpline
210
0.0
220
0.0
230
1.0
 70
     8
 71
     3
 72
    20
 73
    16
 74
     0
 42
0.00000001
 43
0.00000001
 40
0.0
 40
0.0
 40
0.0
 40
0.0
 40
0.0390549335950107
 40
0.0779747407388756
 40
0.138711294482977
 40
0.2379400765780819
 40
0.3629151703330339
 40
0.4914001851700334
 40
0.6252288113657888
 40
0.761835705068241
 40
0.8317388140505453
 40
0.9020808660765025
 40
0.948119553094119
 40
0.98754416995929
 40
1.0
 40
1.0
 40
1.0
 40
1.0
 10
160.2429755567886
 20
305.5720155339208
 30
0.0
 10
160.2537090624613
 20
305.5658182235737
 30
0.0
 10
160.2751389368716
 20
305.5534450449989
 30
0.0
 10
160.4583002144543
 20
305.447700169694
 30
0.0
 10
160.8415019783945
 20
305.226455997404
 30
0.0
 10
161.5293490514573
 20
304.8293272051912
 30
0.0
 10
162.4332817845591
 20
304.3074406286754
 30
0.0
 10
163.4405543137416
 20
303.72589282456
 30
0.0
 10
164.477203325548
 20
303.1273840127853
 30
0.0
 10
165.3552043483955
 20
302.6204685707539
 30
0.0
 10
166.0227667928549
 20
302.2350516509089
 30
0.0
 10
166.4220323212901
 20
302.0045364864744
 30
0.0
 10
166.6603966499564
 20
301.8669147250131
 30
0.0
 10
166.7371921563627
 20
301.82257982031
 30
0.0
 10
166.7418552182191
 20
301.8198866413666
 30
0.0
 10
166.7429747595765
 20
301.8192400436368
 30
0.0
  0
SPLINE
  5
1CA
330
1F
100
AcDbEntity
  8
0
  6
Continuous
 62
     7
370
    15
100
AcDbSpline
210
0.0
220
0.0
230
1.0
 70
    24
 71
     3
 72
    20
 73
    16
 74
     0
 42
0.00000001
 43
0.00000001
 40
0.0
 40
0.0
 40
0.0
 40
0.0
 40
0.0390549437694376
 40
0.0779748192158505
 40
0.138711306077957
 40
0.2379400460600811
 40
0.362915200392282
 40
0.4914000818835746
 40
0.625228836945238
 40
0.7618358463887326
 40
0.8317387188106158
 40
0.9020807542933862
 40
0.948119598189962
 40
0.9875441530385317
 40
1.0
 40
1.0
 40
1.0
 40
1.0
 10
166.7429747595765
 20
301.8192400436368
 30
0.0
 10
166.7429747595765
 20
301.8068458038039
 30
0.0
 10
166.7429747595765
 20
301.782100188601
 30
0.0
 10
166.7429747595765
 20
301.5706036010067
 30
0.0
 10
166.7429747595765
 20
301.1281207431706
 30
0.0
 10
166.7429747595765
 20
300.33386279973
 30
0.0
 10
166.7429747595765
 20
299.2900913711978
 30
0.0
 10
166.7429747595765
 20
298.1269936771261
 30
0.0
 10
166.7429747595765
 20
296.9299745953857
 30
0.0
 10
166.7429747595765
 20
295.9161456748992
 30
0.0
 10
166.7429747595765
 20
295.1453113822641
 30
0.0
 10
166.7429747595765
 20
294.6842825202034
 30
0.0
 10
166.7429747595765
 20
294.4090358170332
 30
0.0
 10
166.7429747595765
 20
294.3203684961868
 30
0.0
 10
166.7429747595765
 20
294.3149792335207
 30
0.0
 10
166.7429747595765
 20
294.3136853377786
 30
0.0
  0
SPLINE
  5
1CB
330
1F
100
AcDbEntity
  8
0
  6
Continuous
 62
     7
370
    15
100
AcDbSpline
210
0.0
220
0.0
230
1.0
 70
     8
 71
     3
 72
    18
 73
    14
 74
     0
 42
0.00000001
 43
0.00000001
 40
0.0
 40
0.0
 40
0.0
 40
0.0
 40
0.0344336968426155
 40
0.0724907586076296
 40
0.1306339265223383
 40
0.2236184335552305
 40
0.4104355142262736
 40
0.5001955538088658
 40
0.7376507025184023
 40
0.8568706362586389
 40
0.9094909383831686
 40
0.9625702446592751
 40
0.9999999999999999
 40
0.9999999999999999
 40
0.9999999999999999
 40
0.9999999999999999
 10
166.7429747595765
 20
294.3136853377786
 30
0.0
 10
166.7346664513424
 20
294.3088884694426
 30
0.0
 10
166.7171755740372
 20
294.2987899712708
 30
0.0
 10
166.5573079716647
 20
294.2064902087409
 30
0.0
 10
166.2059789641224
 20
294.003651055352
 30
0.0
 10
165.4046397434368
 20
293.5409972581658
 30
0.0
 10
164.4427424895215
 20
292.9856485685427
 30
0.0
 10
163.1110188649421
 20
292.2167731094432
 30
0.0
 10
161.9420423833028
 20
291.5418669157567
 30
0.0
 10
160.9299706390108
 20
290.9575463209906
 30
0.0
 10
160.484848616153
 20
290.7005551083192
 30
0.0
 10
160.2771589604113
 20
290.58064562391
 30
0.0
 10
160.2529762466866
 20
290.5666830835391
 30
0.0
 10
160.2429755567886
 20
290.560908916172
 30
0.0
  0
SPLINE
  5
1CC
330
1F
100
AcDbEntity
  8
0
  6
Continuous
 62
     7
370
    15
100
AcDbSpline
210
0.0
220
0.0
230
1.0
 70
     8
 71
     3
 72
    11
 73
     7
 74
     0
 42
0.00000001
 43
0.00000001
 40
0.0
 40
0.0
 40
0.0
 40
0.0
 40
0.1905113103677548
 40
0.3803636318649922
 40
0.676638019414262
 40
1.0
 40
1.0
 40
1.0
 40
1.0
 10
160.2429755567886
 20
290.560908916172
 30
0.0
 10
160.232287834417
 20
290.5670793630347
 30
0.0
 10
160.2109493590802
 20
290.5793989128524
 30
0.0
 10
160.0269701829527
 20
290.6856198180807
 30
0.0
 10
159.7122754352876
 20
290.8673090318443
 30
0.0
 10
159.4039022825243
 20
291.0453486548294
 30
0.0
 10
159.2429753928758
 20
291.1382599945631
 30
0.0
  0
SPLINE
  5
1CD
330
1F
100
AcDbEntity
  8
0
  6
Continuous
 62
     7
370
    15
100
AcDbSpline
210
0.0
220
0.0
230
1.0
 70
     8
 71
     3
 72
    14
 73
    10
 74
     0
 42
0.00000001
 43
0.00000001
 40
0.0
 40
0.0
 40
0.0
 40
0.0
 40
0.1575841353221159
 40
0.3151115504524357
 40
0.4729864251121133
 40
0.6308559586358156
 40
0.7843615175256053
 40
0.9379121536848208
 40
1.0
 40
1.0
 40
1.0
 40
1.0
 10
154.712766276238
 20
359.4648868988719
 30
0.0
 10
153.934720854342
 20
359.1115878279747
 30
0.0
 10
152.37891005705
 20
358.405116851209
 30
0.0
 10
149.8282123570914
 20
357.7696010727156
 30
0.0
 10
147.1976413886125
 20
357.5038880960878
 30
0.0
 10
144.5711554142269
 20
357.6293069794731
 30
0.0
 10
142.0382048049138
 20
358.1425392394839
 30
0.0
 10
140.121038952468
 20
358.8110954169675
 30
0.0
 10
139.0745073964811
 20
359.3187268094501
 30
0.0
 10
138.7731841369844
 20
359.4648868988719
 30
0.0
  0
ARC
  5
1CE
330
1F
100
AcDbEntity
  8
0
  6
Continuous
 62
     7
370
    15
100
AcDbCircle
 10
146.7429752066
 20
339.0664628099
 30
0.0
 40
21.90007581424712
100
AcDbArc
 50
59.9123247387
 51
68.6591038327
  0
SPLINE
  5
1CF
330
1F
100
AcDbEntity
  8
0
  6
Continuous
 62
     7
370
    15
100
AcDbSpline
210
0.0
220
0.0
230
1.0
 70
     8
 71
     3
 72
    14
 73
    10
 74
     0
 42
0.00000001
 43
0.00000001
 40
0.0
 40
0.0
 40
0.0
 40
0.0
 40
0.1575841655895119
 40
0.3151116986990926
 40
0.4729864232100021
 40
0.6308560643050791
 40
0.784361710820845
 40
0.9379123408957344
 40
1.0
 40
1.0
 40
1.0
 40
1.0
 10
167.6601896598315
 20
345.5536396454539
 30
0.0
 10
166.8988659022391
 20
345.9416618898817
 30
0.0
 10
165.3764919910184
 20
346.7175669315923
 30
0.0
 10
163.289296435626
 20
348.3155500698697
 30
0.0
 10
161.441411936603
 20
350.2065361008266
 30
0.0
 10
159.9018822313073
 20
352.3382047361254
 30
0.0
 10
158.7238805214063
 20
354.6385432395523
 30
0.0
 10
158.0512357741978
 20
356.5542779550241
 30
0.0
 10
157.795620333149
 20
357.6889917695481
 30
0.0
 10
157.7220222517228
 20
358.0157042692866
 30
0.0
  0
ARC
  5
1D0
330
1F
100
AcDbEntity
  8
0
  6
Continuous
 62
     7
370
    15
100
AcDbCircle
 10
146.7429752066
 20
339.0664628099
 30
0.0
 40
21.90007581424713
100
AcDbArc
 50
8.4837533101
 51
17.2305324042
  0
SPLINE
  5
1D1
330
1F
100
AcDbEntity
  8
0
  6
Continuous
 62
     7
370
    15
100
AcDbSpline
210
0.0
220
0.0
230
1.0
 70
     8
 71
     3
 72
    14
 73
    10
 74
     0
 42
0.00000001
 43
0.00000001
 40
0.0
 40
0.0
 40
0.0
 40
0.0
 40
0.1575840023580018
 40
0.3151114215232063
 40
0.4729863439085453
 40
0.6308559282921198
 40
0.7843616166752605
 40
0.937912006295353
 40
1.0
 40
1.0
 40
1.0
 40
1.0
 10
164.856523142693
 20
326.7574154983726
 30
0.0
 10
164.6852131044763
 20
327.5945692680787
 30
0.0
 10
164.3426545398001
 20
329.2685762133161
 30
0.0
 10
164.2906611890027
 20
331.896737444089
 30
0.0
 10
164.6169607750729
 20
334.5204820204578
 30
0.0
 10
165.323684236683
 20
337.053209636802
 30
0.0
 10
166.387687482571
 20
339.4084457048482
 30
0.0
 10
167.4660822283974
 20
341.1287820335965
 30
0.0
 10
168.1938665284657
 20
342.0361117289002
 30
0.0
 10
168.4034148766971
 20
342.2973559449878
 30
0.0
  0
ARC
  5
1D2
330
1F
100
AcDbEntity
  8
0
  6
Continuous
 62
     7
370
    15
100
AcDbCircle
 10
146.7429752066
 20
339.0664628099
 30
0.0
 40
21.90007581424712
100
AcDbArc
 50
317.0551818815
 51
325.8019609756
  0
SPLINE
  5
1D3
330
1F
100
AcDbEntity
  8
0
  6
Continuous
 62
     7
370
    15
100
AcDbSpline
210
0.0
220
0.0
230
1.0
 70
     8
 71
     3
 72
    14
 73
    10
 74
     0
 42
0.00000001
 43
0.00000001
 40
0.0
 40
0.0
 40
0.0
 40
0.0
 40
0.1575841954315497
 40
0.3151115428566788
 40
0.4729864420584756
 40
0.6308559261515564
 40
0.7843614985982245
 40
0.9379120290272515
 40
1.0
 40
1.0
 40
1.0
 40
1.0
 10
148.4129862930006
 20
317.2301531981196
 30
0.0
 10
148.9606902435778
 20
317.8860466549011
 30
0.0
 10
150.0559005622424
 20
319.1975969569477
 30
0.0
 10
152.078263141523
 20
320.8768795739392
 30
0.0
 10
154.3330331625714
 20
322.2576461422273
 30
0.0
 10
156.7538327963247
 20
323.2842392179244
 30
0.0
 10
159.2586264555628
 20
323.9208312462968
 30
0.0
 10
161.2760081204522
 20
324.1503214995956
 30
0.0
 10
162.4391540354004
 20
324.1470283231404
 30
0.0
 10
162.7740542008853
 20
324.1460801314082
 30
0.0
  0
ARC
  5
1D4
330
1F
100
AcDbEntity
  8
0
  6
Continuous
 62
     7
370
    15
100
AcDbCircle
 10
146.7429752066
 20
339.0664628099
 30
0.0
 40
21.90007581424709
100
AcDbArc
 50
265.626610453
 51
274.373389547
  0
SPLINE
  5
1D5
330
1F
100
AcDbEntity
  8
0
  6
Continuous
 62
     7
370
    15
100
AcDbSpline
210
0.0
220
0.0
230
1.0
 70
     8
 71
     3
 72
    14
 73
    10
 74
     0
 42
0.00000001
 43
0.00000001
 40
0.0
 40
0.0
 40
0.0
 40
0.0
 40
0.1575841164802878
 40
0.315111517318805
 40
0.4729863743237909
 40
0.6308558580758045
 40
0.784361468323571
 40
0.9379119902862166
 40
1.0
 40
1.0
 40
1.0
 40
1.0
 10
130.711896212337
 20
324.1460801314082
 30
0.0
 10
131.5661817585284
 20
324.1268109076182
 30
0.0
 10
133.274445387481
 20
324.0882793951686
 30
0.0
 10
135.8482835764796
 20
323.5541480249905
 30
0.0
 10
138.3336364202296
 20
322.6521914512284
 30
0.0
 10
140.6456032874355
 20
321.3996045602823
 30
0.0
 10
142.7050236126684
 20
319.838185480286
 30
0.0
 10
144.1422643344589
 20
318.4040183718541
 30
0.0
 10
144.8648986719221
 20
317.4925802313613
 30
0.0
 10
145.0729641202217
 20
317.2301531981196
 30
0.0
  0
ARC
  5
1D6
330
1F
100
AcDbEntity
  8
0
  6
Continuous
 62
     7
370
    15
100
AcDbCircle
 10
146.7429752066
 20
339.0664628099
 30
0.0
 40
21.90007581424709
100
AcDbArc
 50
214.1980390244
 51
222.9448181185
  0
SPLINE
  5
1D7
330
1F
100
AcDbEntity
  8
0
  6
Continuous
 62
     7
370
    15
100
AcDbSpline
210
0.0
220
0.0
230
1.0
 70
     8
 71
     3
 72
    14
 73
    10
 74
     0
 42
0.00000001
 43
0.00000001
 40
0.0
 40
0.0
 40
0.0
 40
0.0
 40
0.1575840187077535
 40
0.3151115687280981
 40
0.4729864278412743
 40
0.6308558605337818
 40
0.7843615863118426
 40
0.9379120338701586
 40
1.0
 40
1.0
 40
1.0
 40
1.0
 10
125.0825355365253
 20
342.2973559449878
 30
0.0
 10
125.6001080180172
 20
341.6174350825203
 30
0.0
 10
126.6350675139791
 20
340.2578370005572
 30
0.0
 10
127.8222297853727
 20
337.9125048077677
 30
0.0
 10
128.6666437998021
 20
335.4070170113361
 30
0.0
 10
129.1288173215264
 20
332.8184734795298
 30
0.0
 10
129.1920803414157
 20
330.2348257866943
 30
0.0
 10
128.9669079553719
 20
328.21695790901
 30
0.0
 10
128.7048737921874
 20
327.0837079442543
 30
0.0
 10
128.6294272705293
 20
326.7574154983726
 30
0.0
  0
ARC
  5
1D8
330
1F
100
AcDbEntity
  8
0
  6
Continuous
 62
     7
370
    15
100
AcDbCircle
 10
146.7429752066
 20
339.0664628099
 30
0.0
 40
21.9000758142471
100
AcDbArc
 50
162.7694675958
 51
171.5162466899
  0
SPLINE
  5
1D9
330
1F
100
AcDbEntity
  8
0
  6
Continuous
 62
     7
370
    15
100
AcDbSpline
210
0.0
220
0.0
230
1.0
 70
     8
 71
     3
 72
    14
 73
    10
 74
     0
 42
0.00000001
 43
0.00000001
 40
0.0
 40
0.0
 40
0.0
 40
0.0
 40
0.1575839084339297
 40
0.3151115830191515
 40
0.4729864037798056
 40
0.6308558385581932
 40
0.784361574087554
 40
0.9379121567160814
 40
1.0
 40
1.0
 40
1.0
 40
1.0
 10
135.7639281614995
 20
358.0157042692866
 30
0.0
 10
135.5550445152659
 20
357.1871270774765
 30
0.0
 10
135.1373517629689
 20
355.5302683717902
 30
0.0
 10
134.0438853783949
 20
353.1398145726837
 30
0.0
 10
132.6114960486066
 20
350.9174801523856
 30
0.0
 10
130.8758510814515
 20
348.9422086698661
 30
0.0
 10
128.8953202829736
 20
347.2818656055369
 30
0.0
 10
127.1772950620917
 20
346.1997900697731
 30
0.0
 10
126.127906641838
 20
345.6980915419168
 30
0.0
 10
125.8257607533908
 20
345.5536396454539
 30
0.0
  0
ARC
  5
1DA
330
1F
100
AcDbEntity
  8
0
  6
Continuous
 62
     7
370
    15
100
AcDbCircle
 10
146.7429752066
 20
339.0664628099
 30
0.0
 40
21.90007581424711
100
AcDbArc
 50
111.3408961673
 51
120.0876752613
  0
LWPOLYLINE
  5
1DB
330
1F
100
AcDbEntity
  8
0
  6
Continuous
 62
     7
370
    15
100
AcDbPolyline
 90
        9
 70
   128
 43
0.0
 10
168.4034148767
 20
342.297355945
 10
168.4901452228
 20
342.2119052361
 10
168.5672214791
 20
342.1277658294
 10
168.6324829771
 20
342.047299559
 10
168.6841024622
 20
341.9727639507
 10
168.7206345215
 20
341.9062526177
 10
168.741050975
 20
341.8496207546
 10
168.7447837158
 20
341.8044627856
 10
168.7317265733
 20
341.7720378588
  0
SPLINE
  5
1DC
330
1F
100
AcDbEntity
  8
0
  6
Continuous
 62
     7
370
    15
100
AcDbSpline
210
0.0
220
0.0
230
1.0
 70
     8
 71
     3
 72
    14
 73
    10
 74
     0
 42
0.00000001
 43
0.00000001
 40
0.0
 40
0.0
 40
0.0
 40
0.0
 40
0.0621970607863551
 40
0.2157645497870492
 40
0.369282218974197
 40
0.5269932785410204
 40
0.6847103780093843
 40
0.8423235744734819
 40
1.0
 40
1.0
 40
1.0
 40
1.0
 10
168.7317265733457
 20
341.7720378588405
 30
0.0
 10
168.5337453168511
 20
341.5252219265467
 30
0.0
 10
167.8469389608312
 20
340.6690057671602
 30
0.0
 10
166.8279597587062
 20
339.0438714562649
 30
0.0
 10
165.8219572688019
 20
336.8179236117532
 30
0.0
 10
165.1539421443296
 20
334.4233958040635
 30
0.0
 10
164.8453433206382
 20
331.9428517892476
 30
0.0
 10
164.8950559708342
 20
329.4586764006438
 30
0.0
 10
165.2184973889179
 20
327.8785059341954
 30
0.0
 10
165.3802505298829
 20
327.0882622550693
 30
0.0
  0
LWPOLYLINE
  5
1DD
330
1F
100
AcDbEntity
  8
0
  6
Continuous
 62
     7
370
    15
100
AcDbPolyline
 90
        9
 70
   128
 43
0.0
 10
165.3802505299
 20
327.0882622551
 10
165.3779464378
 20
327.053382362
 10
165.3549893364
 20
327.0143152426
 10
165.3120218381
 20
326.972152407
 10
165.250250937
 20
326.9280747722
 10
165.1714033052
 20
326.8833191346
 10
165.0776917651
 20
326.8391409169
 10
164.9717426463
 20
326.7967769157
 10
164.8565231427
 20
326.7574154984
  0
LWPOLYLINE
  5
1DE
330
1F
100
AcDbEntity
  8
0
  6
Continuous
 62
     7
370
    15
100
AcDbPolyline
 90
        9
 70
   128
 43
0.0
 10
157.7220222517
 20
358.0157042693
 10
157.8429097846
 20
358.0302329015
 10
157.9567490681
 20
358.0380336593
 10
158.06034846
 20
358.0388904761
 10
158.1508050277
 20
358.032781
 10
158.2255837112
 20
358.0198691438
 10
158.2825890347
 20
358.000519986
 10
158.3202237799
 20
357.9752848695
 10
158.3374327584
 20
357.9448566984
  0
SPLINE
  5
1DF
330
1F
100
AcDbEntity
  8
0
  6
Continuous
 62
     7
370
    15
100
AcDbSpline
210
0.0
220
0.0
230
1.0
 70
     8
 71
     3
 72
    14
 73
    10
 74
     0
 42
0.00000001
 43
0.00000001
 40
0.0
 40
0.0
 40
0.0
 40
0.0
 40
0.0621967551335964
 40
0.215764743911087
 40
0.3692819299180686
 40
0.5269933712759634
 40
0.6847103346035497
 40
0.8423235309297556
 40
1.0
 40
1.0
 40
1.0
 40
1.0
 10
158.3374327584481
 20
357.9448566983905
 30
0.0
 10
158.4069614429109
 20
357.6361831676301
 30
0.0
 10
158.6481611448143
 20
356.5653738436777
 30
0.0
 10
159.2834225811621
 20
354.7554511401535
 30
0.0
 10
160.3965061610711
 20
352.5810699264007
 30
0.0
 10
161.8521190057947
 20
350.5658296736316
 30
0.0
 10
163.5990820662265
 20
348.7779659003278
 30
0.0
 10
165.5722827350859
 20
347.2679750058862
 30
0.0
 10
167.009371928566
 20
346.5356309434222
 30
0.0
 10
167.7280607237792
 20
346.1693854283061
 30
0.0
  0
LWPOLYLINE
  5
1E0
330
1F
100
AcDbEntity
  8
0
  6
Continuous
 62
     7
370
    15
100
AcDbPolyline
 90
        9
 70
   128
 43
0.0
 10
167.7280607238
 20
346.1693854283
 10
167.7538937494
 20
346.145834143
 10
167.7701248392
 20
346.1035297464
 10
167.7762995079
 20
346.0436494302
 10
167.772246392
 20
345.9678695749
 10
167.7580772504
 20
345.8783210467
 10
167.7341888263
 20
345.7775146912
 10
167.7012516721
 20
345.6682668279
 10
167.6601896598
 20
345.5536396455
  0
LWPOLYLINE
  5
1E1
330
1F
100
AcDbEntity
  8
0
  6
Continuous
 62
     7
370
    15
100
AcDbPolyline
 90
        9
 70
   128
 43
0.0
 10
138.773184137
 20
359.4648868989
 10
138.8371985942
 20
359.5684574197
 10
138.9020763873
 20
359.6623272847
 10
138.9660005062
 20
359.7438589882
 10
139.0271781548
 20
359.8107652019
 10
139.083895234
 20
359.8611832808
 10
139.1345624416
 20
359.893690164
 10
139.177759511
 20
359.9073768805
 10
139.2122761882
 20
359.9018634509
  0
SPLINE
  5
1E2
330
1F
100
AcDbEntity
  8
0
  6
Continuous
 62
     7
370
    15
100
AcDbSpline
210
0.0
220
0.0
230
1.0
 70
     8
 71
     3
 72
    14
 73
    10
 74
     0
 42
0.00000001
 43
0.00000001
 40
0.0
 40
0.0
 40
0.0
 40
0.0
 40
0.0621969561616008
 40
0.2157647297090443
 40
0.369282151658945
 40
0.526993307645202
 40
0.6847105014783099
 40
0.8423235966142553
 40
1.0
 40
1.0
 40
1.0
 40
1.0
 10
139.2122761882222
 20
359.9018634508815
 30
0.0
 10
139.496958126058
 20
359.7637672821711
 30
0.0
 10
140.48453573694
 20
359.2847039267516
 30
0.0
 10
142.2956709707498
 20
358.6529039886678
 30
0.0
 10
144.6896655525016
 20
358.1674384741511
 30
0.0
 10
147.1728056547408
 20
358.0490043020757
 30
0.0
 10
149.6598269635628
 20
358.3001225619829
 30
0.0
 10
152.0706571961268
 20
358.9013677752685
 30
0.0
 10
153.5392369213607
 20
359.568320252318
 30
0.0
 10
154.2736742250001
 20
359.9018634508815
 30
0.0
  0
LWPOLYLINE
  5
1E3
330
1F
100
AcDbEntity
  8
0
  6
Continuous
 62
     7
370
    15
100
AcDbPolyline
 90
        9
 70
   128
 43
0.0
 10
154.273674225
 20
359.9018634509
 10
154.3081909023
 20
359.9073768805
 10
154.3513879716
 20
359.893690164
 10
154.4020551793
 20
359.8611832808
 10
154.4587722584
 20
359.8107652019
 10
154.519949907
 20
359.7438589882
 10
154.5838740259
 20
359.6623272847
 10
154.6487518191
 20
359.5684574197
 10
154.7127662762
 20
359.4648868989
  0
LWPOLYLINE
  5
1E4
330
1F
100
AcDbEntity
  8
0
  6
Continuous
 62
     7
370
    15
100
AcDbPolyline
 90
        9
 70
   128
 43
0.0
 10
162.7740542009
 20
324.1460801314
 10
162.7613174334
 20
324.0249895703
 10
162.7435906395
 20
323.9122697364
 10
162.7213730081
 20
323.8110759507
 10
162.6952848002
 20
323.7242506098
 10
162.6660580351
 20
323.6542188774
 10
162.6345141395
 20
323.6029477071
 10
162.6015341445
 20
323.5718713354
 10
162.5680419221
 20
323.5618652056
  0
SPLINE
  5
1E5
330
1F
100
AcDbEntity
  8
0
  6
Continuous
 62
     7
370
    15
100
AcDbSpline
210
0.0
220
0.0
230
1.0
 70
     8
 71
     3
 72
    14
 73
    10
 74
     0
 42
0.00000001
 43
0.00000001
 40
0.0
 40
0.0
 40
0.0
 40
0.0
 40
0.0621969496887063
 40
0.2157646600435376
 40
0.3692821560248033
 40
0.526993304371624
 40
0.6847104186811235
 40
0.8423236010500434
 40
1.0
 40
1.0
 40
1.0
 40
1.0
 10
162.5680419220901
 20
323.5618652056422
 30
0.0
 10
162.2516347356951
 20
323.562766093263
 30
0.0
 10
161.1540006981817
 20
323.5658913222687
 30
0.0
 10
159.2480967097288
 20
323.34930172382
 30
0.0
 10
156.8805472578772
 20
322.7479723682186
 30
0.0
 10
154.5919295449761
 20
321.7772838562905
 30
0.0
 10
152.4601516327309
 20
320.4719643813578
 30
0.0
 10
150.5489430848801
 20
318.8842361012931
 30
0.0
 10
149.5151774406339
 20
317.6461403909368
 30
0.0
 10
148.9981909818327
 20
317.0269684146609
 30
0.0
  0
LWPOLYLINE
  5
1E6
330
1F
100
AcDbEntity
  8
0
  6
Continuous
 62
     7
370
    15
100
AcDbPolyline
 90
        9
 70
   128
 43
0.0
 10
148.9981909818
 20
317.0269684147
 10
148.9694855246
 20
317.0070232104
 10
148.9246272086
 20
317.0006119858
 10
148.8648733194
 20
317.0079172801
 10
148.7918986078
 20
317.028730477
 10
148.7077477924
 20
317.0624704312
 10
148.6147795641
 20
317.1081946443
 10
148.5155991814
 20
317.1646141659
 10
148.412986293
 20
317.2301531981
  0
LWPOLYLINE
  5
1E7
330
1F
100
AcDbEntity
  8
0
  6
Continuous
 62
     7
370
    15
100
AcDbPolyline
 90
        9
 70
   128
 43
0.0
 10
145.0729641202
 20
317.2301531981
 10
144.9703512318
 20
317.1646141659
 10
144.8711708491
 20
317.1081946443
 10
144.7782026208
 20
317.0624704312
 10
144.6940518054
 20
317.028730477
 10
144.6210770938
 20
317.0079172801
 10
144.5613232046
 20
317.0006119858
 10
144.5164648886
 20
317.0070232104
 10
144.4877594314
 20
317.0269684147
  0
SPLINE
  5
1E8
330
1F
100
AcDbEntity
  8
0
  6
Continuous
 62
     7
370
    15
100
AcDbSpline
210
0.0
220
0.0
230
1.0
 70
     8
 71
     3
 72
    14
 73
    10
 74
     0
 42
0.00000001
 43
0.00000001
 40
0.0
 40
0.0
 40
0.0
 40
0.0
 40
0.0621970226497582
 40
0.2157647160752172
 40
0.3692821267343533
 40
0.5269933292392593
 40
0.6847104641183674
 40
0.8423236216947663
 40
1.0
 40
1.0
 40
1.0
 40
1.0
 10
144.4877594313896
 20
317.0269684146609
 30
0.0
 10
144.2911874670131
 20
317.2749080318769
 30
0.0
 10
143.6092690684287
 20
318.1350234977515
 30
0.0
 10
142.2516185033916
 20
319.4900755570407
 30
0.0
 10
140.3053388718299
 20
320.9661789850906
 30
0.0
 10
138.1194935859772
 20
322.1502773061513
 30
0.0
 10
135.7698115576519
 20
323.0031147124341
 30
0.0
 10
133.3368567838222
 20
323.5074264721793
 30
0.0
 10
131.7243323679029
 20
323.54371653557
 30
0.0
 10
130.9179084911323
 20
323.5618652056422
 30
0.0
  0
LWPOLYLINE
  5
1E9
330
1F
100
AcDbEntity
  8
0
  6
Continuous
 62
     7
370
    15
100
AcDbPolyline
 90
        9
 70
   128
 43
0.0
 10
130.9179084911
 20
323.5618652056
 10
130.8844162687
 20
323.5718713354
 10
130.8514362737
 20
323.6029477071
 10
130.8198923781
 20
323.6542188774
 10
130.7906656131
 20
323.7242506098
 10
130.7645774051
 20
323.8110759507
 10
130.7423597738
 20
323.9122697364
 10
130.7246329799
 20
324.0249895703
 10
130.7118962123
 20
324.1460801314
  0
LWPOLYLINE
  5
1EA
330
1F
100
AcDbEntity
  8
0
  6
Continuous
 62
     7
370
    15
100
AcDbPolyline
 90
        9
 70
   128
 43
0.0
 10
128.6294272705
 20
326.7574154984
 10
128.5142077669
 20
326.7967769157
 10
128.4082586482
 20
326.8391409169
 10
128.3145471081
 20
326.8833191346
 10
128.2356994762
 20
326.9280747722
 10
128.1739285752
 20
326.972152407
 10
128.1309610769
 20
327.0143152426
 10
128.1080039754
 20
327.053382362
 10
128.1056998833
 20
327.0882622551
  0
SPLINE
  5
1EB
330
1F
100
AcDbEntity
  8
0
  6
Continuous
 62
     7
370
    15
100
AcDbSpline
210
0.0
220
0.0
230
1.0
 70
     8
 71
     3
 72
    14
 73
    10
 74
     0
 42
0.00000001
 43
0.00000001
 40
0.0
 40
0.0
 40
0.0
 40
0.0
 40
0.0621969194802571
 40
0.2157647509697529
 40
0.3692820900962883
 40
0.5269931935971464
 40
0.6847104657575764
 40
0.8423237334962456
 40
1.0
 40
1.0
 40
1.0
 40
1.0
 10
128.1056998833394
 20
327.0882622550693
 30
0.0
 10
128.1769863709244
 20
327.3965355815065
 30
0.0
 10
128.4242833652098
 20
328.4659537788253
 30
0.0
 10
128.6372209280735
 20
330.372269018348
 30
0.0
 10
128.5778034390253
 20
332.814266553926
 30
0.0
 10
128.1407134580285
 20
335.2615015584489
 30
0.0
 10
127.3424876431141
 20
337.6302931237441
 30
0.0
 10
126.2198532512438
 20
339.8468884845594
 30
0.0
 10
125.2428320506561
 20
341.1302359244939
 30
0.0
 10
124.7542238398767
 20
341.7720378588405
 30
0.0
  0
LWPOLYLINE
  5
1EC
330
1F
100
AcDbEntity
  8
0
  6
Continuous
 62
     7
370
    15
100
AcDbPolyline
 90
        9
 70
   128
 43
0.0
 10
124.7542238399
 20
341.7720378588
 10
124.7411666974
 20
341.8044627856
 10
124.7448994383
 20
341.8496207546
 10
124.7653158917
 20
341.9062526177
 10
124.8018479511
 20
341.9727639507
 10
124.8534674361
 20
342.047299559
 10
124.9187289342
 20
342.1277658294
 10
124.9958051904
 20
342.2119052361
 10
125.0825355365
 20
342.297355945
  0
LWPOLYLINE
  5
1ED
330
1F
100
AcDbEntity
  8
0
  6
Continuous
 62
     7
370
    15
100
AcDbPolyline
 90
        9
 70
   128
 43
0.0
 10
125.8257607534
 20
345.5536396455
 10
125.7846987411
 20
345.6682668279
 10
125.7517615869
 20
345.7775146912
 10
125.7278731629
 20
345.8783210467
 10
125.7137040212
 20
345.9678695749
 10
125.7096509054
 20
346.0436494302
 10
125.715825574
 20
346.1035297464
 10
125.7320566639
 20
346.145834143
 10
125.7578896894
 20
346.1693854283
  0
SPLINE
  5
1EE
330
1F
100
AcDbEntity
  8
0
  6
Continuous
 62
     7
370
    15
100
AcDbSpline
210
0.0
220
0.0
230
1.0
 70
     8
 71
     3
 72
    14
 73
    10
 74
     0
 42
0.00000001
 43
0.00000001
 40
0.0
 40
0.0
 40
0.0
 40
0.0
 40
0.0621969382239147
 40
0.2157646946083262
 40
0.3692823083701669
 40
0.5269934323040533
 40
0.6847106787038684
 40
0.8423235805941272
 40
1.0
 40
1.0
 40
1.0
 40
1.0
 10
125.7578896894431
 20
346.1693854283061
 30
0.0
 10
126.0433536733861
 20
346.3058571739206
 30
0.0
 10
127.0336443705806
 20
346.7792853740225
 30
0.0
 10
128.6568309059044
 20
347.8013660723738
 30
0.0
 10
130.5290095556989
 20
349.3703894680868
 30
0.0
 10
132.1698191768926
 20
351.2379423846505
 30
0.0
 10
133.5241234618803
 20
353.3389393273352
 30
0.0
 10
134.5571778997542
 20
355.5986715138088
 30
0.0
 10
134.9513779315344
 20
357.1626899422553
 30
0.0
 10
135.1485176547742
 20
357.9448566983905
 30
0.0
  0
LWPOLYLINE
  5
1EF
330
1F
100
AcDbEntity
  8
0
  6
Continuous
 62
     7
370
    15
100
AcDbPolyline
 90
        9
 70
   128
 43
0.0
 10
135.1485176548
 20
357.9448566984
 10
135.1657266333
 20
357.9752848695
 10
135.2033613785
 20
358.000519986
 10
135.260366702
 20
358.0198691438
 10
135.3351453855
 20
358.032781
 10
135.4256019532
 20
358.0388904761
 10
135.5292013451
 20
358.0380336593
 10
135.6430406287
 20
358.0302329015
 10
135.7639281615
 20
358.0157042693
  0
SPLINE
  5
1F0
330
1F
100
AcDbEntity
  8
0
  6
Continuous
 62
     7
370
    15
100
AcDbSpline
210
0.0
220
0.0
230
1.0
 70
     8
 71
     3
 72
     9
 73
     5
 74
     0
 42
0.00000001
 43
0.00000001
 40
0.0
 40
0.0
 40
0.0
 40
0.0
 40
0.0183952285436202
 40
1.0
 40
1.0
 40
1.0
 40
1.0
 10
171.0508483066535
 20
344.6145759175982
 30
0.0
 10
171.0516386328171
 20
344.6147555620092
 30
0.0
 10
171.0946022829654
 20
344.624521377666
 30
0.0
 10
171.1050375851953
 20
344.6269244734291
 30
0.0
 10
171.1152809276557
 20
344.6292833636966
 30
0.0
  0
SPLINE
  5
1F1
330
1F
100
AcDbEntity
  8
0
  6
Continuous
 62
     7
370
    15
100
AcDbSpline
210
0.0
220
0.0
230
1.0
 70
     8
 71
     3
 72
    11
 73
     7
 74
     0
 42
0.00000001
 43
0.00000001
 40
0.0
 40
0.0
 40
0.0
 40
0.0
 40
0.199037392090484
 40
0.4636313307252471
 40
0.7350866286791271
 40
1.0
 40
1.0
 40
1.0
 40
1.0
 10
171.0508483066535
 20
344.6145759175982
 30
0.0
 10
170.9625337933995
 20
344.6320311803317
 30
0.0
 10
170.7568167928286
 20
344.6726909106682
 30
0.0
 10
170.0157981001061
 20
344.8368637419188
 30
0.0
 10
168.9321929496416
 20
345.1190471839006
 30
0.0
 10
168.080729073874
 20
345.40995820957
 30
0.0
 10
167.6601896598315
 20
345.5536396454539
 30
0.0
  0
SPLINE
  5
1F2
330
1F
100
AcDbEntity
  8
0
  6
Continuous
 62
     7
370
    15
100
AcDbSpline
210
0.0
220
0.0
230
1.0
 70
     8
 71
     3
 72
    12
 73
     8
 74
     0
 42
0.00000001
 43
0.00000001
 40
0.0
 40
0.0
 40
0.0
 40
0.0
 40
0.2490799181182444
 40
0.5012699158767421
 40
0.7464984264297716
 40
0.992601105484867
 40
1.0
 40
1.0
 40
1.0
 40
1.0
 10
167.7280607237792
 20
346.1693854283061
 30
0.0
 10
168.0737148085543
 20
346.0198821915826
 30
0.0
 10
168.7693389090707
 20
345.7190089800372
 30
0.0
 10
169.6764142897409
 20
345.4169455660508
 30
0.0
 10
170.2821921673006
 20
345.2421158662727
 30
0.0
 10
170.5743063146377
 20
345.1684238745596
 30
0.0
 10
170.5472413888421
 20
345.1754082361072
 30
0.0
 10
170.5464514508224
 20
345.1756120871272
 30
0.0
  0
SPLINE
  5
1F3
330
1F
100
AcDbEntity
  8
0
  6
Continuous
 62
     7
370
    15
100
AcDbSpline
210
0.0
220
0.0
230
1.0
 70
     8
 71
     3
 72
     9
 73
     5
 74
     0
 42
0.00000001
 43
0.00000001
 40
0.0
 40
0.0
 40
0.0
 40
0.0
 40
0.0183952473105179
 40
1.0
 40
1.0
 40
1.0
 40
1.0
 10
166.2363762571788
 20
323.5209950457778
 30
0.0
 10
166.2370100149752
 20
323.5204897867221
 30
0.0
 10
166.2714622724361
 20
323.4930229607982
 30
0.0
 10
166.2798320665663
 20
323.4863448626589
 30
0.0
 10
166.2880478962636
 20
323.4797896097865
 30
0.0
  0
SPLINE
  5
1F4
330
1F
100
AcDbEntity
  8
0
  6
Continuous
 62
     7
370
    15
100
AcDbSpline
210
0.0
220
0.0
230
1.0
 70
     8
 71
     3
 72
    11
 73
     7
 74
     0
 42
0.00000001
 43
0.00000001
 40
0.0
 40
0.0
 40
0.0
 40
0.0
 40
0.1990373375782294
 40
0.4636312705310856
 40
0.735086288382506
 40
1.0
 40
1.0
 40
1.0
 40
1.0
 10
166.2363762571788
 20
323.5209950457778
 30
0.0
 10
166.1949613873979
 20
323.6009257649155
 30
0.0
 10
166.0984909013623
 20
323.7871138506242
 30
0.0
 10
165.7648231083028
 20
324.4688235684764
 30
0.0
 10
165.3098236238644
 20
325.4919566037138
 30
0.0
 10
165.006389789942
 20
326.3390394108735
 30
0.0
 10
164.856523142693
 20
326.7574154983726
 30
0.0
  0
SPLINE
  5
1F5
330
1F
100
AcDbEntity
  8
0
  6
Continuous
 62
     7
370
    15
100
AcDbSpline
210
0.0
220
0.0
230
1.0
 70
     8
 71
     3
 72
    12
 73
     8
 74
     0
 42
0.00000001
 43
0.00000001
 40
0.0
 40
0.0
 40
0.0
 40
0.0
 40
0.2490799323319109
 40
0.501270007618402
 40
0.7464982354521932
 40
0.9926010975469851
 40
1.0
 40
1.0
 40
1.0
 40
1.0
 10
165.3802505298829
 20
327.0882622550693
 30
0.0
 10
165.4788763976435
 20
326.7248056087434
 30
0.0
 10
165.6773596275884
 20
325.9933540053684
 30
0.0
 10
166.0067472814952
 20
325.0958377193518
 30
0.0
 10
166.2477567219081
 20
324.5132258048033
 30
0.0
 10
166.3722840894124
 20
324.2388877522339
 30
0.0
 10
166.3608569407931
 20
324.2644031474765
 30
0.0
 10
166.3605234190202
 20
324.2651478599277
 30
0.0
  0
SPLINE
  5
1F6
330
1F
100
AcDbEntity
  8
0
  6
Continuous
 62
     7
370
    15
100
AcDbSpline
210
0.0
220
0.0
230
1.0
 70
     8
 71
     3
 72
    11
 73
     7
 74
     0
 42
0.00000001
 43
0.00000001
 40
0.0
 40
0.0
 40
0.0
 40
0.0
 40
0.3340934200999498
 40
0.6236929697579788
 40
0.9185170601583851
 40
1.0
 40
1.0
 40
1.0
 40
1.0
 10
168.4034148766971
 20
342.2973559449878
 30
0.0
 10
168.8032312271596
 20
342.6873724430104
 30
0.0
 10
169.5496172137592
 20
343.4154638488022
 30
0.0
 10
170.4725380705031
 20
344.1727356485345
 30
0.0
 10
170.9122056635456
 20
344.5104651587131
 30
0.0
 10
171.0261710291112
 20
344.5960450382486
 30
0.0
 10
171.0508483066535
 20
344.6145759175982
 30
0.0
  0
SPLINE
  5
1F7
330
1F
100
AcDbEntity
  8
0
  6
Continuous
 62
     7
370
    15
100
AcDbSpline
210
0.0
220
0.0
230
1.0
 70
     8
 71
     3
 72
    12
 73
     8
 74
     0
 42
0.00000001
 43
0.00000001
 40
0.0
 40
0.0
 40
0.0
 40
0.0
 40
0.0038859389681459
 40
0.2324208696478493
 40
0.4777425266742188
 40
0.7187426341764247
 40
1.0
 40
1.0
 40
1.0
 40
1.0
 10
170.8485482796407
 20
343.8975320409503
 30
0.0
 10
170.849681356106
 20
343.8984941794757
 30
0.0
 10
170.9174514934136
 20
343.956040392795
 30
0.0
 10
170.7698491443215
 20
343.8328239267278
 30
0.0
 10
170.3633672919667
 20
343.4808634358938
 30
0.0
 10
169.6216321028605
 20
342.7877203397883
 30
0.0
 10
169.0432236022346
 20
342.1275610740769
 30
0.0
 10
168.7317265733457
 20
341.7720378588405
 30
0.0
  0
SPLINE
  5
1F8
330
1F
100
AcDbEntity
  8
0
  6
Continuous
 62
     7
370
    15
100
AcDbSpline
210
0.0
220
0.0
230
1.0
 70
     8
 71
     3
 72
    11
 73
     7
 74
     0
 42
0.00000001
 43
0.00000001
 40
0.0
 40
0.0
 40
0.0
 40
0.0
 40
0.3340929012922469
 40
0.6236930202702904
 40
0.9185171470297371
 40
1.0
 40
1.0
 40
1.0
 40
1.0
 10
162.7740542008853
 20
324.1460801314082
 30
0.0
 10
163.3282610779153
 20
324.076660198879
 30
0.0
 10
164.3628683971743
 20
323.9470653250623
 30
0.0
 10
165.5303621488298
 20
323.6976520254138
 30
0.0
 10
166.0685411531677
 20
323.5644773676207
 30
0.0
 10
166.2065029788172
 20
323.52873454409
 30
0.0
 10
166.2363762571788
 20
323.5209950457778
 30
0.0
  0
SPLINE
  5
1F9
330
1F
100
AcDbEntity
  8
0
  6
Continuous
 62
     7
370
    15
100
AcDbSpline
210
0.0
220
0.0
230
1.0
 70
     8
 71
     3
 72
    12
 73
     8
 74
     0
 42
0.00000001
 43
0.00000001
 40
0.0
 40
0.0
 40
0.0
 40
0.0
 40
0.0038861004051012
 40
0.2324210987991503
 40
0.4777426757232434
 40
0.7187428388419814
 40
0.9999999999999999
 40
0.9999999999999999
 40
0.9999999999999999
 40
0.9999999999999999
 10
165.5496338918185
 20
323.2320876072612
 30
0.0
 10
165.5510941257641
 20
323.2318023916064
 30
0.0
 10
165.6384282506577
 20
323.2147441252316
 30
0.0
 10
165.4499321005237
 20
323.2532514857284
 30
0.0
 10
164.9213773774277
 20
323.3516327094412
 30
0.0
 10
163.9169770397531
 20
323.4993747528629
 30
0.0
 10
163.0402146939039
 20
323.5399914402443
 30
0.0
 10
162.5680419220901
 20
323.5618652056422
 30
0.0
  0
SPLINE
  5
1FA
330
1F
100
AcDbEntity
  8
0
  6
Continuous
 62
     7
370
    15
100
AcDbSpline
210
0.0
220
0.0
230
1.0
 70
     8
 71
     3
 72
    11
 73
     7
 74
     0
 42
0.00000001
 43
0.00000001
 40
0.0
 40
0.0
 40
0.0
 40
0.0
 40
0.3340928023182975
 40
0.6236927821076456
 40
0.9185172308493562
 40
1.0
 40
1.0
 40
1.0
 40
1.0
 10
157.7220222517228
 20
358.0157042692866
 30
0.0
 10
157.6663782980115
 20
358.5714635043161
 30
0.0
 10
157.5625007763862
 20
359.6089687156594
 30
0.0
 10
157.5458712363846
 20
360.802687581062
 30
0.0
 10
157.5559467318398
 20
361.3570152877814
 30
0.0
 10
157.5600977483065
 20
361.4994686972868
 30
0.0
 10
157.5609965785718
 20
361.5303145002093
 30
0.0
  0
SPLINE
  5
1FB
330
1F
100
AcDbEntity
  8
0
  6
Continuous
 62
     7
370
    15
100
AcDbSpline
210
0.0
220
0.0
230
1.0
 70
     8
 71
     3
 72
    10
 73
     6
 74
     0
 42
0.00000001
 43
0.00000001
 40
0.0
 40
0.0
 40
0.0
 40
0.0
 40
0.0181942782342335
 40
0.9944233327373613
 40
1.0
 40
1.0
 40
1.0
 40
1.0
 10
157.5609965785718
 20
361.5303145002093
 30
0.0
 10
157.5613465106769
 20
361.5310422933108
 30
0.0
 10
157.5804723394475
 20
361.570820427524
 30
0.0
 10
157.5991173188552
 20
361.6097426255587
 30
0.0
 10
157.5897188647088
 20
361.5899570216259
 30
0.0
 10
157.5896654813862
 20
361.5898446391788
 30
0.0
  0
SPLINE
  5
1FC
330
1F
100
AcDbEntity
  8
0
  6
Continuous
 62
     7
370
    15
100
AcDbSpline
210
0.0
220
0.0
230
1.0
 70
     8
 71
     3
 72
    12
 73
     8
 74
     0
 42
0.00000001
 43
0.00000001
 40
0.0
 40
0.0
 40
0.0
 40
0.0
 40
0.0038861168031962
 40
0.2324209126830702
 40
0.4777429580977829
 40
0.7187420857167032
 40
1.0
 40
1.0
 40
1.0
 40
1.0
 10
157.9954734607911
 20
360.9250814865794
 30
0.0
 10
157.9954267456769
 20
360.9265687438051
 30
0.0
 10
157.9926328076583
 20
361.0155186388516
 30
0.0
 10
157.997023707705
 20
360.8231703362569
 30
0.0
 10
158.0187255624553
 20
360.2859684292607
 30
0.0
 10
158.0981901537129
 20
359.2738815300519
 30
0.0
 10
158.2536896053213
 20
358.410061171943
 30
0.0
 10
158.3374327584481
 20
357.9448566983905
 30
0.0
  0
SPLINE
  5
1FD
330
1F
100
AcDbEntity
  8
0
  6
Continuous
 62
     7
370
    15
100
AcDbSpline
210
0.0
220
0.0
230
1.0
 70
     8
 71
     3
 72
    11
 73
     7
 74
     0
 42
0.00000001
 43
0.00000001
 40
0.0
 40
0.0
 40
0.0
 40
0.0
 40
0.1990373814958631
 40
0.4636310259420722
 40
0.7350861781794668
 40
1.0
 40
1.0
 40
1.0
 40
1.0
 10
157.5609965785718
 20
361.5303145002093
 30
0.0
 10
157.4922852716184
 20
361.4721514946423
 30
0.0
 10
157.3322314490791
 20
361.336668532898
 30
0.0
 10
156.7418626483542
 20
360.859676703829
 30
0.0
 10
155.8456273009087
 20
360.1884159036032
 30
0.0
 10
155.0873038866556
 20
359.7040943732209
 30
0.0
 10
154.712766276238
 20
359.4648868988719
 30
0.0
  0
SPLINE
  5
1FE
330
1F
100
AcDbEntity
  8
0
  6
Continuous
 62
     7
370
    15
100
AcDbSpline
210
0.0
220
0.0
230
1.0
 70
     8
 71
     3
 72
    12
 73
     8
 74
     0
 42
0.00000001
 43
0.00000001
 40
0.0
 40
0.0
 40
0.0
 40
0.0
 40
0.2490793621862254
 40
0.5012700876945916
 40
0.7464981942264285
 40
0.9926011302422489
 40
0.9999999999999999
 40
0.9999999999999999
 40
0.9999999999999999
 40
0.9999999999999999
 10
154.2736742250001
 20
359.9018634508815
 30
0.0
 10
154.6060714949453
 20
360.0788917917897
 30
0.0
 10
155.2750181599454
 20
360.4351598149314
 30
0.0
 10
156.0767299762816
 20
360.956011204268
 30
0.0
 10
156.5911253005447
 20
361.3206172253844
 30
0.0
 10
156.8308308176284
 20
361.5030581686438
 30
0.0
 10
156.8085279371525
 20
361.4862505853747
 30
0.0
 10
156.8078769906735
 20
361.4857600282397
 30
0.0
  0
SPLINE
  5
1FF
330
1F
100
AcDbEntity
  8
0
  6
Continuous
 62
     7
370
    15
100
AcDbSpline
210
0.0
220
0.0
230
1.0
 70
    24
 71
     3
 72
     9
 73
     5
 74
     0
 42
0.00000001
 43
0.00000001
 40
0.0
 40
0.0
 40
0.0
 40
0.0
 40
0.0183954918937032
 40
0.9999999999999999
 40
0.9999999999999999
 40
0.9999999999999999
 40
0.9999999999999999
 10
146.7429752066112
 20
314.1334683846202
 30
0.0
 10
146.742975206611
 20
314.1326574726222
 30
0.0
 10
146.7429752066042
 20
314.0885753680113
 30
0.0
 10
146.7429752066076
 20
314.0778782998075
 30
0.0
 10
146.742975206611
 20
314.0673780094352
 30
0.0
  0
SPLINE
  5
200
330
1F
100
AcDbEntity
  8
0
  6
Continuous
 62
     7
370
    15
100
AcDbSpline
210
0.0
220
0.0
230
1.0
 70
     8
 71
     3
 72
    11
 73
     7
 74
     0
 42
0.00000001
 43
0.00000001
 40
0.0
 40
0.0
 40
0.0
 40
0.0
 40
0.1990375080271612
 40
0.4636314165211434
 40
0.7350867528181583
 40
1.0
 40
1.0
 40
1.0
 40
1.0
 10
146.7429752066112
 20
314.1334683846202
 30
0.0
 10
146.7796460237407
 20
314.2156843420079
 30
0.0
 10
146.8650658175234
 20
314.4071954856215
 30
0.0
 10
147.1900087898654
 20
315.0931041991836
 30
0.0
 10
147.7062397397669
 20
316.0867506057281
 30
0.0
 10
148.1793275262751
 20
316.8521307820406
 30
0.0
 10
148.4129862930006
 20
317.2301531981196
 30
0.0
  0
SPLINE
  5
201
330
1F
100
AcDbEntity
  8
0
  6
Continuous
 62
     7
370
    15
100
AcDbSpline
210
0.0
220
0.0
230
1.0
 70
     8
 71
     3
 72
    12
 73
     8
 74
     0
 42
0.00000001
 43
0.00000001
 40
0.0
 40
0.0
 40
0.0
 40
0.0
 40
0.249079873078166
 40
0.501269764781076
 40
0.7464982569065468
 40
0.992601115954308
 40
1.0
 40
1.0
 40
1.0
 40
1.0
 10
148.9981909818327
 20
317.0269684146609
 30
0.0
 10
148.7755222209242
 20
316.7232473050904
 30
0.0
 10
148.3274044504062
 20
316.112012815238
 30
0.0
 10
147.8310689307375
 20
315.2948995773702
 30
0.0
 10
147.5258123215106
 20
314.7432145231582
 30
0.0
 10
147.3890165447673
 20
314.4748095452347
 30
0.0
 10
147.4018073129859
 20
314.4996509133837
 30
0.0
 10
147.4021806335388
 20
314.500375951406
 30
0.0
  0
SPLINE
  5
202
330
1F
100
AcDbEntity
  8
0
  6
Continuous
 62
     7
370
    15
100
AcDbSpline
210
0.0
220
0.0
230
1.0
 70
     8
 71
     3
 72
    11
 73
     7
 74
     0
 42
0.00000001
 43
0.00000001
 40
0.0
 40
0.0
 40
0.0
 40
0.0
 40
0.334093113944848
 40
0.6236929259848001
 40
0.9185171271114039
 40
0.9999999999999999
 40
0.9999999999999999
 40
0.9999999999999999
 40
0.9999999999999999
 10
145.0729641202217
 20
317.2301531981196
 30
0.0
 10
145.3642327829509
 20
316.7535741849676
 30
0.0
 10
145.9079800106632
 20
315.8638852127345
 30
0.0
 10
146.4408989477312
 20
314.7955969082238
 30
0.0
 10
146.6723304485962
 20
314.2917994197912
 30
0.0
 10
146.730401016469
 20
314.161650016175
 30
0.0
 10
146.7429752066112
 20
314.1334683846202
 30
0.0
  0
SPLINE
  5
203
330
1F
100
AcDbEntity
  8
0
  6
Continuous
 62
     7
370
    15
100
AcDbSpline
210
0.0
220
0.0
230
1.0
 70
     8
 71
     3
 72
    12
 73
     8
 74
     0
 42
0.00000001
 43
0.00000001
 40
0.0
 40
0.0
 40
0.0
 40
0.0
 40
0.0038860333291456
 40
0.2324209663438557
 40
0.4777427394488513
 40
0.7187427209284245
 40
0.9999999999999999
 40
0.9999999999999999
 40
0.9999999999999999
 40
0.9999999999999999
 10
146.0889226128659
 20
314.4902543376651
 30
0.0
 10
146.0896098242784
 20
314.4889353679619
 30
0.0
 10
146.1307114636745
 20
314.4100487020428
 30
0.0
 10
146.0433114299106
 20
314.5813805052662
 30
0.0
 10
145.7906748009712
 20
315.0559863775845
 30
0.0
 10
145.2799505748429
 20
315.9333645364173
 30
0.0
 10
144.7650531386284
 20
316.6441700507118
 30
0.0
 10
144.4877594313896
 20
317.0269684146609
 30
0.0
  0
SPLINE
  5
204
330
1F
100
AcDbEntity
  8
0
  6
Continuous
 62
     7
370
    15
100
AcDbSpline
210
0.0
220
0.0
230
1.0
 70
     8
 71
     3
 72
    11
 73
     7
 74
     0
 42
0.00000001
 43
0.00000001
 40
0.0
 40
0.0
 40
0.0
 40
0.0
 40
0.1990374626276772
 40
0.4636313102324444
 40
0.7350862988613814
 40
1.0
 40
1.0
 40
1.0
 40
1.0
 10
135.9249538346505
 20
361.5303145002093
 30
0.0
 10
135.9275868327541
 20
361.4403293784866
 30
0.0
 10
135.9337200518199
 20
361.2307209995668
 30
0.0
 10
135.9385610902927
 20
360.4717507549458
 30
0.0
 10
135.904579267014
 20
359.3525228459393
 30
0.0
 10
135.810429127144
 20
358.457672744959
 30
0.0
 10
135.7639281614995
 20
358.0157042692866
 30
0.0
  0
SPLINE
  5
205
330
1F
100
AcDbEntity
  8
0
  6
Continuous
 62
     7
370
    15
100
AcDbSpline
210
0.0
220
0.0
230
1.0
 70
     8
 71
     3
 72
     9
 73
     5
 74
     0
 42
0.00000001
 43
0.00000001
 40
0.0
 40
0.0
 40
0.0
 40
0.0
 40
0.9816043404786406
 40
1.0
 40
1.0
 40
1.0
 40
1.0
 10
135.8962784125781
 20
361.5898595403399
 30
0.0
 10
135.9008437784437
 20
361.5804118172359
 30
0.0
 10
135.9054947010989
 20
361.570787040007
 30
0.0
 10
135.9246023370847
 20
361.5310455707467
 30
0.0
 10
135.9249538346505
 20
361.5303145002093
 30
0.0
  0
SPLINE
  5
206
330
1F
100
AcDbEntity
  8
0
  6
Continuous
 62
     7
370
    15
100
AcDbSpline
210
0.0
220
0.0
230
1.0
 70
     8
 71
     3
 72
    12
 73
     8
 74
     0
 42
0.00000001
 43
0.00000001
 40
0.0
 40
0.0
 40
0.0
 40
0.0
 40
0.2490798698527115
 40
0.5012698847360183
 40
0.7464983549979429
 40
0.9926011731045363
 40
0.9999999999999999
 40
0.9999999999999999
 40
0.9999999999999999
 40
0.9999999999999999
 10
135.1485176547742
 20
357.9448566983905
 30
0.0
 10
135.2173562683423
 20
358.3151127305285
 30
0.0
 10
135.3558930513791
 20
359.0602480104786
 30
0.0
 10
135.4485407955365
 20
360.0117878894947
 30
0.0
 10
135.4842021100386
 20
360.6413108211205
 30
0.0
 10
135.4909909103324
 20
360.9424240599842
 30
0.0
 10
135.4902481065059
 20
360.9145406218417
 30
0.0
 10
135.4902264266586
 20
360.9137268017497
 30
0.0
  0
SPLINE
  5
207
330
1F
100
AcDbEntity
  8
0
  6
Continuous
 62
     7
370
    15
100
AcDbSpline
210
0.0
220
0.0
230
1.0
 70
     8
 71
     3
 72
    11
 73
     7
 74
     0
 42
0.00000001
 43
0.00000001
 40
0.0
 40
0.0
 40
0.0
 40
0.0
 40
0.334093208742848
 40
0.6236932190365655
 40
0.9185170653480814
 40
0.9999999999999999
 40
0.9999999999999999
 40
0.9999999999999999
 40
0.9999999999999999
 10
138.7731841369844
 20
359.4648868988719
 30
0.0
 10
138.3039803252938
 20
359.7678932971413
 30
0.0
 10
137.4280593905384
 20
360.333552912422
 30
0.0
 10
136.4844029396264
 20
361.0648292215681
 30
0.0
 10
136.0572999158916
 20
361.4183087554809
 30
0.0
 10
135.948510386319
 20
361.5103783669432
 30
0.0
 10
135.9249538346505
 20
361.5303145002093
 30
0.0
  0
SPLINE
  5
208
330
1F
100
AcDbEntity
  8
0
  6
Continuous
 62
     7
370
    15
100
AcDbSpline
210
0.0
220
0.0
230
1.0
 70
     8
 71
     3
 72
    12
 73
     8
 74
     0
 42
0.00000001
 43
0.00000001
 40
0.0
 40
0.0
 40
0.0
 40
0.0
 40
0.0038861807267274
 40
0.2324211522189357
 40
0.4777428151183545
 40
0.7187428515230309
 40
0.9999999999999999
 40
0.9999999999999999
 40
0.9999999999999999
 40
0.9999999999999999
 10
136.6690386622525
 20
361.4926443647113
 30
0.0
 10
136.6678469559166
 20
361.4935362739436
 30
0.0
 10
136.5965744703661
 20
361.5468787677741
 30
0.0
 10
136.7496789732559
 20
361.4302822844371
 30
0.0
 10
137.1832107733729
 20
361.1123571348568
 30
0.0
 10
138.0240402847493
 20
360.5434428600316
 30
0.0
 10
138.7963534995356
 20
360.126437907923
 30
0.0
 10
139.2122761882222
 20
359.9018634508815
 30
0.0
  0
SPLINE
  5
209
330
1F
100
AcDbEntity
  8
0
  6
Continuous
 62
     7
370
    15
100
AcDbSpline
210
0.0
220
0.0
230
1.0
 70
     8
 71
     3
 72
     9
 73
     5
 74
     0
 42
0.00000001
 43
0.00000001
 40
0.0
 40
0.0
 40
0.0
 40
0.0
 40
0.0183952473105179
 40
1.0
 40
1.0
 40
1.0
 40
1.0
 10
127.2495741560435
 20
323.5209950457778
 30
0.0
 10
127.2489403982472
 20
323.5204897867221
 30
0.0
 10
127.2144881407863
 20
323.4930229607982
 30
0.0
 10
127.206118346656
 20
323.4863448626589
 30
0.0
 10
127.1979025169587
 20
323.4797896097865
 30
0.0
  0
SPLINE
  5
20A
330
1F
100
AcDbEntity
  8
0
  6
Continuous
 62
     7
370
    15
100
AcDbSpline
210
0.0
220
0.0
230
1.0
 70
     8
 71
     3
 72
    11
 73
     7
 74
     0
 42
0.00000001
 43
0.00000001
 40
0.0
 40
0.0
 40
0.0
 40
0.0
 40
0.1990375103699237
 40
0.4636312691642578
 40
0.7350865844015047
 40
1.0
 40
1.0
 40
1.0
 40
1.0
 10
127.2495741560435
 20
323.5209950457778
 30
0.0
 10
127.3367174395217
 20
323.5435854452879
 30
0.0
 10
127.5397060673589
 20
323.5962067606187
 30
0.0
 10
128.2785679940646
 20
323.7698147791234
 30
0.0
 10
129.3772983317093
 20
323.9857332945852
 30
0.0
 10
130.27066226674
 20
324.0930675584809
 30
0.0
 10
130.711896212337
 20
324.1460801314082
 30
0.0
  0
SPLINE
  5
20B
330
1F
100
AcDbEntity
  8
0
  6
Continuous
 62
     7
370
    15
100
AcDbSpline
210
0.0
220
0.0
230
1.0
 70
     8
 71
     3
 72
    12
 73
     8
 74
     0
 42
0.00000001
 43
0.00000001
 40
0.0
 40
0.0
 40
0.0
 40
0.0
 40
0.2490797629713173
 40
0.5012698050229643
 40
0.7464982756750322
 40
0.9926011065530136
 40
1.0
 40
1.0
 40
1.0
 40
1.0
 10
130.9179084911323
 20
323.5618652056422
 30
0.0
 10
130.5416183731359
 20
323.5465876365416
 30
0.0
 10
129.7843393721043
 20
323.5158417261034
 30
0.0
 10
128.8360332270908
 20
323.3944266219704
 30
0.0
 10
128.2143870600947
 20
323.2891233175463
 30
0.0
 10
127.9192418731492
 20
323.2287104145598
 30
0.0
 10
127.9466441790577
 20
323.2342106754318
 30
0.0
 10
127.9474439635253
 20
323.2343712102141
 30
0.0
  0
SPLINE
  5
20C
330
1F
100
AcDbEntity
  8
0
  6
Continuous
 62
     7
370
    15
100
AcDbSpline
210
0.0
220
0.0
230
1.0
 70
     8
 71
     3
 72
    11
 73
     7
 74
     0
 42
0.00000001
 43
0.00000001
 40
0.0
 40
0.0
 40
0.0
 40
0.0
 40
0.334093183413553
 40
0.6236929404253014
 40
0.9185171594738929
 40
1.0
 40
1.0
 40
1.0
 40
1.0
 10
128.6294272705293
 20
326.7574154983726
 30
0.0
 10
128.4384257630605
 20
326.232549900991
 30
0.0
 10
128.0818596978637
 20
325.252718572455
 30
0.0
 10
127.578906476066
 20
324.1699995251651
 30
0.0
 10
127.3293181801986
 20
323.6749437346024
 30
0.0
 10
127.2637679370809
 20
323.5483966473813
 30
0.0
 10
127.2495741560435
 20
323.5209950457778
 30
0.0
  0
SPLINE
  5
20D
330
1F
100
AcDbEntity
  8
0
  6
Continuous
 62
     7
370
    15
100
AcDbSpline
210
0.0
220
0.0
230
1.0
 70
     8
 71
     3
 72
    12
 73
     8
 74
     0
 42
0.00000001
 43
0.00000001
 40
0.0
 40
0.0
 40
0.0
 40
0.0
 40
0.0038861219912156
 40
0.232421083131722
 40
0.4777427558445297
 40
0.7187426298289951
 40
1.0
 40
1.0
 40
1.0
 40
1.0
 10
127.1207256778455
 20
324.2548064540591
 30
0.0
 10
127.1201226671277
 20
324.2534460987691
 30
0.0
 10
127.0840578177755
 20
324.1720860049072
 30
0.0
 10
127.163541332842
 20
324.3473048232928
 30
0.0
 10
127.3770769105924
 20
324.8407086520724
 30
0.0
 10
127.744612235396
 20
325.7870516512037
 30
0.0
 10
127.9793069584927
 20
326.6327944067481
 30
0.0
 10
128.1056998833394
 20
327.0882622550693
 30
0.0
  0
SPLINE
  5
20E
330
1F
100
AcDbEntity
  8
0
  6
Continuous
 62
     7
370
    15
100
AcDbSpline
210
0.0
220
0.0
230
1.0
 70
     8
 71
     3
 72
    11
 73
     7
 74
     0
 42
0.00000001
 43
0.00000001
 40
0.0
 40
0.0
 40
0.0
 40
0.0
 40
0.3340931672287332
 40
0.6236929823694408
 40
0.918517064921058
 40
1.0
 40
1.0
 40
1.0
 40
1.0
 10
125.8257607533908
 20
345.5536396454539
 30
0.0
 10
125.2963174515503
 20
345.375721311611
 30
0.0
 10
124.3079402433019
 20
345.043579181399
 30
0.0
 10
123.1478476232645
 20
344.761742503956
 30
0.0
 10
122.6051861766374
 20
344.6482214133518
 30
0.0
 10
122.4653757050988
 20
344.6205645456359
 30
0.0
 10
122.4351021065688
 20
344.6145759175982
 30
0.0
  0
SPLINE
  5
20F
330
1F
100
AcDbEntity
  8
0
  6
Continuous
 62
     7
370
    15
100
AcDbSpline
210
0.0
220
0.0
230
1.0
 70
     8
 71
     3
 72
    10
 73
     6
 74
     0
 42
0.00000001
 43
0.00000001
 40
0.0
 40
0.0
 40
0.0
 40
0.0
 40
0.018193864460884
 40
0.9944237710843639
 40
1.0
 40
1.0
 40
1.0
 40
1.0
 10
122.4351021065688
 20
344.6145759175982
 30
0.0
 10
122.4343152950659
 20
344.6147547557985
 30
0.0
 10
122.3913104643117
 20
344.6245295322308
 30
0.0
 10
122.3494557202672
 20
344.6341404249127
 30
0.0
 10
122.3705626459873
 20
344.6293033853823
 30
0.0
 10
122.3706825240827
 20
344.629275913116
 30
0.0
  0
SPLINE
  5
210
330
1F
100
AcDbEntity
  8
0
  6
Continuous
 62
     7
370
    15
100
AcDbSpline
210
0.0
220
0.0
230
1.0
 70
     8
 71
     3
 72
    12
 73
     8
 74
     0
 42
0.00000001
 43
0.00000001
 40
0.0
 40
0.0
 40
0.0
 40
0.0
 40
0.003886052318354
 40
0.2324210018324504
 40
0.4777426605019827
 40
0.7187425312693069
 40
1.0
 40
1.0
 40
1.0
 40
1.0
 10
122.9284832789874
 20
345.1728404711452
 30
0.0
 10
122.9270443648518
 20
345.1724637067986
 30
0.0
 10
122.8409843127587
 20
345.1499297984228
 30
0.0
 10
123.0274796583793
 20
345.1970353957553
 30
0.0
 10
123.5463961005448
 20
345.3377219951602
 30
0.0
 10
124.5154269622753
 20
345.6404013107708
 30
0.0
 10
125.3229855432385
 20
345.9842230238636
 30
0.0
 10
125.7578896894431
 20
346.1693854283061
 30
0.0
  0
SPLINE
  5
211
330
1F
100
AcDbEntity
  8
0
  6
Continuous
 62
     7
370
    15
100
AcDbSpline
210
0.0
220
0.0
230
1.0
 70
     8
 71
     3
 72
    11
 73
     7
 74
     0
 42
0.00000001
 43
0.00000001
 40
0.0
 40
0.0
 40
0.0
 40
0.0
 40
0.1990373065918737
 40
0.4636314619600062
 40
0.7350858230440989
 40
1.0
 40
1.0
 40
1.0
 40
1.0
 10
122.4351021065688
 20
344.6145759175982
 30
0.0
 10
122.5070972207545
 20
344.5605318031975
 30
0.0
 10
122.6748004549644
 20
344.4346430831428
 30
0.0
 10
123.2712011982914
 20
343.9652043661652
 30
0.0
 10
124.1250665330257
 20
343.2408209406452
 30
0.0
 10
124.7659842016769
 20
342.6092773781271
 30
0.0
 10
125.0825355365253
 20
342.2973559449878
 30
0.0
  0
SPLINE
  5
212
330
1F
100
AcDbEntity
  8
0
  6
Continuous
 62
     7
370
    15
100
AcDbSpline
210
0.0
220
0.0
230
1.0
 70
     8
 71
     3
 72
    12
 73
     8
 74
     0
 42
0.00000001
 43
0.00000001
 40
0.0
 40
0.0
 40
0.0
 40
0.0
 40
0.2490795114493352
 40
0.5012698926095773
 40
0.7464983849852787
 40
0.9926011332293766
 40
1.0
 40
1.0
 40
1.0
 40
1.0
 10
124.7542238398767
 20
341.7720378588405
 30
0.0
 10
124.5076669196719
 20
342.0567079887492
 30
0.0
 10
124.0114737153651
 20
342.6296036260427
 30
0.0
 10
123.3252897320928
 20
343.2953163201846
 30
0.0
 10
122.8553614251767
 20
343.7156939313617
 30
0.0
 10
122.6241321592006
 20
343.908755196376
 30
0.0
 10
122.6455012094984
 20
343.890777531785
 30
0.0
 10
122.6461249008155
 20
343.8902528237071
 30
0.0
  0
ARC
  5
213
330
1F
100
AcDbEntity
  8
0
  6
Continuous
 62
     7
370
    15
100
AcDbCircle
 10
164.7429752066
 20
246.0664628099
 30
0.0
 40
2.0
100
AcDbArc
 50
270.0
 51
0.0
  0
ARC
  5
214
330
1F
100
AcDbEntity
  8
0
  6
Continuous
 62
     7
370
    15
100
AcDbCircle
 10
85.718389997
 20
246.0664628099
 30
0.0
 40
2.000000000000004
100
AcDbArc
 50
206.178968704
 51
270.0
  0
CIRCLE
  5
215
330
1F
100
AcDbEntity
  8
0
  6
Continuous
 62
     7
370
    15
100
AcDbCircle
 10
83.7429752066
 20
276.0664628099
 30
0.0
 40
2.0
  0
ARC
  5
216
330
1F
100
AcDbEntity
  8
0
  6
Continuous
 62
     7
370
    15
100
AcDbCircle
 10
146.7429752066
 20
276.0664628099
 30
0.0
 40
70.00000000000001
100
AcDbArc
 50
108.7203436322
 51
206.178968704
  0
LINE
  5
217
330
1F
100
AcDbEntity
  8
0
  6
Continuous
 62
     7
370
    15
100
AcDbLine
 10
85.7183913305
 20
244.06646129
 30
0.0
 11
164.7429744318
 21
244.06646129
 31
0.0
  0
LINE
  5
218
330
1F
100
AcDbEntity
  8
0
  6
Continuous
 62
     7
370
    15
100
AcDbLine
 10
166.7429747596
 20
246.0664634805
 30
0.0
 11
166.7429747596
 21
294.1794146996
 31
0.0
  0
LINE
  5
219
330
1F
100
AcDbEntity
  8
0
  6
Continuous
 62
     7
370
    15
100
AcDbLine
 10
166.7429747596
 20
301.9535106819
 30
0.0
 11
166.7429747596
 21
338.7227238368
 31
0.0
  0
CIRCLE
  5
21A
330
1F
100
AcDbEntity
  8
0
  6
Continuous
 62
     7
370
    15
100
AcDbCircle
 10
83.7429752066
 20
276.0664628099
 30
0.0
 40
0.5
  0
LINE
  5
21B
330
1F
100
AcDbEntity
  8
0
  6
Continuous
 62
     7
370
    15
100
AcDbLine
 10
166.7429747596
 20
312.4709570061
 30
0.0
 11
167.5429752632
 21
312.4709570061
 31
0.0
  0
LINE
  5
21C
330
1F
100
AcDbEntity
  8
0
  6
Continuous
 62
     7
370
    15
100
AcDbLine
 10
167.5429752632
 20
352.9534519862
 30
0.0
 11
160.2731457516
 21
352.9534519862
 31
0.0
  0
LINE
  5
21D
330
1F
100
AcDbEntity
  8
0
  6
Continuous
 62
     7
370
    15
100
AcDbLine
 10
133.2044385909
 20
352.9534519862
 30
0.0
 11
125.94297515
 21
352.9534519862
 31
0.0
  0
LINE
  5
21E
330
1F
100
AcDbEntity
  8
0
  6
Continuous
 62
     7
370
    15
100
AcDbLine
 10
125.94297515
 20
360.5472327422
 30
0.0
 11
134.2429750203
 21
360.5472327422
 31
0.0
  0
LINE
  5
21F
330
1F
100
AcDbEntity
  8
0
  6
Continuous
 62
     7
370
    15
100
AcDbLine
 10
159.2429753929
 20
360.5472327422
 30
0.0
 11
167.5429752632
 21
360.5472327422
 31
0.0
  0
SPLINE
  5
220
330
1F
100
AcDbEntity
  8
0
  6
Continuous
 62
     7
370
    15
100
AcDbSpline
210
0.0
220
0.0
230
1.0
 70
     8
 71
     3
 72
    27
 73
    23
 74
     0
 42
0.00000001
 43
0.00000001
 40
0.0
 40
0.0
 40
0.0
 40
0.0
 40
0.01325235407909
 40
0.064898100972368
 40
0.1185252725043067
 40
0.1739426292295982
 40
0.227493549728453
 40
0.2826191305420656
 40
0.3361905244006719
 40
0.3913232877573233
 40
0.4448798952187097
 40
0.4999859987405989
 40
0.5663627947223984
 40
0.619667357206554
 40
0.6745027045089841
 40
0.7260092521877514
 40
0.7789031221825578
 40
0.8318815062897607
 40
0.8864190345729123
 40
0.9399788952746551
 40
0.995154836906476
 40
1.0
 40
1.0
 40
1.0
 40
1.0
 10
161.6991216852643
 20
484.0587184976306
 30
0.0
 10
161.7095904406414
 20
484.0585510944625
 30
0.0
 10
161.7608569808698
 20
484.0577313044362
 30
0.0
 10
161.4705183067276
 20
484.0619138778255
 30
0.0
 10
160.7949199489852
 20
484.0763029035836
 30
0.0
 10
159.6269602543449
 20
484.0401229426263
 30
0.0
 10
158.0929000659637
 20
484.0126150695724
 30
0.0
 10
156.2475594893264
 20
483.9857129581081
 30
0.0
 10
154.1143071749083
 20
483.9633174498803
 30
0.0
 10
151.7913136447274
 20
483.9464420208744
 30
0.0
 10
149.3037618608369
 20
483.9358432887295
 30
0.0
 10
146.5673465718858
 20
483.9319562743286
 30
0.0
 10
143.8314612509251
 20
483.9366263991323
 30
0.0
 10
141.2075200236678
 20
483.9494144900132
 30
0.0
 10
138.9579101734056
 20
483.9671605410717
 30
0.0
 10
136.9282417084621
 20
483.9897715735399
 30
0.0
 10
135.1799883795783
 20
484.0161029741136
 30
0.0
 10
133.7192040620664
 20
484.0439209465646
 30
0.0
 10
132.6015501826662
 20
484.0771129028058
 30
0.0
 10
131.9631279122412
 20
484.0602734510188
 30
0.0
 10
131.6974328590746
 20
484.0572495266571
 30
0.0
 10
131.7621371506715
 20
484.0583054346275
 30
0.0
 10
131.7673603608586
 20
484.0583906720843
 30
0.0
  0
ARC
  5
221
330
1F
100
AcDbEntity
  8
0
  6
Continuous
 62
     7
370
    15
100
AcDbCircle
 10
160.2429752066
 20
298.0664628099
 30
0.0
 40
5.505553499465164
100
AcDbArc
 50
259.5350043722
 51
300.0
  0
ARC
  5
222
330
1F
100
AcDbEntity
  8
0
  6
Continuous
 62
     7
370
    15
100
AcDbCircle
 10
160.2429752066
 20
298.0664628099
 30
0.0
 40
5.505553499465164
100
AcDbArc
 50
300.0
 51
100.4649956278
  0
LINE
  5
223
330
1F
100
AcDbEntity
  8
0
  6
Continuous
 62
     7
370
    15
100
AcDbLine
 10
296.2491657065
 20
135.9872238528
 30
0.0
 11
296.2491657065
 21
132.1872228574
 31
0.0
  0
LINE
  5
224
330
1F
100
AcDbEntity
  8
0
  6
Continuous
 62
     7
370
    15
100
AcDbLine
 10
450.249164872
 20
132.1872228574
 30
0.0
 11
450.249164872
 21
135.9872238528
 31
0.0
  0
LINE
  5
225
330
1F
100
AcDbEntity
  8
0
  6
Continuous
 62
     7
370
    15
100
AcDbLine
 10
296.2491657065
 20
90.1872234236
 30
0.0
 11
296.2491657065
 21
86.3872224282
 31
0.0
  0
LINE
  5
226
330
1F
100
AcDbEntity
  8
0
  6
Continuous
 62
     7
370
    15
100
AcDbLine
 10
450.249164872
 20
86.3872224282
 30
0.0
 11
450.249164872
 21
90.1872234236
 31
0.0
  0
LINE
  5
227
330
1F
100
AcDbEntity
  8
0
  6
Continuous
 62
     7
370
    15
100
AcDbLine
 10
317.2491635607
 20
90.3872230839
 30
0.0
 11
317.2491635607
 21
90.1872234236
 31
0.0
  0
LINE
  5
228
330
1F
100
AcDbEntity
  8
0
  6
Continuous
 62
     7
370
    15
100
AcDbLine
 10
317.2491635607
 20
132.1872228574
 30
0.0
 11
317.2491635607
 21
131.9872231971
 31
0.0
  0
LINE
  5
229
330
1F
100
AcDbEntity
  8
0
  6
Continuous
 62
     7
370
    15
100
AcDbLine
 10
429.2491670178
 20
131.9872231971
 30
0.0
 11
429.2491670178
 21
132.1872228574
 31
0.0
  0
LINE
  5
22A
330
1F
100
AcDbEntity
  8
0
  6
Continuous
 62
     7
370
    15
100
AcDbLine
 10
429.2491670178
 20
90.1872234236
 30
0.0
 11
429.2491670178
 21
90.3872230839
 31
0.0
  0
LINE
  5
22B
330
1F
100
AcDbEntity
  8
0
  6
Continuous
 62
     7
370
    15
100
AcDbLine
 10
458.2491661833
 20
115.1872233305
 30
0.0
 11
453.1991626547
 21
115.1872233305
 31
0.0
  0
LINE
  5
22C
330
1F
100
AcDbEntity
  8
0
  6
Continuous
 62
     7
370
    15
100
AcDbLine
 10
453.1991626547
 20
107.1872229505
 30
0.0
 11
458.3714302109
 21
107.1872229505
 31
0.0
  0
LINE
  5
22D
330
1F
100
AcDbEntity
  8
0
  6
Continuous
 62
     7
370
    15
100
AcDbLine
 10
279.799162917
 20
130.5872237127
 30
0.0
 11
275.7991622613
 21
126.587223057
 31
0.0
  0
LINE
  5
22E
330
1F
100
AcDbEntity
  8
0
  6
Continuous
 62
     7
370
    15
100
AcDbLine
 10
275.7991622613
 20
95.7872232239
 30
0.0
 11
279.799162917
 21
91.7872225683
 31
0.0
  0
LINE
  5
22F
330
1F
100
AcDbEntity
  8
0
  6
Continuous
 62
     7
370
    15
100
AcDbLine
 10
279.799162917
 20
91.7872225683
 30
0.0
 11
283.2991625594
 21
91.7872225683
 31
0.0
  0
LINE
  5
230
330
1F
100
AcDbEntity
  8
0
  6
Continuous
 62
     7
370
    15
100
AcDbLine
 10
283.2991625594
 20
130.5872237127
 30
0.0
 11
279.799162917
 21
130.5872237127
 31
0.0
  0
LINE
  5
231
330
1F
100
AcDbEntity
  8
0
  6
Continuous
 62
     7
370
    15
100
AcDbLine
 10
283.2991625594
 20
95.2872222107
 30
0.0
 11
285.2991666125
 21
97.2872234698
 31
0.0
  0
LINE
  5
232
330
1F
100
AcDbEntity
  8
0
  6
Continuous
 62
     7
370
    15
100
AcDbLine
 10
285.2991666125
 20
125.0872228112
 30
0.0
 11
283.2991625594
 21
127.0872240703
 31
0.0
  0
LINE
  5
233
330
1F
100
AcDbEntity
  8
0
  6
Continuous
 62
     7
370
    15
100
AcDbLine
 10
288.2491643952
 20
119.1872235205
 30
0.0
 11
285.2991666125
 21
119.1872235205
 31
0.0
  0
LINE
  5
234
330
1F
100
AcDbEntity
  8
0
  6
Continuous
 62
     7
370
    15
100
AcDbLine
 10
285.2991666125
 20
103.1872227605
 30
0.0
 11
288.2491643952
 21
103.1872227605
 31
0.0
  0
ARC
  5
235
330
1F
100
AcDbEntity
  8
0
  6
Continuous
 62
     7
370
    15
100
AcDbCircle
 10
457.3078309902
 20
118.1850430864
 30
0.0
 40
10.11710270995766
100
AcDbArc
 50
162.5219155003
 51
197.5628810327
  0
LINE
  5
236
330
1F
100
AcDbEntity
  8
0
  6
Continuous
 62
     7
370
    15
100
AcDbLine
 10
461.3331254052
 20
120.8085387762
 30
0.0
 11
461.2405146883
 21
121.2236236598
 31
0.0
  0
LINE
  5
237
330
1F
100
AcDbEntity
  8
0
  6
Continuous
 62
     7
370
    15
100
AcDbLine
 10
461.2493063735
 20
121.187222917
 30
0.0
 11
461.2491648124
 21
121.187222917
 31
0.0
  0
LINE
  5
238
330
1F
100
AcDbEntity
  8
0
  6
Continuous
 62
     7
370
    15
100
AcDbLine
 10
458.2491661833
 20
121.187222917
 30
0.0
 11
447.6490240024
 21
121.187222917
 31
0.0
  0
LINE
  5
239
330
1F
100
AcDbEntity
  8
0
  6
Continuous
 62
     7
370
    15
100
AcDbLine
 10
447.6490165518
 20
115.1872233305
 30
0.0
 11
453.1991626547
 21
115.1872233305
 31
0.0
  0
ARC
  5
23A
330
1F
100
AcDbEntity
  8
0
  6
Continuous
 62
     7
370
    15
100
AcDbCircle
 10
464.5491652893
 20
92.181669641
 30
0.0
 40
2.0
100
AcDbArc
 50
330.1295066699
 51
0.0
  0
LINE
  5
23B
330
1F
100
AcDbEntity
  8
0
  6
Continuous
 62
     7
370
    15
100
AcDbLine
 10
461.2491648124
 20
91.1872235875
 30
0.0
 11
461.6491641329
 21
91.1872235875
 31
0.0
  0
ARC
  5
23C
330
1F
100
AcDbEntity
  8
0
  6
Continuous
 62
     7
370
    15
100
AcDbCircle
 10
464.5491652893
 20
130.19277664
 30
0.0
 40
2.0
100
AcDbArc
 50
0.0
 51
29.857029534
  0
LINE
  5
23D
330
1F
100
AcDbEntity
  8
0
  6
Continuous
 62
     7
370
    15
100
AcDbLine
 10
461.6491641329
 20
131.1872226935
 30
0.0
 11
461.2491648124
 21
131.1872226935
 31
0.0
  0
ARC
  5
23E
330
1F
100
AcDbEntity
  8
0
  6
Continuous
 62
     7
370
    15
100
AcDbCircle
 10
454.2176272597
 20
111.1872231405
 30
0.0
 40
64.03153802959942
100
AcDbArc
 50
342.1878385081
 51
17.7783063905
  0
LINE
  5
23F
330
1F
100
AcDbEntity
  8
0
  6
Continuous
 62
     7
370
    15
100
AcDbLine
 10
505.249164574
 20
121.6872229989
 30
0.0
 11
486.2491633223
 21
121.6872229989
 31
0.0
  0
LINE
  5
240
330
1F
100
AcDbEntity
  8
0
  6
Continuous
 62
     7
370
    15
100
AcDbLine
 10
486.2491633223
 20
100.6872232821
 30
0.0
 11
505.249164574
 21
100.6872232821
 31
0.0
  0
LINE
  5
241
330
1F
100
AcDbEntity
  8
0
  6
Continuous
 62
     7
370
    15
100
AcDbLine
 10
458.2491661833
 20
41.1872228425
 30
0.0
 11
461.2491648124
 21
41.1872228425
 31
0.0
  0
LINE
  5
242
330
1F
100
AcDbEntity
  8
0
  6
Continuous
 62
     7
370
    15
100
AcDbLine
 10
393.2491648422
 20
90.3872230839
 30
0.0
 11
353.2491657363
 21
90.3872230839
 31
0.0
  0
LINE
  5
243
330
1F
100
AcDbEntity
  8
0
  6
Continuous
 62
     7
370
    15
100
AcDbLine
 10
393.2491648422
 20
131.9872231971
 30
0.0
 11
353.2491657363
 21
131.9872231971
 31
0.0
  0
LINE
  5
244
330
1F
100
AcDbEntity
  8
0
  6
Continuous
 62
     7
370
    15
100
AcDbLine
 10
353.2491657363
 20
90.3872230839
 30
0.0
 11
353.2491657363
 21
131.9872231971
 31
0.0
  0
LINE
  5
245
330
1F
100
AcDbEntity
  8
0
  6
Continuous
 62
     7
370
    15
100
AcDbLine
 10
393.2491648422
 20
90.3872230839
 30
0.0
 11
393.2491648422
 21
131.9872231971
 31
0.0
  0
LINE
  5
246
330
1F
100
AcDbEntity
  8
0
  6
Continuous
 62
     7
370
    15
100
AcDbLine
 10
398.7323115991
 20
131.9872231971
 30
0.0
 11
398.7323115991
 21
90.3872230839
 31
0.0
  0
LINE
  5
247
330
1F
100
AcDbEntity
  8
0
  6
Continuous
 62
     7
370
    15
100
AcDbLine
 10
398.7323115991
 20
90.3872230839
 30
0.0
 11
393.2491648422
 21
90.3872230839
 31
0.0
  0
LINE
  5
248
330
1F
100
AcDbEntity
  8
0
  6
Continuous
 62
     7
370
    15
100
AcDbLine
 10
393.2491648422
 20
131.9872231971
 30
0.0
 11
398.7323115991
 21
131.9872231971
 31
0.0
  0
LINE
  5
249
330
1F
100
AcDbEntity
  8
0
  6
Continuous
 62
     7
370
    15
100
AcDbLine
 10
347.7660189794
 20
90.3872230839
 30
0.0
 11
347.7660189794
 21
131.9872231971
 31
0.0
  0
LINE
  5
24A
330
1F
100
AcDbEntity
  8
0
  6
Continuous
 62
     7
370
    15
100
AcDbLine
 10
353.2491657363
 20
90.3872230839
 30
0.0
 11
347.7660189794
 21
90.3872230839
 31
0.0
  0
LINE
  5
24B
330
1F
100
AcDbEntity
  8
0
  6
Continuous
 62
     7
370
    15
100
AcDbLine
 10
347.7660189794
 20
131.9872231971
 30
0.0
 11
353.2491657363
 21
131.9872231971
 31
0.0
  0
LINE
  5
24C
330
1F
100
AcDbEntity
  8
0
  6
Continuous
 62
     7
370
    15
100
AcDbLine
 10
445.6073935555
 20
90.3872230839
 30
0.0
 11
445.6073935555
 21
131.9872231971
 31
0.0
  0
LINE
  5
24D
330
1F
100
AcDbEntity
  8
0
  6
Continuous
 62
     7
370
    15
100
AcDbLine
 10
445.6073935555
 20
90.3872230839
 30
0.0
 11
398.7323115991
 21
90.3872230839
 31
0.0
  0
LINE
  5
24E
330
1F
100
AcDbEntity
  8
0
  6
Continuous
 62
     7
370
    15
100
AcDbLine
 10
445.6073935555
 20
131.9872231971
 30
0.0
 11
398.7323115991
 21
131.9872231971
 31
0.0
  0
LINE
  5
24F
330
1F
100
AcDbEntity
  8
0
  6
Continuous
 62
     7
370
    15
100
AcDbLine
 10
296.6698180364
 20
131.9872231971
 30
0.0
 11
296.6698180364
 21
90.3872230839
 31
0.0
  0
LINE
  5
250
330
1F
100
AcDbEntity
  8
0
  6
Continuous
 62
     7
370
    15
100
AcDbLine
 10
347.7660189794
 20
90.3872230839
 30
0.0
 11
296.6698180364
 21
90.3872230839
 31
0.0
  0
LINE
  5
251
330
1F
100
AcDbEntity
  8
0
  6
Continuous
 62
     7
370
    15
100
AcDbLine
 10
347.7660189794
 20
131.9872231971
 30
0.0
 11
296.6698180364
 21
131.9872231971
 31
0.0
  0
LINE
  5
252
330
1F
100
AcDbEntity
  8
0
  6
Continuous
 62
     7
370
    15
100
AcDbLine
 10
452.7538787054
 20
90.3872230839
 30
0.0
 11
445.6073935555
 21
90.3872230839
 31
0.0
  0
LINE
  5
253
330
1F
100
AcDbEntity
  8
0
  6
Continuous
 62
     7
370
    15
100
AcDbLine
 10
445.6073935555
 20
131.9872231971
 30
0.0
 11
452.7538787054
 21
131.9872231971
 31
0.0
  0
LINE
  5
254
330
1F
100
AcDbEntity
  8
0
  6
Continuous
 62
     7
370
    15
100
AcDbLine
 10
458.2491661833
 20
131.1872226935
 30
0.0
 11
458.2491661833
 21
131.9872231971
 31
0.0
  0
LINE
  5
255
330
1F
100
AcDbEntity
  8
0
  6
Continuous
 62
     7
370
    15
100
AcDbLine
 10
458.2491661833
 20
90.3872230839
 30
0.0
 11
452.7538787054
 21
90.3872230839
 31
0.0
  0
LINE
  5
256
330
1F
100
AcDbEntity
  8
0
  6
Continuous
 62
     7
370
    15
100
AcDbLine
 10
458.2491661833
 20
131.9872231971
 30
0.0
 11
452.7538787054
 21
131.9872231971
 31
0.0
  0
LINE
  5
257
330
1F
100
AcDbEntity
  8
0
  6
Continuous
 62
     7
370
    15
100
AcDbLine
 10
289.1064281987
 20
90.3872230839
 30
0.0
 11
289.1064281987
 21
131.9872231971
 31
0.0
  0
LINE
  5
258
330
1F
100
AcDbEntity
  8
0
  6
Continuous
 62
     7
370
    15
100
AcDbLine
 10
296.6698180364
 20
90.3872230839
 30
0.0
 11
289.1064281987
 21
90.3872230839
 31
0.0
  0
LINE
  5
259
330
1F
100
AcDbEntity
  8
0
  6
Continuous
 62
     7
370
    15
100
AcDbLine
 10
289.1064281987
 20
131.9872231971
 30
0.0
 11
296.6698180364
 21
131.9872231971
 31
0.0
  0
LINE
  5
25A
330
1F
100
AcDbEntity
  8
0
  6
Continuous
 62
     7
370
    15
100
AcDbLine
 10
288.2491643952
 20
90.3872230839
 30
0.0
 11
288.2491643952
 21
131.9872231971
 31
0.0
  0
LINE
  5
25B
330
1F
100
AcDbEntity
  8
0
  6
Continuous
 62
     7
370
    15
100
AcDbLine
 10
289.1064281987
 20
90.3872230839
 30
0.0
 11
288.2491643952
 21
90.3872230839
 31
0.0
  0
LINE
  5
25C
330
1F
100
AcDbEntity
  8
0
  6
Continuous
 62
     7
370
    15
100
AcDbLine
 10
289.1064281987
 20
131.9872231971
 30
0.0
 11
288.2491643952
 21
131.9872231971
 31
0.0
  0
LINE
  5
25D
330
1F
100
AcDbEntity
  8
0
  6
Continuous
 62
     7
370
    15
100
AcDbLine
 10
296.2491657065
 20
135.9872238528
 30
0.0
 11
450.249164872
 21
135.9872238528
 31
0.0
  0
LINE
  5
25E
330
1F
100
AcDbEntity
  8
0
  6
Continuous
 62
     7
370
    15
100
AcDbLine
 10
296.2491657065
 20
132.1872228574
 30
0.0
 11
450.249164872
 21
132.1872228574
 31
0.0
  0
LINE
  5
25F
330
1F
100
AcDbEntity
  8
0
  6
Continuous
 62
     7
370
    15
100
AcDbLine
 10
296.2491657065
 20
90.1872234236
 30
0.0
 11
450.249164872
 21
90.1872234236
 31
0.0
  0
LINE
  5
260
330
1F
100
AcDbEntity
  8
0
  6
Continuous
 62
     7
370
    15
100
AcDbLine
 10
296.2491657065
 20
86.3872224282
 30
0.0
 11
450.249164872
 21
86.3872224282
 31
0.0
  0
SPLINE
  5
261
330
1F
100
AcDbEntity
  8
0
  6
Continuous
 62
     7
370
    15
100
AcDbSpline
210
0.0
220
0.0
230
1.0
 70
     8
 71
     3
 72
    94
 73
    90
 74
     0
 42
0.00000001
 43
0.00000001
 40
-0.0312500000000006
 40
-0.0312500000000006
 40
0.0
 40
0.0
 40
0.0312500000000002
 40
0.0312500000000002
 40
0.0468750000000002
 40
0.0468750000000002
 40
0.0625000000000003
 40
0.0625000000000003
 40
0.0937500000000005
 40
0.0937500000000005
 40
0.1250000000000007
 40
0.1250000000000007
 40
0.1406250000000006
 40
0.1406250000000006
 40
0.1562500000000006
 40
0.1562500000000006
 40
0.1875
 40
0.1875
 40
0.2031249999999999
 40
0.2031249999999999
 40
0.2187499999999999
 40
0.2187499999999999
 40
0.2499999999999998
 40
0.2499999999999998
 40
0.265625
 40
0.265625
 40
0.2812500000000002
 40
0.2812500000000002
 40
0.2968750000000004
 40
0.2968750000000004
 40
0.3125000000000006
 40
0.3125000000000006
 40
0.3437500000000005
 40
0.3437500000000005
 40
0.3593750000000003
 40
0.3593750000000003
 40
0.3750000000000001
 40
0.3750000000000001
 40
0.4062499999999992
 40
0.4062499999999992
 40
0.421874999999999
 40
0.421874999999999
 40
0.4374999999999988
 40
0.4374999999999988
 40
0.4687499999999983
 40
0.4687499999999983
 40
0.4999999999999978
 40
0.4999999999999978
 40
0.5312499999999974
 40
0.5312499999999974
 40
0.5468749999999972
 40
0.5468749999999972
 40
0.5624999999999969
 40
0.5624999999999969
 40
0.5937499999999966
 40
0.5937499999999966
 40
0.6249999999999962
 40
0.6249999999999962
 40
0.6562499999999959
 40
0.6562499999999959
 40
0.6718749999999958
 40
0.6718749999999958
 40
0.6874999999999956
 40
0.6874999999999956
 40
0.7187499999999958
 40
0.7187499999999958
 40
0.749999999999996
 40
0.749999999999996
 40
0.7656249999999963
 40
0.7656249999999963
 40
0.7812499999999967
 40
0.7812499999999967
 40
0.8124999999999972
 40
0.8124999999999972
 40
0.8281249999999976
 40
0.8281249999999976
 40
0.8437499999999979
 40
0.8437499999999979
 40
0.8749999999999981
 40
0.8749999999999981
 40
0.9062499999999983
 40
0.9062499999999983
 40
0.9218749999999987
 40
0.9218749999999987
 40
0.9374999999999989
 40
0.9374999999999989
 40
0.9687499999999994
 40
0.9687499999999994
 40
1.0
 40
1.0
 40
1.03125
 40
1.03125
 10
459.8368128990231
 20
112.040383913045
 30
0.0
 10
459.836802622445
 20
110.3342191332612
 30
0.0
 10
459.919476892177
 20
109.4908769267361
 30
0.0
 10
460.1648979452818
 20
108.2401664798647
 30
0.0
 10
460.2676705062036
 20
107.8248893003475
 30
0.0
 10
460.5107667782422
 20
107.0143471823914
 30
0.0
 10
460.6512503857849
 20
106.6171609842093
 30
0.0
 10
461.1281195923363
 20
105.4492643258872
 30
0.0
 10
461.5208577127412
 20
104.7000968914794
 30
0.0
 10
462.4567215811339
 20
103.2764021888797
 30
0.0
 10
462.9858767055448
 20
102.620666332525
 30
0.0
 10
463.8693606515035
 20
101.7193202238387
 30
0.0
 10
464.1789250557856
 20
101.4326830605551
 30
0.0
 10
464.8286827189487
 20
100.8874802999091
 30
0.0
 10
465.1697071702687
 20
100.6286457423575
 30
0.0
 10
466.2167230969013
 20
99.91184873413079
 30
0.0
 10
466.9518913585878
 20
99.50416038503457
 30
0.0
 10
468.1172839114213
 20
99.0109307369383
 30
0.0
 10
468.5182370861309
 20
98.86658668200408
 30
0.0
 10
469.3351974199168
 20
98.62209242646942
 30
0.0
 10
469.7468691582269
 20
98.5219717019235
 30
0.0
 10
470.9901926288748
 20
98.27920868307474
 30
0.0
 10
471.830506724515
 20
98.19662048696755
 30
0.0
 10
473.1086137904149
 20
98.1950038356772
 30
0.0
 10
473.5348202056728
 20
98.21527514443896
 30
0.0
 10
474.3764780482263
 20
98.29541425848926
 30
0.0
 10
474.7936094776292
 20
98.35549118300456
 30
0.0
 10
475.6205994702727
 20
98.51499898086934
 30
0.0
 10
476.0305799156586
 20
98.61377034205384
 30
0.0
 10
476.8426371412411
 20
98.85408030755804
 30
0.0
 10
477.2470815574348
 20
98.99792736649867
 30
0.0
 10
478.4226779804728
 20
99.49145065819093
 30
0.0
 10
479.1598205454944
 20
99.89912580192706
 30
0.0
 10
480.2055964427304
 20
100.6118374812896
 30
0.0
 10
480.5437233579668
 20
100.8670771849492
 30
0.0
 10
481.1984736852052
 20
101.4138630097175
 30
0.0
 10
481.5112136801591
 20
101.7022958856107
 30
0.0
 10
482.4000515086054
 20
102.6059173891321
 30
0.0
 10
482.9300978116489
 20
103.2614781198738
 30
0.0
 10
483.6314115208049
 20
104.3245280721574
 30
0.0
 10
483.8496643140317
 20
104.6933898844659
 30
0.0
 10
484.244834523918
 20
105.4428041379009
 30
0.0
 10
484.4231573111874
 20
105.825069056064
 30
0.0
 10
484.9018946147755
 20
106.993926711705
 30
0.0
 10
485.1469332545128
 20
107.804703325503
 30
0.0
 10
485.4774717564352
 20
109.4785786805365
 30
0.0
 10
485.5609107568853
 20
110.3239791365822
 30
0.0
 10
485.5621282655831
 20
112.0319124422289
 30
0.0
 10
485.4798484610628
 20
112.8721066081231
 30
0.0
 10
485.2383990913935
 20
114.1120595189132
 30
0.0
 10
485.1379665064404
 20
114.5219818660813
 30
0.0
 10
484.8960430136877
 20
115.3348386574309
 30
0.0
 10
484.7538514968325
 20
115.7393403932866
 30
0.0
 10
484.2744259039953
 20
116.9175077899325
 30
0.0
 10
483.8831961617068
 20
117.6632591348241
 30
0.0
 10
482.9578993973566
 20
119.0755897583387
 30
0.0
 10
482.4186491959123
 20
119.7468210948455
 30
0.0
 10
481.2378380536662
 20
120.952777126779
 30
0.0
 10
480.5932936700569
 20
121.4947583988259
 30
0.0
 10
479.5442022534858
 20
122.215033456215
 30
0.0
 10
479.1793232563186
 20
122.4404800525908
 30
0.0
 10
478.4371435520868
 20
122.8490678491155
 30
0.0
 10
478.0585155342917
 20
123.0343862261924
 30
0.0
 10
476.8971348566161
 20
123.5261597308916
 30
0.0
 10
476.0864195144712
 20
123.7667394153436
 30
0.0
 10
474.411734333237
 20
124.0953319973532
 30
0.0
 10
473.5708435587856
 20
124.1771251739732
 30
0.0
 10
472.304344480786
 20
124.1797657261837
 30
0.0
 10
471.8813066232534
 20
124.1603816514133
 30
0.0
 10
471.033467286304
 20
124.0806053960872
 30
0.0
 10
470.6107541798834
 20
124.0199674436514
 30
0.0
 10
469.3658771075001
 20
123.7803100266679
 30
0.0
 10
468.5582200842703
 20
123.5457560428721
 30
0.0
 10
467.3875820949909
 20
123.0567042355433
 30
0.0
 10
467.0020878852258
 20
122.869809288545
 30
0.0
 10
466.2540198085746
 20
122.4613458643403
 30
0.0
 10
465.8928667007478
 20
122.2396482116766
 30
0.0
 10
464.8452204072586
 20
121.5259944565286
 30
0.0
 10
464.1951203704565
 20
120.9846909427764
 30
0.0
 10
462.9952544225509
 20
119.7660355237457
 30
0.0
 10
462.4640754950548
 20
119.1069032075253
 30
0.0
 10
461.7673257541868
 20
118.0504159367797
 30
0.0
 10
461.551808183503
 20
117.6866497049115
 30
0.0
 10
461.1552031022573
 20
116.935240141692
 30
0.0
 10
460.9735609861572
 20
116.5460589692782
 30
0.0
 10
460.4913392744158
 20
115.3668232581213
 30
0.0
 10
460.2489514028479
 20
114.5587219215594
 30
0.0
 10
459.9217110764491
 20
112.8988115088695
 30
0.0
 10
459.8368128990231
 20
112.040383913045
 30
0.0
 10
459.836802622445
 20
110.3342191332612
 30
0.0
  0
SPLINE
  5
262
330
1F
100
AcDbEntity
  8
0
  6
Continuous
 62
     7
370
    15
100
AcDbSpline
210
0.0
220
0.0
230
1.0
 70
     8
 71
     3
 72
   101
 73
    97
 74
     0
 42
0.00000001
 43
0.00000001
 40
-0.0156250000000002
 40
-0.0156250000000002
 40
0.0
 40
0.0
 40
0.0312500000000003
 40
0.0312500000000003
 40
0.0625000000000006
 40
0.0625000000000006
 40
0.0781250000000009
 40
0.0781250000000009
 40
0.0937500000000011
 40
0.0937500000000011
 40
0.1250000000000016
 40
0.1250000000000016
 40
0.1562500000000022
 40
0.1562500000000022
 40
0.1718750000000026
 40
0.1718750000000026
 40
0.1875000000000031
 40
0.1875000000000031
 40
0.2187500000000036
 40
0.2187500000000036
 40
0.2343750000000036
 40
0.2343750000000036
 40
0.2500000000000036
 40
0.2500000000000036
 40
0.2812500000000032
 40
0.2812500000000032
 40
0.3125000000000028
 40
0.3125000000000028
 40
0.3281250000000026
 40
0.3281250000000026
 40
0.3437500000000023
 40
0.3437500000000023
 40
0.3750000000000019
 40
0.3750000000000019
 40
0.3906250000000018
 40
0.3906250000000018
 40
0.4062500000000018
 40
0.4062500000000018
 40
0.4375000000000016
 40
0.4375000000000016
 40
0.4531250000000016
 40
0.4531250000000016
 40
0.4687500000000015
 40
0.4687500000000015
 40
0.5000000000000013
 40
0.5000000000000013
 40
0.5312500000000012
 40
0.5312500000000012
 40
0.5468750000000011
 40
0.5468750000000011
 40
0.5625000000000011
 40
0.5625000000000011
 40
0.578125000000001
 40
0.578125000000001
 40
0.593750000000001
 40
0.593750000000001
 40
0.6250000000000004
 40
0.6250000000000004
 40
0.6406250000000001
 40
0.6406250000000001
 40
0.6562499999999997
 40
0.6562499999999997
 40
0.687499999999999
 40
0.687499999999999
 40
0.7031249999999988
 40
0.7031249999999988
 40
0.7187499999999984
 40
0.7187499999999984
 40
0.7343749999999982
 40
0.7343749999999982
 40
0.7499999999999979
 40
0.7499999999999979
 40
0.7812499999999977
 40
0.7812499999999977
 40
0.7968749999999976
 40
0.7968749999999976
 40
0.8124999999999976
 40
0.8124999999999976
 40
0.8437499999999978
 40
0.8437499999999978
 40
0.8593749999999978
 40
0.8593749999999978
 40
0.8749999999999978
 40
0.8749999999999978
 40
0.9062499999999983
 40
0.9062499999999983
 40
0.9218749999999987
 40
0.9218749999999987
 40
0.9374999999999989
 40
0.9531249999999992
 40
0.9531249999999992
 40
0.9687499999999994
 40
0.9687499999999994
 40
0.9843749999999998
 40
0.9843749999999998
 40
1.0
 40
1.0
 40
1.03125
 40
1.03125
 10
457.8412346207449
 20
110.6935376576221
 30
0.0
 10
457.8412435332129
 20
112.1748653133923
 30
0.0
 10
457.9392951049328
 20
113.1630135372138
 30
0.0
 10
458.3174056762942
 20
115.0788602707228
 30
0.0
 10
458.5973746127687
 20
116.0114876658033
 30
0.0
 10
459.154411069191
 20
117.3722872452923
 30
0.0
 10
459.3642772086744
 20
117.8214324268839
 30
0.0
 10
459.8225964869438
 20
118.6887150864855
 30
0.0
 10
460.0716307872905
 20
119.1085537941971
 30
0.0
 10
460.8767417617362
 20
120.3277852455069
 30
0.0
 10
461.4908725822598
 20
121.0885323183441
 30
0.0
 10
462.8768768970228
 20
122.4936822020019
 30
0.0
 10
463.6278230889438
 20
123.1177082878614
 30
0.0
 10
464.8381078435666
 20
123.9400665049161
 30
0.0
 10
465.2553693816316
 20
124.1954323476158
 30
0.0
 10
466.1196151904663
 20
124.6658685297792
 30
0.0
 10
466.5647522009121
 20
124.8808228529227
 30
0.0
 10
467.9163384908791
 20
125.4443914541874
 30
0.0
 10
468.8482824723732
 20
125.716627605662
 30
0.0
 10
470.2851648774159
 20
125.9943806500241
 30
0.0
 10
470.7730876642366
 20
126.0646840859532
 30
0.0
 10
471.7519838759336
 20
126.1572727925663
 30
0.0
 10
472.2404092301632
 20
126.1797936593286
 30
0.0
 10
473.7026594534473
 20
126.1770212281396
 30
0.0
 10
474.6735061710129
 20
126.0825010010269
 30
0.0
 10
476.6069768820167
 20
125.7023302205088
 30
0.0
 10
477.5424743343573
 20
125.4235781740166
 30
0.0
 10
478.8839011296589
 20
124.8573988996664
 30
0.0
 10
479.3213497521253
 20
124.6443014121787
 30
0.0
 10
480.1787825198112
 20
124.174151151968
 30
0.0
 10
480.6004313702763
 20
123.9146107363934
 30
0.0
 10
481.8131129794453
 20
123.0847303103449
 30
0.0
 10
482.558052121313
 20
122.4599500190013
 30
0.0
 10
483.5816158119591
 20
121.4170916306149
 30
0.0
 10
483.9069619194991
 20
121.0516311228909
 30
0.0
 10
484.5252470252022
 20
120.2842122417982
 30
0.0
 10
484.8136812156943
 20
119.8877782682653
 30
0.0
 10
485.616031329754
 20
118.6654354477374
 30
0.0
 10
486.0683842815611
 20
117.8048147213968
 30
0.0
 10
486.62268713843
 20
116.4450684024829
 30
0.0
 10
486.7871027113202
 20
115.9781420582816
 30
0.0
 10
487.0668946996841
 20
115.0396938499667
 30
0.0
 10
487.1830778655635
 20
114.5664367782649
 30
0.0
 10
487.4624365302855
 20
113.134897785743
 30
0.0
 10
487.5576349749111
 20
112.1649049732299
 30
0.0
 10
487.5565464205588
 20
110.1929516703678
 30
0.0
 10
487.4603064578852
 20
109.2168620565911
 30
0.0
 10
487.1739415282441
 20
107.7673991674341
 30
0.0
 10
487.0551478263072
 20
107.2906341929122
 30
0.0
 10
486.7737823993886
 20
106.3567869941202
 30
0.0
 10
486.6110912442316
 20
105.898492762406
 30
0.0
 10
486.2423252545365
 20
104.9989146431976
 30
0.0
 10
486.0362536152849
 20
104.5576295041508
 30
0.0
 10
485.5795609057982
 20
103.6925265414381
 30
0.0
 10
485.32734830972
 20
103.2667598030727
 30
0.0
 10
484.5170656836255
 20
102.0400416044472
 30
0.0
 10
483.9045599400489
 20
101.2836835909693
 30
0.0
 10
482.8773911447407
 20
100.2412685359115
 30
0.0
 10
482.5158469624573
 20
99.9084514916126
 30
0.0
 10
481.7594541352684
 20
99.27810593588623
 30
0.0
 10
481.368835094891
 20
98.98392991377551
 30
0.0
 10
480.1607161660713
 20
98.16268961273141
 30
0.0
 10
479.3089353862861
 20
97.69363181608958
 30
0.0
 10
477.9513316573102
 20
97.12488542265619
 30
0.0
 10
477.4845178085301
 20
96.95875469628278
 30
0.0
 10
476.5472419335856
 20
96.6804831480855
 30
0.0
 10
476.0740448698366
 20
96.56595902489923
 30
0.0
 10
475.1194512034573
 20
96.38112911612468
 30
0.0
 10
474.6379310161813
 20
96.31149717488533
 30
0.0
 10
473.6663060043616
 20
96.21854413093621
 30
0.0
 10
473.1742622765053
 20
96.19501224823763
 30
0.0
 10
471.6985785867797
 20
96.19665228381483
 30
0.0
 10
470.7284277283859
 20
96.29213253702133
 30
0.0
 10
469.2930943240679
 20
96.57302225991171
 30
0.0
 10
468.817880319202
 20
96.68899799372932
 30
0.0
 10
467.8747902616821
 20
96.97178488495858
 30
0.0
 10
467.4119098648409
 20
97.13831442076656
 30
0.0
 10
466.0657533118465
 20
97.70628401421618
 30
0.0
 10
465.2161119477202
 20
98.1751740622464
 30
0.0
 10
464.0062754892382
 20
99.00082574966268
 30
0.0
 10
463.612161442248
 20
99.29908026680883
 30
0.0
 10
462.860973665141
 20
99.9277511871423
 30
0.0
 10
462.5031154577788
 20
100.2583333984589
 30
0.0
 10
461.4817996690836
 20
101.2979528368293
 30
0.0
 10
460.8701121988109
 20
102.0544156411119
 30
0.0
 10
460.0588335584427
 20
103.2864489813783
 30
0.0
 10
459.8092880451379
 20
103.7093124515282
 30
0.0
 10
459.3554762992401
 20
104.5713502683622
 30
0.0
 10
458.9451779445279
 20
105.4519544490413
 30
0.0
 10
458.6203941902222
 20
106.3690463658145
 30
0.0
 10
458.3393833923532
 20
107.3048156428932
 30
0.0
 10
458.2205553891654
 20
107.7842699719991
 30
0.0
 10
458.0313585905427
 20
108.7470553318046
 30
0.0
 10
457.9604236314068
 20
109.2312332703603
 30
0.0
 10
457.8653627204335
 20
110.2050987178273
 30
0.0
 10
457.8412346207449
 20
110.6935376576221
 30
0.0
 10
457.8412435332129
 20
112.1748653133923
 30
0.0
  0
ARC
  5
263
330
1F
100
AcDbEntity
  8
0
  6
Continuous
 62
     7
370
    15
100
AcDbCircle
 10
453.1991652893
 20
111.1872231405
 30
0.0
 40
4.0
100
AcDbArc
 50
90.0
 51
270.0
  0
LINE
  5
264
330
1F
100
AcDbEntity
  8
0
  6
Continuous
 62
     7
370
    15
100
AcDbLine
 10
275.7991622613
 20
95.7872232239
 30
0.0
 11
275.7991622613
 21
126.587223057
 31
0.0
  0
LINE
  5
265
330
1F
100
AcDbEntity
  8
0
  6
Continuous
 62
     7
370
    15
100
AcDbLine
 10
279.799162917
 20
130.5872237127
 30
0.0
 11
279.799162917
 21
91.7872225683
 31
0.0
  0
LINE
  5
266
330
1F
100
AcDbEntity
  8
0
  6
Continuous
 62
     7
370
    15
100
AcDbLine
 10
283.2991625594
 20
91.7872225683
 30
0.0
 11
283.2991625594
 21
130.5872237127
 31
0.0
  0
LINE
  5
267
330
1F
100
AcDbEntity
  8
0
  6
Continuous
 62
     7
370
    15
100
AcDbLine
 10
285.2991666125
 20
111.1872231405
 30
0.0
 11
285.2991666125
 21
97.2872234698
 31
0.0
  0
LINE
  5
268
330
1F
100
AcDbEntity
  8
0
  6
Continuous
 62
     7
370
    15
100
AcDbLine
 10
285.2991666125
 20
125.0872228112
 30
0.0
 11
285.2991666125
 21
111.1872231405
 31
0.0
  0
LWPOLYLINE
  5
269
330
1F
100
AcDbEntity
  8
0
  6
Continuous
 62
     7
370
    15
100
AcDbPolyline
 90
       12
 70
   128
 43
0.0
 10
447.6490165518
 20
115.2260711234
 10
447.6490240024
 20
115.257067867
 10
447.6490165518
 20
115.6352709796
 10
447.6489942001
 20
116.3011875752
 10
447.6490612553
 20
117.1797400158
 10
447.6490091012
 20
118.1718788858
 10
447.6490612553
 20
119.1657472219
 10
447.6489867495
 20
120.0492948111
 10
447.6490240024
 20
120.7229083221
 10
447.6490165518
 20
121.1106421243
 10
447.6490240024
 20
121.1868438687
 10
447.6490240024
 20
121.1868438687
  0
SPLINE
  5
26A
330
1F
100
AcDbEntity
  8
0
  6
Continuous
 62
     7
370
    15
100
AcDbSpline
210
0.0
220
0.0
230
1.0
 70
     8
 71
     3
 72
    10
 73
     6
 74
     0
 42
0.00000001
 43
0.00000001
 40
0.0
 40
0.0
 40
0.0
 40
0.0
 40
0.0482134718940371
 40
0.6336073366275159
 40
1.0
 40
1.0
 40
1.0
 40
1.0
 10
461.2493063734506
 20
120.6674285050214
 30
0.0
 10
461.2493063571333
 20
120.6861702516419
 30
0.0
 10
461.2493061426957
 20
120.9324688004389
 30
0.0
 10
461.2493191472577
 20
121.1180106916564
 30
0.0
 10
461.2493099239763
 20
121.167711438726
 30
0.0
 10
461.2493063734506
 20
121.1868438686908
 30
0.0
  0
LINE
  5
26B
330
1F
100
AcDbEntity
  8
0
  6
Continuous
 62
     7
370
    15
100
AcDbLine
 10
461.6491641329
 20
100.9372228574
 30
0.0
 11
461.6491641329
 21
101.1857732948
 31
0.0
  0
SPLINE
  5
26C
330
1F
100
AcDbEntity
  8
0
  6
Continuous
 62
     7
370
    15
100
AcDbSpline
210
0.0
220
0.0
230
1.0
 70
     8
 71
     3
 72
    10
 73
     6
 74
     0
 42
0.00000001
 43
0.00000001
 40
0.0
 40
0.0
 40
0.0
 40
0.0
 40
0.3305221626470171
 40
0.6599010313540402
 40
1.0
 40
1.0
 40
1.0
 40
1.0
 10
464.5491685198281
 20
97.68722279031904
 30
0.0
 10
464.6664064004606
 20
97.69832846404483
 30
0.0
 10
464.90047662959
 20
97.72050139637363
 30
0.0
 10
465.2226332746751
 20
97.87091482375408
 30
0.0
 10
465.3776921064115
 20
98.02801999682903
 30
0.0
 10
465.4564629720185
 20
98.10783041675718
 30
0.0
  0
LINE
  5
26D
330
1F
100
AcDbEntity
  8
0
  6
Continuous
 62
     7
370
    15
100
AcDbLine
 10
464.5491685198
 20
97.6872227903
 30
0.0
 11
461.6491641329
 21
97.6872227903
 31
0.0
  0
LINE
  5
26E
330
1F
100
AcDbEntity
  8
0
  6
Continuous
 62
     7
370
    15
100
AcDbLine
 10
461.6491641329
 20
97.6872227903
 30
0.0
 11
461.6491641329
 21
100.9372228574
 31
0.0
  0
SPLINE
  5
26F
330
1F
100
AcDbEntity
  8
0
  6
Continuous
 62
     7
370
    15
100
AcDbSpline
210
0.0
220
0.0
230
1.0
 70
    24
 71
     3
 72
    14
 73
    10
 74
     0
 42
0.00000001
 43
0.00000001
 40
0.0
 40
0.0
 40
0.0
 40
0.0
 40
0.2503025733898308
 40
0.5235731276179697
 40
0.6634078020368421
 40
0.8041209843268263
 40
0.8962177254742418
 40
0.9750831511764467
 40
1.0
 40
1.0
 40
1.0
 40
1.0
 10
466.2803109215234
 20
91.1872235875312
 30
0.0
 10
466.2716930349646
 20
91.1872235875312
 30
0.0
 10
466.2536664771155
 20
91.1872235875312
 30
0.0
 10
466.0682855245509
 20
91.18722358753118
 30
0.0
 10
465.749707922791
 20
91.18722358753118
 30
0.0
 10
465.4158243412484
 20
91.18722358753118
 30
0.0
 10
465.029861596299
 20
91.18722358753118
 30
0.0
 10
464.7422768843515
 20
91.18722358753118
 30
0.0
 10
464.5865553473385
 20
91.18722358753118
 30
0.0
 10
464.5491685198281
 20
91.18722358753118
 30
0.0
  0
SPLINE
  5
270
330
1F
100
AcDbEntity
  8
0
  6
Continuous
 62
     7
370
    15
100
AcDbSpline
210
0.0
220
0.0
230
1.0
 70
     8
 71
     3
 72
    18
 73
    14
 74
     0
 42
0.00000001
 43
0.00000001
 40
0.0
 40
0.0
 40
0.0
 40
0.0
 40
0.0344336968426155
 40
0.0724907586076296
 40
0.1306339265223383
 40
0.2236184335552305
 40
0.4104355142262736
 40
0.5001955538088658
 40
0.7376507025184023
 40
0.8568706362586389
 40
0.9094909383831686
 40
0.9625702446592751
 40
0.9999999999999999
 40
0.9999999999999999
 40
0.9999999999999999
 40
0.9999999999999999
 10
464.5491685198281
 20
91.18722358753118
 30
0.0
 10
464.6527601691153
 20
91.1955318957653
 30
0.0
 10
464.8708441371704
 20
91.2130227730705
 30
0.0
 10
465.2261506814591
 20
91.37289037544299
 30
0.0
 10
465.6342120351243
 20
91.72421938298525
 30
0.0
 10
466.087089352305
 20
92.52555860367087
 30
0.0
 10
466.2553964435843
 20
93.4874558575862
 30
0.0
 10
466.3072530688682
 20
94.81917948216555
 30
0.0
 10
466.2082465138764
 20
95.98815596380483
 30
0.0
 10
465.752576850686
 20
97.00022770809692
 30
0.0
 10
465.3098006948026
 20
97.44534973095472
 30
0.0
 10
464.9342195778464
 20
97.65303938669636
 30
0.0
 10
464.661818982276
 20
97.67722210042103
 30
0.0
 10
464.5491685198281
 20
97.68722279031904
 30
0.0
  0
LINE
  5
271
330
1F
100
AcDbEntity
  8
0
  6
Continuous
 62
     7
370
    15
100
AcDbLine
 10
466.5491651224
 20
94.9344465326
 30
0.0
 11
466.5491651224
 21
97.6129377078
 31
0.0
  0
LINE
  5
272
330
1F
100
AcDbEntity
  8
0
  6
Continuous
 62
     7
370
    15
100
AcDbLine
 10
466.5491651224
 20
92.1816693436
 30
0.0
 11
466.5491651224
 21
94.9344465326
 31
0.0
  0
LINE
  5
273
330
1F
100
AcDbEntity
  8
0
  6
Continuous
 62
     7
370
    15
100
AcDbLine
 10
464.5491685198
 20
91.1872235875
 30
0.0
 11
461.6491641329
 21
91.1872235875
 31
0.0
  0
LINE
  5
274
330
1F
100
AcDbEntity
  8
0
  6
Continuous
 62
     7
370
    15
100
AcDbLine
 10
461.6491641329
 20
91.1872235875
 30
0.0
 11
461.6491641329
 21
94.4372227233
 31
0.0
  0
LINE
  5
275
330
1F
100
AcDbEntity
  8
0
  6
Continuous
 62
     7
370
    15
100
AcDbLine
 10
461.6491641329
 20
94.4372227233
 30
0.0
 11
461.6491641329
 21
97.6872227903
 31
0.0
  0
SPLINE
  5
276
330
1F
100
AcDbEntity
  8
0
  6
Continuous
 62
     7
370
    15
100
AcDbSpline
210
0.0
220
0.0
230
1.0
 70
     8
 71
     3
 72
    10
 73
     6
 74
     0
 42
0.00000001
 43
0.00000001
 40
0.0
 40
0.0
 40
0.0
 40
0.0
 40
0.2412487127178115
 40
0.6862207459417756
 40
1.0
 40
1.0
 40
1.0
 40
1.0
 10
465.4653440640901
 20
124.2629688050331
 30
0.0
 10
465.4108247546335
 20
124.3209537366506
 30
0.0
 10
465.2557471138782
 20
124.485889178501
 30
0.0
 10
464.9324581400742
 20
124.651808734144
 30
0.0
 10
464.6613036306649
 20
124.6768625587856
 30
0.0
 10
464.5491685198281
 20
124.6872234906735
 30
0.0
  0
SPLINE
  5
277
330
1F
100
AcDbEntity
  8
0
  6
Continuous
 62
     7
370
    15
100
AcDbSpline
210
0.0
220
0.0
230
1.0
 70
     8
 71
     3
 72
    20
 73
    16
 74
     0
 42
0.00000001
 43
0.00000001
 40
0.0
 40
0.0
 40
0.0
 40
0.0
 40
0.0390549335950107
 40
0.0779747407388756
 40
0.138711294482977
 40
0.2379400765780819
 40
0.3629151703330339
 40
0.4914001851700334
 40
0.6252288113657888
 40
0.761835705068241
 40
0.8317388140505453
 40
0.9020808660765025
 40
0.948119553094119
 40
0.98754416995929
 40
1.0
 40
1.0
 40
1.0
 40
1.0
 10
464.5491685198281
 20
124.6872234906735
 30
0.0
 10
464.6668834143968
 20
124.6979569963461
 30
0.0
 10
464.9019059209072
 20
124.7193868707565
 30
0.0
 10
465.2716368691049
 20
124.9025481483391
 30
0.0
 10
465.6842808538415
 20
125.2857499122793
 30
0.0
 10
466.039323746831
 20
125.9735969853422
 30
0.0
 10
466.2396571735101
 20
126.877529718444
 30
0.0
 10
466.3036214848424
 20
127.8848022476264
 30
0.0
 10
466.2516637562058
 20
128.9214512594328
 30
0.0
 10
466.0691682136547
 20
129.7994522822804
 30
0.0
 10
465.7495360731385
 20
130.4670147267397
 30
0.0
 10
465.4158546684824
 20
130.866280255175
 30
0.0
 10
465.0298547943571
 20
131.1046445838412
 30
0.0
 10
464.7422776675464
 20
131.1814400902475
 30
0.0
 10
464.5865554318075
 20
131.1861031521039
 30
0.0
 10
464.5491685198281
 20
131.1872226934613
 30
0.0
  0
SPLINE
  5
278
330
1F
100
AcDbEntity
  8
0
  6
Continuous
 62
     7
370
    15
100
AcDbSpline
210
0.0
220
0.0
230
1.0
 70
    24
 71
     3
 72
    14
 73
    10
 74
     0
 42
0.00000001
 43
0.00000001
 40
0.0
 40
0.0
 40
0.0
 40
0.0
 40
0.0780990683427151
 40
0.1559280374566845
 40
0.2773841856550611
 40
0.4758141767766954
 40
0.725729864197809
 40
0.9826640336549074
 40
1.0
 40
1.0
 40
1.0
 40
1.0
 10
464.5491685198281
 20
131.1872226934613
 30
0.0
 10
464.6668812369703
 20
131.1872226934613
 30
0.0
 10
464.9018995714673
 20
131.1872226934613
 30
0.0
 10
465.2716690057317
 20
131.1872226934613
 30
0.0
 10
465.6840223801008
 20
131.1872226934613
 30
0.0
 10
466.0411482119509
 20
131.1872226934613
 30
0.0
 10
466.2309202016521
 20
131.1872226934614
 30
0.0
 10
466.3030816879566
 20
131.1872226934614
 30
0.0
 10
466.2816786575931
 20
131.1872226934614
 30
0.0
 10
466.2803258226846
 20
131.1872226934614
 30
0.0
  0
LINE
  5
279
330
1F
100
AcDbEntity
  8
0
  6
Continuous
 62
     7
370
    15
100
AcDbLine
 10
466.5491651224
 20
124.7722290273
 30
0.0
 11
466.5491651224
 21
130.1927769374
 31
0.0
  0
LINE
  5
27A
330
1F
100
AcDbEntity
  8
0
  6
Continuous
 62
     7
370
    15
100
AcDbLine
 10
461.6491641329
 20
127.9372235577
 30
0.0
 11
461.6491641329
 21
131.1872226935
 31
0.0
  0
LINE
  5
27B
330
1F
100
AcDbEntity
  8
0
  6
Continuous
 62
     7
370
    15
100
AcDbLine
 10
464.5491685198
 20
131.1872226935
 30
0.0
 11
461.6491641329
 21
131.1872226935
 31
0.0
  0
LINE
  5
27C
330
1F
100
AcDbEntity
  8
0
  6
Continuous
 62
     7
370
    15
100
AcDbLine
 10
464.5491685198
 20
124.6872234907
 30
0.0
 11
461.6491641329
 21
124.6872234907
 31
0.0
  0
LINE
  5
27D
330
1F
100
AcDbEntity
  8
0
  6
Continuous
 62
     7
370
    15
100
AcDbLine
 10
461.6491641329
 20
124.6872234907
 30
0.0
 11
461.6491641329
 21
127.9372235577
 31
0.0
  0
LINE
  5
27E
330
1F
100
AcDbEntity
  8
0
  6
Continuous
 62
     7
370
    15
100
AcDbLine
 10
461.6491641329
 20
121.1520189237
 30
0.0
 11
461.6491641329
 21
121.4372234236
 31
0.0
  0
LINE
  5
27F
330
1F
100
AcDbEntity
  8
0
  6
Continuous
 62
     7
370
    15
100
AcDbLine
 10
461.6491641329
 20
121.4372234236
 30
0.0
 11
461.6491641329
 21
124.6872234907
 31
0.0
  0
LINE
  5
280
330
1F
100
AcDbEntity
  8
0
  6
Continuous
 62
     7
370
    15
100
AcDbLine
 10
505.249164574
 20
122.5471867066
 30
0.0
 11
505.249164574
 21
117.2471631136
 31
0.0
  0
SPLINE
  5
281
330
1F
100
AcDbEntity
  8
0
  6
Continuous
 62
     7
370
    15
100
AcDbSpline
210
0.0
220
0.0
230
1.0
 70
     8
 71
     3
 72
    12
 73
     8
 74
     0
 42
0.00000001
 43
0.00000001
 40
0.0
 40
0.0
 40
0.0
 40
0.0
 40
0.1136355691296417
 40
0.3008419814806563
 40
0.4919206652195743
 40
0.6964447111126961
 40
0.9999999999999999
 40
0.9999999999999999
 40
0.9999999999999999
 40
0.9999999999999999
 10
509.1686915086243
 20
122.0052445124566
 30
0.0
 10
508.8919367906872
 20
122.0033051654768
 30
0.0
 10
508.159248615972
 20
121.9981708840838
 30
0.0
 10
507.0882674218611
 20
121.9891573108802
 30
0.0
 10
506.1211705036442
 20
122.0222450147825
 30
0.0
 10
505.3795135414844
 20
122.1480574420391
 30
0.0
 10
505.2979157205472
 20
122.3979104242754
 30
0.0
 10
505.2491645740006
 20
122.5471867065608
 30
0.0
  0
SPLINE
  5
282
330
1F
100
AcDbEntity
  8
0
  6
Continuous
 62
     7
370
    15
100
AcDbSpline
210
0.0
220
0.0
230
1.0
 70
     8
 71
     3
 72
    12
 73
     8
 74
     0
 42
0.00000001
 43
0.00000001
 40
0.0
 40
0.0
 40
0.0
 40
0.0
 40
0.2917316366320745
 40
0.5225559947551479
 40
0.7611464322712207
 40
0.971451035591128
 40
1.0
 40
1.0
 40
1.0
 40
1.0
 10
505.2491645740006
 20
117.2471631135523
 30
0.0
 10
505.2943406091491
 20
117.8998438918935
 30
0.0
 10
505.3752608969131
 20
119.0689397682306
 30
0.0
 10
506.1832434983717
 20
120.5338118292636
 30
0.0
 10
507.3947216126963
 20
121.5203819850163
 30
0.0
 10
508.5136726672122
 20
121.9037140130415
 30
0.0
 10
509.0987590758941
 20
121.9944047100395
 30
0.0
 10
509.1686915086244
 20
122.0052445124566
 30
0.0
  0
SPLINE
  5
283
330
1F
100
AcDbEntity
  8
0
  6
Continuous
 62
     7
370
    15
100
AcDbSpline
210
0.0
220
0.0
230
1.0
 70
     8
 71
     3
 72
    11
 73
     7
 74
     0
 42
0.00000001
 43
0.00000001
 40
0.0
 40
0.0
 40
0.0
 40
0.0
 40
0.3340928023182975
 40
0.6236927821076456
 40
0.9185172308493562
 40
1.0
 40
1.0
 40
1.0
 40
1.0
 10
514.3875847981903
 20
122.1662701856076
 30
0.0
 10
514.1749363041762
 20
122.1106262318963
 30
0.0
 10
513.777958787982
 20
122.006748710271
 30
0.0
 10
512.6166574270599
 20
121.9901191702694
 30
0.0
 10
511.5445948584075
 20
122.0001946657245
 30
0.0
 10
510.8932340379279
 20
122.0043456821913
 30
0.0
 10
510.752193205211
 20
122.0052445124566
 30
0.0
  0
SPLINE
  5
284
330
1F
100
AcDbEntity
  8
0
  6
Continuous
 62
     7
370
    15
100
AcDbSpline
210
0.0
220
0.0
230
1.0
 70
     8
 71
     3
 72
    11
 73
     7
 74
     0
 42
0.00000001
 43
0.00000001
 40
0.0
 40
0.0
 40
0.0
 40
0.0
 40
0.0091482408254457
 40
0.5000046725242869
 40
0.9908517591745543
 40
1.0
 40
1.0
 40
1.0
 40
1.0
 10
510.7521932052109
 20
122.0052445124566
 30
0.0
 10
510.7474153696153
 20
122.0055954826301
 30
0.0
 10
510.4862788114571
 20
122.0247780478933
 30
0.0
 10
509.9604398156467
 20
122.0431974120338
 30
0.0
 10
509.434601021901
 20
122.024777689397
 30
0.0
 10
509.1734693442226
 20
122.0055954826306
 30
0.0
 10
509.1686915086243
 20
122.0052445124566
 30
0.0
  0
ARC
  5
285
330
1F
100
AcDbEntity
  8
0
  6
Continuous
 62
     7
370
    15
100
AcDbCircle
 10
505.9924405241
 20
122.5275706592
 30
0.0
 40
0.743534751945535
100
AcDbArc
 50
88.5638369108
 51
178.4882385905
  0
SPLINE
  5
286
330
1F
100
AcDbEntity
  8
0
  6
Continuous
 62
     7
370
    15
100
AcDbSpline
210
0.0
220
0.0
230
1.0
 70
     8
 71
     3
 72
    16
 73
    12
 74
     0
 42
0.00000001
 43
0.00000001
 40
0.0
 40
0.0
 40
0.0
 40
0.0
 40
0.163215793938205
 40
0.2700787089933582
 40
0.3688079319470841
 40
0.4654136401147553
 40
0.5626677335730859
 40
0.6630032895024986
 40
0.7707090929608225
 40
0.8765169694159166
 40
1.0
 40
1.0
 40
1.0
 40
1.0
 10
506.0110758470032
 20
123.2708718444884
 30
0.0
 10
506.0497251315673
 20
123.0843625145185
 30
0.0
 10
506.1136794133603
 20
122.7757392015533
 30
0.0
 10
506.7376142012455
 20
122.5624600480341
 30
0.0
 10
507.5518543833796
 20
122.4722167148834
 30
0.0
 10
508.5891358676966
 20
122.4435522443764
 30
0.0
 10
509.7738576951042
 20
122.4384034503744
 30
0.0
 10
511.0271088517132
 20
122.4402369598957
 30
0.0
 10
512.1870430061992
 20
122.4632505983986
 30
0.0
 10
513.1657974786775
 20
122.5423557679901
 30
0.0
 10
513.4945703516792
 20
122.6979087245077
 30
0.0
 10
513.6716287063095
 20
122.7816806923329
 30
0.0
  0
ARC
  5
287
330
1F
100
AcDbEntity
  8
0
  6
Continuous
 62
     7
370
    15
100
AcDbCircle
 10
513.6167837357
 20
121.9937055211
 30
0.0
 40
0.7898815362692482
100
AcDbArc
 50
12.61912852
 51
86.0184968623
  0
SPLINE
  5
288
330
1F
100
AcDbEntity
  8
0
  6
Continuous
 62
     7
370
    15
100
AcDbSpline
210
0.0
220
0.0
230
1.0
 70
     8
 71
     3
 72
    12
 73
     8
 74
     0
 42
0.00000001
 43
0.00000001
 40
0.0
 40
0.0
 40
0.0
 40
0.0
 40
0.1136356172459068
 40
0.3008419990494814
 40
0.4919206855811588
 40
0.6964443508709619
 40
1.0
 40
1.0
 40
1.0
 40
1.0
 10
509.1686915086243
 20
100.3692017685353
 30
0.0
 10
508.8919368249193
 20
100.4217169871992
 30
0.0
 10
508.1592490082818
 20
100.56074719398
 30
0.0
 10
507.0882671481746
 20
101.074884297233
 30
0.0
 10
506.1211714816797
 20
101.9652792530709
 30
0.0
 10
505.3795123256949
 20
103.308845116024
 30
0.0
 10
505.2979153032757
 20
104.4471779872913
 30
0.0
 10
505.2491645740006
 20
105.1272831674397
 30
0.0
  0
SPLINE
  5
289
330
1F
100
AcDbEntity
  8
0
  6
Continuous
 62
     7
370
    15
100
AcDbSpline
210
0.0
220
0.0
230
1.0
 70
     8
 71
     3
 72
    12
 73
     8
 74
     0
 42
0.00000001
 43
0.00000001
 40
0.0
 40
0.0
 40
0.0
 40
0.0
 40
0.2917317801072279
 40
0.522556101618799
 40
0.7611462372403631
 40
0.9714510020703523
 40
1.0
 40
1.0
 40
1.0
 40
1.0
 10
505.2491645740006
 20
99.82725957443115
 30
0.0
 10
505.2943406221742
 20
99.97125945238672
 30
0.0
 10
505.3752609100201
 20
100.2291950630712
 30
0.0
 10
506.1832425601746
 20
100.3643133536328
 30
0.0
 10
507.3947233830611
 20
100.3863989815933
 30
0.0
 10
508.5136728760957
 20
100.3730432962942
 30
0.0
 10
509.0987590758561
 20
100.3696119055427
 30
0.0
 10
509.1686915086244
 20
100.3692017685353
 30
0.0
  0
LINE
  5
28A
330
1F
100
AcDbEntity
  8
0
  6
Continuous
 62
     7
370
    15
100
AcDbLine
 10
505.249164574
 20
105.1272831674
 30
0.0
 11
505.249164574
 21
99.8272595744
 31
0.0
  0
LWPOLYLINE
  5
28B
330
1F
100
AcDbEntity
  8
0
  6
Continuous
 62
     7
370
    15
100
AcDbPolyline
 90
        9
 70
   128
 43
0.0
 10
505.249164574
 20
105.1272831674
 10
505.2638124155
 20
105.1789655167
 10
505.3071598934
 20
105.2286618206
 10
505.37756788
 20
105.2744624022
 10
505.472324364
 20
105.3146065961
 10
505.587778561
 20
105.3475521322
 10
505.7195048259
 20
105.3720328774
 10
505.8624367641
 20
105.3871081959
 10
506.011075847
 20
105.3921983395
  0
SPLINE
  5
28C
330
1F
100
AcDbEntity
  8
0
  6
Continuous
 62
     7
370
    15
100
AcDbSpline
210
0.0
220
0.0
230
1.0
 70
     8
 71
     3
 72
    16
 73
    12
 74
     0
 42
0.00000001
 43
0.00000001
 40
0.0
 40
0.0
 40
0.0
 40
0.0
 40
0.1632159033372074
 40
0.27007884205688
 40
0.3688079269910247
 40
0.4654138449351159
 40
0.5626678759171976
 40
0.6630034827284822
 40
0.7707090901033509
 40
0.8765173379015629
 40
0.9999999999999999
 40
0.9999999999999999
 40
0.9999999999999999
 40
0.9999999999999999
 10
506.0110758470032
 20
105.3921983394503
 30
0.0
 10
506.04972521976
 20
104.7752527274528
 30
0.0
 10
506.1136796361308
 20
103.7543720835115
 30
0.0
 10
506.7376131121341
 20
102.5475830685347
 30
0.0
 10
507.5518567741896
 20
101.7611974135046
 30
0.0
 10
508.5891335427744
 20
101.2615279091465
 30
0.0
 10
509.7738591308192
 20
101.0567090489006
 30
0.0
 10
511.0271064911054
 20
101.1687770572242
 30
0.0
 10
512.187046949124
 20
101.6341942199101
 30
0.0
 10
513.1657938874043
 20
102.466287288717
 30
0.0
 10
513.4945694394625
 20
103.2399010403851
 30
0.0
 10
513.6716287063095
 20
103.656524122107
 30
0.0
  0
ARC
  5
28D
330
1F
100
AcDbEntity
  8
0
  6
Continuous
 62
     7
370
    15
100
AcDbCircle
 10
513.5020719742
 20
102.5768128147
 30
0.0
 40
1.092943728115575
100
AcDbArc
 50
35.883645574
 51
81.0752198558
  0
SPLINE
  5
28E
330
1F
100
AcDbEntity
  8
0
  6
Continuous
 62
     7
370
    15
100
AcDbSpline
210
0.0
220
0.0
230
1.0
 70
     8
 71
     3
 72
    11
 73
     7
 74
     0
 42
0.00000001
 43
0.00000001
 40
0.0
 40
0.0
 40
0.0
 40
0.0
 40
0.334093208742848
 40
0.6236932190365655
 40
0.9185170653480814
 40
0.9999999999999999
 40
0.9999999999999999
 40
0.9999999999999999
 40
0.9999999999999999
 10
514.3875847981903
 20
103.2174320708692
 30
0.0
 10
514.1749362785214
 20
102.7482282591786
 30
0.0
 10
513.7779589192546
 20
101.8723073244232
 30
0.0
 10
512.6166598023168
 20
100.9286508735112
 30
0.0
 10
511.54459238197
 20
100.5015478497764
 30
0.0
 10
510.8932339672371
 20
100.3927583202038
 30
0.0
 10
510.7521932052109
 20
100.3692017685353
 30
0.0
  0
SPLINE
  5
28F
330
1F
100
AcDbEntity
  8
0
  6
Continuous
 62
     7
370
    15
100
AcDbSpline
210
0.0
220
0.0
230
1.0
 70
     8
 71
     3
 72
    11
 73
     7
 74
     0
 42
0.00000001
 43
0.00000001
 40
0.0
 40
0.0
 40
0.0
 40
0.0
 40
0.0091482408254457
 40
0.499995327475713
 40
0.9908517591745543
 40
1.0
 40
1.0
 40
1.0
 40
1.0
 10
509.1686915086243
 20
100.3692017685353
 30
0.0
 10
509.1734693442226
 20
100.3688507983614
 30
0.0
 10
509.4346010219
 20
100.349668591595
 30
0.0
 10
509.9604398156472
 20
100.3312488689582
 30
0.0
 10
510.4862788114571
 20
100.3496682330987
 30
0.0
 10
510.7474153696153
 20
100.3688507983618
 30
0.0
 10
510.7521932052109
 20
100.3692017685353
 30
0.0
  0
ARC
  5
290
330
1F
100
AcDbEntity
  8
0
  6
Continuous
 62
     7
370
    15
100
AcDbCircle
 10
513.5020719742
 20
119.7976334663
 30
0.0
 40
1.092943728115575
100
AcDbArc
 50
278.9247801442
 51
324.116354426
  0
SPLINE
  5
291
330
1F
100
AcDbEntity
  8
0
  6
Continuous
 62
     7
370
    15
100
AcDbSpline
210
0.0
220
0.0
230
1.0
 70
     8
 71
     3
 72
    16
 73
    12
 74
     0
 42
0.00000001
 43
0.00000001
 40
0.0
 40
0.0
 40
0.0
 40
0.0
 40
0.0982180159297092
 40
0.1976629176586065
 40
0.2943622903499036
 40
0.391406629462503
 40
0.4911098038368714
 40
0.5996265011696575
 40
0.7226909551769806
 40
0.8431784116953344
 40
1.0
 40
1.0
 40
1.0
 40
1.0
 10
513.6716287063095
 20
118.717922158885
 30
0.0
 10
513.5377286255191
 20
119.0508359767123
 30
0.0
 10
513.2682558572773
 20
119.7208221899107
 30
0.0
 10
512.5002263393917
 20
120.5147354456588
 30
0.0
 10
511.4958584799508
 20
121.058086877201
 30
0.0
 10
510.3261809677809
 20
121.3068498107153
 30
0.0
 10
509.0698640387719
 20
121.242672730715
 30
0.0
 10
507.8107948259066
 20
120.8044370209906
 30
0.0
 10
506.7877629909337
 20
119.9368095920652
 30
0.0
 10
506.1104068946767
 20
118.621945621627
 30
0.0
 10
506.0469573339923
 20
117.5745581240273
 30
0.0
 10
506.0110758470032
 20
116.9822479415416
 30
0.0
  0
LWPOLYLINE
  5
292
330
1F
100
AcDbEntity
  8
0
  6
Continuous
 62
     7
370
    15
100
AcDbPolyline
 90
        9
 70
   128
 43
0.0
 10
506.011075847
 20
116.9822479415
 10
505.8624367641
 20
116.9873380851
 10
505.7195048259
 20
117.0024134036
 10
505.587778561
 20
117.0268941488
 10
505.472324364
 20
117.0598396849
 10
505.37756788
 20
117.0999838788
 10
505.3071598934
 20
117.1457844604
 10
505.2638124155
 20
117.1954807643
 10
505.249164574
 20
117.2471631136
  0
SPLINE
  5
293
330
1F
100
AcDbEntity
  8
0
  6
Continuous
 62
     7
370
    15
100
AcDbSpline
210
0.0
220
0.0
230
1.0
 70
     8
 71
     3
 72
    11
 73
     7
 74
     0
 42
0.00000001
 43
0.00000001
 40
0.0
 40
0.0
 40
0.0
 40
0.0
 40
0.1990373814958631
 40
0.4636310259420722
 40
0.7350861781794668
 40
1.0
 40
1.0
 40
1.0
 40
1.0
 10
510.752193205211
 20
122.0052445124566
 30
0.0
 10
511.0952430415412
 20
121.9365332055032
 30
0.0
 10
511.8943318678294
 20
121.7764793829639
 30
0.0
 10
512.9880911753132
 20
121.186110582239
 30
0.0
 10
513.9018361531595
 20
120.2898752347935
 30
0.0
 10
514.2269903979847
 20
119.5315518205404
 30
0.0
 10
514.3875847981903
 20
119.1570142101228
 30
0.0
  0
SPLINE
  5
294
330
1F
100
AcDbEntity
  8
0
  6
Continuous
 62
     7
370
    15
100
AcDbSpline
210
0.0
220
0.0
230
1.0
 70
     8
 71
     3
 72
    11
 73
     7
 74
     0
 42
0.00000001
 43
0.00000001
 40
0.0
 40
0.0
 40
0.0
 40
0.0
 40
0.1990374626276772
 40
0.4636313102324444
 40
0.7350862988613814
 40
1.0
 40
1.0
 40
1.0
 40
1.0
 10
510.7521932052109
 20
100.3692017685353
 30
0.0
 10
511.0952430847486
 20
100.3718347666389
 30
0.0
 10
511.8943321759446
 20
100.3779679857047
 30
0.0
 10
512.9880902260077
 20
100.3828090241775
 30
0.0
 10
513.9018363447875
 20
100.3488272008988
 30
0.0
 10
514.226990453333
 20
100.2546770610288
 30
0.0
 10
514.3875847981903
 20
100.2081760953843
 30
0.0
  0
ARC
  5
295
330
1F
100
AcDbEntity
  8
0
  6
Continuous
 62
     7
370
    15
100
AcDbCircle
 10
513.6167837357
 20
100.3807407599
 30
0.0
 40
0.7898815362691655
100
AcDbArc
 50
273.9815031377
 51
347.38087148
  0
SPLINE
  5
296
330
1F
100
AcDbEntity
  8
0
  6
Continuous
 62
     7
370
    15
100
AcDbSpline
210
0.0
220
0.0
230
1.0
 70
     8
 71
     3
 72
    16
 73
    12
 74
     0
 42
0.00000001
 43
0.00000001
 40
0.0
 40
0.0
 40
0.0
 40
0.0
 40
0.0982182307888148
 40
0.1976628671582263
 40
0.2943623977241305
 40
0.391406704840818
 40
0.4911098556430707
 40
0.599626533685269
 40
0.7226906110079192
 40
0.8431782020737734
 40
1.0
 40
1.0
 40
1.0
 40
1.0
 10
513.6716287063095
 20
99.59276558865902
 30
0.0
 10
513.5377290909842
 20
99.66162026983098
 30
0.0
 10
513.2682579178218
 20
99.80018938870438
 30
0.0
 10
512.5002236685257
 20
99.89259455401945
 30
0.0
 10
511.4958600582796
 20
99.92915656759392
 30
0.0
 10
510.3261807283786
 20
99.93589864908272
 30
0.0
 10
509.0698638569909
 20
99.93461054095026
 30
0.0
 10
507.8107970836429
 20
99.91774672316166
 30
0.0
 10
506.7877605091887
 20
99.83178396425863
 30
0.0
 10
506.1104073799184
 20
99.60110627397925
 30
0.0
 10
506.0469575114677
 20
99.28329853748869
 30
0.0
 10
506.0110758470033
 20
99.10357443650362
 30
0.0
  0
ARC
  5
297
330
1F
100
AcDbEntity
  8
0
  6
Continuous
 62
     7
370
    15
100
AcDbCircle
 10
505.9924405241
 20
99.8468756218
 30
0.0
 40
0.743534751945535
100
AcDbArc
 50
181.5117614095
 51
271.4361630892
  0
SPLINE
  5
298
330
1F
100
AcDbEntity
  8
0
  6
Continuous
 62
     7
370
    15
100
AcDbSpline
210
0.0
220
0.0
230
1.0
 70
     8
 71
     3
 72
    14
 73
    10
 74
     0
 42
0.00000001
 43
0.00000001
 40
0.0
 40
0.0
 40
0.0
 40
0.0
 40
0.0621969561616008
 40
0.2157647297090443
 40
0.369282151658945
 40
0.526993307645202
 40
0.6847105014783099
 40
0.8423235966142553
 40
1.0
 40
1.0
 40
1.0
 40
1.0
 10
513.6716287063095
 20
103.656524122107
 30
0.0
 10
513.7582223712891
 20
103.9412060599429
 30
0.0
 10
514.0586206523607
 20
104.9287836708248
 30
0.0
 10
514.4513348834246
 20
106.7399189046346
 30
0.0
 10
514.7510205242992
 20
109.1339134863864
 30
0.0
 10
514.8242232692415
 20
111.6170535886256
 30
0.0
 10
514.6691120451073
 20
114.1040748974476
 30
0.0
 10
514.2978133158035
 20
116.5149051300116
 30
0.0
 10
513.8803848485226
 20
117.9834848552455
 30
0.0
 10
513.6716287063095
 20
118.717922158885
 30
0.0
  0
LINE
  5
299
330
1F
100
AcDbEntity
  8
0
  6
Continuous
 62
     7
370
    15
100
AcDbLine
 10
506.011075847
 20
116.9822479415
 30
0.0
 11
506.011075847
 21
105.3921983395
 31
0.0
  0
LINE
  5
29A
330
1F
100
AcDbEntity
  8
0
  6
Continuous
 62
     7
370
    15
100
AcDbLine
 10
514.3875847982
 20
122.1662701856
 30
0.0
 11
514.3875847982
 21
119.1570142101
 31
0.0
  0
LINE
  5
29B
330
1F
100
AcDbEntity
  8
0
  6
Continuous
 62
     7
370
    15
100
AcDbLine
 10
514.3875847982
 20
103.2174320709
 30
0.0
 11
514.3875847982
 21
100.2081760954
 31
0.0
  0
SPLINE
  5
29C
330
1F
100
AcDbEntity
  8
0
  6
Continuous
 62
     7
370
    15
100
AcDbSpline
210
0.0
220
0.0
230
1.0
 70
     8
 71
     3
 72
    14
 73
    10
 74
     0
 42
0.00000001
 43
0.00000001
 40
0.0
 40
0.0
 40
0.0
 40
0.0
 40
0.0621967551335964
 40
0.215764743911087
 40
0.3692819299180686
 40
0.5269933712759634
 40
0.6847103346035497
 40
0.8423235309297556
 40
1.0
 40
1.0
 40
1.0
 40
1.0
 10
513.6716287063095
 20
122.7816806923329
 30
0.0
 10
513.7582224231834
 20
122.8512093767957
 30
0.0
 10
514.0586218749784
 20
123.0924090786991
 30
0.0
 10
514.4513338406255
 20
123.727670515047
 30
0.0
 10
514.7510210653129
 20
124.8407540949559
 30
0.0
 10
514.8242232771298
 20
126.2963669396795
 30
0.0
 10
514.6691117508484
 20
128.0433300001114
 30
0.0
 10
514.2978133898384
 20
130.0165306689707
 30
0.0
 10
513.8803848575212
 20
131.4536198624509
 30
0.0
 10
513.6716287063095
 20
132.1723086576641
 30
0.0
  0
LINE
  5
29D
330
1F
100
AcDbEntity
  8
0
  6
Continuous
 62
     7
370
    15
100
AcDbLine
 10
506.011075847
 20
130.4971499186
 30
0.0
 11
506.011075847
 21
123.2708718445
 31
0.0
  0
SPLINE
  5
29E
330
1F
100
AcDbEntity
  8
0
  6
Continuous
 62
     7
370
    15
100
AcDbSpline
210
0.0
220
0.0
230
1.0
 70
     8
 71
     3
 72
    16
 73
    12
 74
     0
 42
0.00000001
 43
0.00000001
 40
0.0
 40
0.0
 40
0.0
 40
0.0
 40
0.0982182520495216
 40
0.1976628839224679
 40
0.2943624325701113
 40
0.3914066870572231
 40
0.4911098276076746
 40
0.5996265012877149
 40
0.7226907393876528
 40
0.8431782717907566
 40
0.9999999999999999
 40
0.9999999999999999
 40
0.9999999999999999
 40
0.9999999999999999
 10
513.6716287063095
 20
132.1723086576641
 30
0.0
 10
513.537729121885
 20
132.5185907692494
 30
0.0
 10
513.2682580463863
 20
133.2154787650996
 30
0.0
 10
512.5002234541836
 20
134.113072584084
 30
0.0
 10
511.4958606060011
 20
134.7540556473416
 30
0.0
 10
510.3261803214492
 20
135.0575152782023
 30
0.0
 10
509.0698639701174
 20
134.9787772564541
 30
0.0
 10
507.8107960150052
 20
134.4491706978189
 30
0.0
 10
506.7877615920858
 20
133.4532169059592
 30
0.0
 10
506.11040712998
 20
132.0442864775416
 30
0.0
 10
506.0469574216035
 20
131.056024164367
 30
0.0
 10
506.0110758470032
 20
130.4971499185741
 30
0.0
  0
SPLINE
  5
29F
330
1F
100
AcDbEntity
  8
0
  6
Continuous
 62
     7
370
    15
100
AcDbSpline
210
0.0
220
0.0
230
1.0
 70
     8
 71
     3
 72
    14
 73
    10
 74
     0
 42
0.00000001
 43
0.00000001
 40
0.0
 40
0.0
 40
0.0
 40
0.0
 40
0.0621969382239147
 40
0.2157646946083262
 40
0.3692823083701669
 40
0.5269934323040533
 40
0.6847106787038684
 40
0.8423235805941272
 40
1.0
 40
1.0
 40
1.0
 40
1.0
 10
513.6716287063097
 20
90.20213762332797
 30
0.0
 10
513.7582223708819
 20
90.48760160727093
 30
0.0
 10
514.058620688307
 20
91.47789230446546
 30
0.0
 10
514.451335206767
 20
93.10107883978924
 30
0.0
 10
514.7510203253446
 20
94.97325748958377
 30
0.0
 10
514.8242232426138
 20
96.61406711077746
 30
0.0
 10
514.6691123465541
 20
97.96837139576512
 30
0.0
 10
514.29781290251
 20
99.00142583363908
 30
0.0
 10
513.8803848031018
 20
99.39562586541923
 30
0.0
 10
513.6716287063095
 20
99.59276558865902
 30
0.0
  0
SPLINE
  5
2A0
330
1F
100
AcDbEntity
  8
0
  6
Continuous
 62
     7
370
    15
100
AcDbSpline
210
0.0
220
0.0
230
1.0
 70
     8
 71
     3
 72
    16
 73
    12
 74
     0
 42
0.00000001
 43
0.00000001
 40
0.0
 40
0.0
 40
0.0
 40
0.0
 40
0.1632160359848265
 40
0.2700787487363326
 40
0.3688080741377484
 40
0.465413836951368
 40
0.5626678535157867
 40
0.6630034428831222
 40
0.7707090400336427
 40
0.8765172068908508
 40
1.0
 40
1.0
 40
1.0
 40
1.0
 10
506.0110758470032
 20
91.87729636241795
 30
0.0
 10
506.0497247020284
 20
91.29448738582666
 30
0.0
 10
506.1136781876174
 20
90.33009489705972
 30
0.0
 10
506.7376154216093
 20
89.03853037883424
 30
0.0
 10
507.5518541900477
 20
88.148169499874
 30
0.0
 10
508.5891348230866
 20
87.55375423691805
 30
0.0
 10
509.7738588956129
 20
87.303499895871
 30
0.0
 10
511.0271066665152
 20
87.44141103514232
 30
0.0
 10
512.187046441173
 20
87.9987632636038
 30
0.0
 10
513.1657947957677
 20
88.95726289883164
 30
0.0
 10
513.4945696604524
 20
89.76638919615151
 30
0.0
 10
513.6716287063095
 20
90.20213762332799
 30
0.0
  0
LINE
  5
2A1
330
1F
100
AcDbEntity
  8
0
  6
Continuous
 62
     7
370
    15
100
AcDbLine
 10
506.011075847
 20
99.1035744365
 30
0.0
 11
506.011075847
 21
91.8772963624
 31
0.0
  0
SPLINE
  5
2A2
330
1F
100
AcDbEntity
  8
0
  6
Continuous
 62
     7
370
    15
100
AcDbSpline
210
0.0
220
0.0
230
1.0
 70
     8
 71
     3
 72
    14
 73
    10
 74
     0
 42
0.00000001
 43
0.00000001
 40
0.0
 40
0.0
 40
0.0
 40
0.0
 40
0.1575841353221159
 40
0.3151115504524357
 40
0.4729864251121133
 40
0.6308559586358156
 40
0.7843615175256053
 40
0.9379121536848208
 40
1.0
 40
1.0
 40
1.0
 40
1.0
 10
514.3875847981905
 20
119.1570142101228
 30
0.0
 10
514.5990383070902
 20
118.3789687882268
 30
0.0
 10
515.021869215175
 20
116.8231579909348
 30
0.0
 10
515.397162725278
 20
114.2724602909762
 30
0.0
 10
515.554138370835
 20
111.6418893224973
 30
0.0
 10
515.4799863446467
 20
109.0154033481117
 30
0.0
 10
515.1770135559809
 20
106.4824527387986
 30
0.0
 10
514.7796522567425
 20
104.5652868863528
 30
0.0
 10
514.4752344791475
 20
103.5187553303659
 30
0.0
 10
514.3875847981903
 20
103.2174320708692
 30
0.0
  0
SPLINE
  5
2A3
330
1F
100
AcDbEntity
  8
0
  6
Continuous
 62
     7
370
    15
100
AcDbSpline
210
0.0
220
0.0
230
1.0
 70
     8
 71
     3
 72
    14
 73
    10
 74
     0
 42
0.00000001
 43
0.00000001
 40
0.0
 40
0.0
 40
0.0
 40
0.0
 40
0.1575841655895119
 40
0.3151116986990926
 40
0.4729864232100021
 40
0.6308560643050791
 40
0.784361710820845
 40
0.9379123408957344
 40
1.0
 40
1.0
 40
1.0
 40
1.0
 10
514.3875847981903
 20
132.1044375937164
 30
0.0
 10
514.5990383292146
 20
131.3431138361239
 30
0.0
 10
515.0218693992508
 20
129.8207399249033
 30
0.0
 10
515.397162431594
 20
127.7335443695108
 30
0.0
 10
515.5541384600286
 20
125.8856598704879
 30
0.0
 10
515.4799863533477
 20
124.3461301651922
 30
0.0
 10
515.17701350937
 20
123.1681284552911
 30
0.0
 10
514.7796530331747
 20
122.4954837080826
 30
0.0
 10
514.4752345085245
 20
122.2398682670339
 30
0.0
 10
514.3875847981903
 20
122.1662701856076
 30
0.0
  0
LINE
  5
2A4
330
1F
100
AcDbEntity
  8
0
  6
Continuous
 62
     7
370
    15
100
AcDbLine
 10
514.3875847982
 20
132.8476628106
 30
0.0
 11
514.3875847982
 21
132.1044375937
 31
0.0
  0
SPLINE
  5
2A5
330
1F
100
AcDbEntity
  8
0
  6
Continuous
 62
     7
370
    15
100
AcDbSpline
210
0.0
220
0.0
230
1.0
 70
     8
 71
     3
 72
    10
 73
     6
 74
     0
 42
0.00000001
 43
0.00000001
 40
0.0
 40
0.0
 40
0.0
 40
0.0
 40
0.1119393748438793
 40
0.7467359739136629
 40
1.0
 40
1.0
 40
1.0
 40
1.0
 10
515.2029763387178
 20
130.6771168302477
 30
0.0
 10
515.1863358010393
 20
130.7378216186115
 30
0.0
 10
515.0753284979596
 20
131.1427769734483
 30
0.0
 10
514.7785351865083
 20
131.9095344477976
 30
0.0
 10
514.474338088972
 20
132.6394887683531
 30
0.0
 10
514.3875847981903
 20
132.8476628105819
 30
0.0
  0
SPLINE
  5
2A6
330
1F
100
AcDbEntity
  8
0
  6
Continuous
 62
     7
370
    15
100
AcDbSpline
210
0.0
220
0.0
230
1.0
 70
     8
 71
     3
 72
    10
 73
     6
 74
     0
 42
0.00000001
 43
0.00000001
 40
0.0
 40
0.0
 40
0.0
 40
0.0
 40
0.6609768855626651
 40
0.7382201302290917
 40
1.0
 40
1.0
 40
1.0
 40
1.0
 10
514.3875847981903
 20
89.52678347041012
 30
0.0
 10
514.6138201409328
 20
90.06313344851381
 30
0.0
 10
514.8664938543859
 20
90.66216249072762
 30
0.0
 10
515.050691336318
 20
91.2459183791022
 30
0.0
 10
515.1159467811071
 20
91.44786316709627
 30
0.0
 10
515.166334383342
 20
91.6037967245758
 30
0.0
  0
LINE
  5
2A7
330
1F
100
AcDbEntity
  8
0
  6
Continuous
 62
     7
370
    15
100
AcDbLine
 10
514.3875847982
 20
90.2700086873
 30
0.0
 11
514.3875847982
 21
89.5267834704
 31
0.0
  0
SPLINE
  5
2A8
330
1F
100
AcDbEntity
  8
0
  6
Continuous
 62
     7
370
    15
100
AcDbSpline
210
0.0
220
0.0
230
1.0
 70
     8
 71
     3
 72
    14
 73
    10
 74
     0
 42
0.00000001
 43
0.00000001
 40
0.0
 40
0.0
 40
0.0
 40
0.0
 40
0.1575839084339297
 40
0.3151115830191515
 40
0.4729864037798056
 40
0.6308558385581932
 40
0.784361574087554
 40
0.9379121567160814
 40
1.0
 40
1.0
 40
1.0
 40
1.0
 10
514.3875847981903
 20
100.2081760953843
 30
0.0
 10
514.5990384132208
 20
99.99929244915073
 30
0.0
 10
515.0218701860172
 20
99.58159969685374
 30
0.0
 10
515.3971622268693
 20
98.48813331227971
 30
0.0
 10
515.5541385282099
 20
97.05574398249142
 30
0.0
 10
515.4799860435254
 20
95.32009901533628
 30
0.0
 10
515.1770139648332
 20
93.33956821685845
 30
0.0
 10
514.7796521658215
 20
91.62154299597651
 30
0.0
 10
514.4752344733495
 20
90.57215457572285
 30
0.0
 10
514.3875847981903
 20
90.27000868727566
 30
0.0
  0
LINE
  5
2A9
330
1F
100
AcDbEntity
  8
0
  6
Continuous
 62
     7
370
    15
100
AcDbLine
 10
505.249164574
 20
105.1272831674
 30
0.0
 11
505.249164574
 21
117.2471631136
 31
0.0
  0
ARC
  5
2AA
330
1F
100
AcDbEntity
  8
0
  6
Continuous
 62
     7
370
    15
100
AcDbCircle
 10
513.96814753
 20
90.8843922182
 30
0.0
 40
0.7439050645281333
100
AcDbArc
 50
246.5094588591
 51
304.321202775
  0
ARC
  5
2AB
330
1F
100
AcDbEntity
  8
0
  6
Continuous
 62
     7
370
    15
100
AcDbCircle
 10
513.96814753
 20
131.4900540628
 30
0.0
 40
0.7439050645281203
100
AcDbArc
 50
55.678797225
 51
113.4905411409
  0
LWPOLYLINE
  5
2AC
330
1F
100
AcDbEntity
  8
0
  6
Continuous
 62
     7
370
    15
100
AcDbPolyline
 90
        9
 70
   128
 43
0.0
 10
505.249164574
 20
92.2706385892
 10
505.2638124155
 20
92.1939013343
 10
505.3071598934
 20
92.1201126467
 10
505.37756788
 20
92.052109335
 10
505.472324364
 20
91.9925028275
 10
505.587778561
 20
91.9435860406
 10
505.7195048259
 20
91.9072383832
 10
505.8624367641
 20
91.8848549764
 10
506.011075847
 20
91.8772963624
  0
LINE
  5
2AD
330
1F
100
AcDbEntity
  8
0
  6
Continuous
 62
     7
370
    15
100
AcDbLine
 10
505.249164574
 20
92.2706385892
 30
0.0
 11
505.249164574
 21
99.8272595744
 31
0.0
  0
LWPOLYLINE
  5
2AE
330
1F
100
AcDbEntity
  8
0
  6
Continuous
 62
     7
370
    15
100
AcDbPolyline
 90
        9
 70
   128
 43
0.0
 10
506.011075847
 20
130.4971499186
 10
505.8624367641
 20
130.4895913046
 10
505.7195048259
 20
130.4672078978
 10
505.587778561
 20
130.4308602404
 10
505.472324364
 20
130.3819434534
 10
505.37756788
 20
130.322336946
 10
505.3071598934
 20
130.2543336343
 10
505.2638124155
 20
130.1805449467
 10
505.249164574
 20
130.1038076918
  0
LINE
  5
2AF
330
1F
100
AcDbEntity
  8
0
  6
Continuous
 62
     7
370
    15
100
AcDbLine
 10
505.249164574
 20
122.5471867066
 30
0.0
 11
505.249164574
 21
130.1038076918
 31
0.0
  0
LINE
  5
2B0
330
1F
100
AcDbEntity
  8
0
  6
Continuous
 62
     7
370
    15
100
AcDbLine
 10
486.2491633223
 20
105.1120909679
 30
0.0
 11
486.2491633223
 21
100.6872232821
 31
0.0
  0
LINE
  5
2B1
330
1F
100
AcDbEntity
  8
0
  6
Continuous
 62
     7
370
    15
100
AcDbLine
 10
486.2491633223
 20
121.6872229989
 30
0.0
 11
486.2491633223
 21
117.2781798806
 31
0.0
  0
SPLINE
  5
2B2
330
1F
100
AcDbEntity
  8
0
  6
Continuous
 62
     7
370
    15
100
AcDbSpline
210
0.0
220
0.0
230
1.0
 70
     8
 71
     3
 72
    11
 73
     7
 74
     0
 42
0.00000001
 43
0.00000001
 40
0.0
 40
0.0
 40
0.0
 40
0.0
 40
0.3340931672287332
 40
0.6236929823694408
 40
0.918517064921058
 40
1.0
 40
1.0
 40
1.0
 40
1.0
 10
514.3875847981903
 20
90.27000868727566
 30
0.0
 10
514.1749364243918
 20
89.74056538543516
 30
0.0
 10
513.7779594387486
 20
88.75218817718671
 30
0.0
 10
512.616658480247
 20
87.59209555714939
 30
0.0
 10
511.5445928864813
 20
87.04943411052224
 30
0.0
 10
510.8932339847286
 20
86.9096236389836
 30
0.0
 10
510.7521932052109
 20
86.87935004045369
 30
0.0
  0
SPLINE
  5
2B3
330
1F
100
AcDbEntity
  8
0
  6
Continuous
 62
     7
370
    15
100
AcDbSpline
210
0.0
220
0.0
230
1.0
 70
     8
 71
     3
 72
    11
 73
     7
 74
     0
 42
0.00000001
 43
0.00000001
 40
0.0
 40
0.0
 40
0.0
 40
0.0
 40
0.0091480287441651
 40
0.5000046725267722
 40
0.9908519712558349
 40
1.0
 40
1.0
 40
1.0
 40
1.0
 10
510.7521932052109
 20
86.87935004045369
 30
0.0
 10
510.7474153685612
 20
86.87856089776342
 30
0.0
 10
510.4862726987797
 20
86.83542865108436
 30
0.0
 10
509.9604398155918
 20
86.79409819273646
 30
0.0
 10
509.4346071344639
 20
86.83542945716334
 30
0.0
 10
509.1734693452768
 20
86.87856089776236
 30
0.0
 10
509.1686915086243
 20
86.87935004045369
 30
0.0
  0
SPLINE
  5
2B4
330
1F
100
AcDbEntity
  8
0
  6
Continuous
 62
     7
370
    15
100
AcDbSpline
210
0.0
220
0.0
230
1.0
 70
     8
 71
     3
 72
    12
 73
     8
 74
     0
 42
0.00000001
 43
0.00000001
 40
0.0
 40
0.0
 40
0.0
 40
0.0
 40
0.1136357142525299
 40
0.3008420754543745
 40
0.491920903537533
 40
0.6964445520697214
 40
0.9999999999999999
 40
0.9999999999999999
 40
0.9999999999999999
 40
0.9999999999999999
 10
509.1686915086244
 20
86.87935004045369
 30
0.0
 10
508.8919368832225
 20
86.94677423845081
 30
0.0
 10
508.1592496603261
 20
87.12527477232544
 30
0.0
 10
507.0882664115903
 20
87.77540809790106
 30
0.0
 10
506.1211720196853
 20
88.85262575720978
 30
0.0
 10
505.3795123605072
 20
90.40221235738643
 30
0.0
 10
505.2979153091598
 20
91.57183767484675
 30
0.0
 10
505.2491645740006
 20
92.27063858916165
 30
0.0
  0
SPLINE
  5
2B5
330
1F
100
AcDbEntity
  8
0
  6
Continuous
 62
     7
370
    15
100
AcDbSpline
210
0.0
220
0.0
230
1.0
 70
     8
 71
     3
 72
    12
 73
     8
 74
     0
 42
0.00000001
 43
0.00000001
 40
0.0
 40
0.0
 40
0.0
 40
0.0
 40
0.2917316096161509
 40
0.522556094896212
 40
0.7611462108414029
 40
0.9714510008499991
 40
0.9999999999999999
 40
0.9999999999999999
 40
0.9999999999999999
 40
0.9999999999999999
 10
505.2491645740006
 20
130.1038076918304
 30
0.0
 10
505.2943407851873
 20
130.7736883195464
 30
0.0
 10
505.3752614112756
 20
131.9735932778279
 30
0.0
 10
506.1832420398614
 20
133.6651355333302
 30
0.0
 10
507.3947236214187
 20
134.873284378127
 30
0.0
 10
508.51367283067
 20
135.3646540677416
 30
0.0
 10
509.09875907524
 20
135.4811697085682
 30
0.0
 10
509.1686915086243
 20
135.4950962405384
 30
0.0
  0
SPLINE
  5
2B6
330
1F
100
AcDbEntity
  8
0
  6
Continuous
 62
     7
370
    15
100
AcDbSpline
210
0.0
220
0.0
230
1.0
 70
     8
 71
     3
 72
    11
 73
     7
 74
     0
 42
0.00000001
 43
0.00000001
 40
0.0
 40
0.0
 40
0.0
 40
0.0
 40
0.0091480287441651
 40
0.5000046725267722
 40
0.9908519712558349
 40
1.0
 40
1.0
 40
1.0
 40
1.0
 10
510.7521932052109
 20
135.4950962405384
 30
0.0
 10
510.7474153685612
 20
135.4958853832287
 30
0.0
 10
510.4862726987797
 20
135.5390176299077
 30
0.0
 10
509.9604398155918
 20
135.5803480882556
 30
0.0
 10
509.4346071344639
 20
135.5390168238287
 30
0.0
 10
509.1734693452768
 20
135.4958853832297
 30
0.0
 10
509.1686915086243
 20
135.4950962405384
 30
0.0
  0
SPLINE
  5
2B7
330
1F
100
AcDbEntity
  8
0
  6
Continuous
 62
     7
370
    15
100
AcDbSpline
210
0.0
220
0.0
230
1.0
 70
     8
 71
     3
 72
    11
 73
     7
 74
     0
 42
0.00000001
 43
0.00000001
 40
0.0
 40
0.0
 40
0.0
 40
0.0
 40
0.199037392090484
 40
0.4636313307252471
 40
0.7350866286791271
 40
1.0
 40
1.0
 40
1.0
 40
1.0
 10
510.7521932052109
 20
135.4950962405384
 30
0.0
 10
511.0952431174921
 20
135.4067817272844
 30
0.0
 10
511.8943326034708
 20
135.2010647267134
 30
0.0
 10
512.9880907387304
 20
134.460046033991
 30
0.0
 10
513.9018353040865
 20
133.3764408835264
 30
0.0
 10
514.2269902389952
 20
132.5249770077588
 30
0.0
 10
514.3875847981903
 20
132.1044375937164
 30
0.0
  0
SPLINE
  5
2B8
330
1F
100
AcDbEntity
  8
0
  6
Continuous
 62
     7
370
    15
100
AcDbSpline
210
0.0
220
0.0
230
1.0
 70
     8
 71
     3
 72
    12
 73
     8
 74
     0
 42
0.00000001
 43
0.00000001
 40
0.0
 40
0.0
 40
0.0
 40
0.0
 40
0.2917315934193974
 40
0.5225560192853045
 40
0.761146229291173
 40
0.9714510641611681
 40
1.0
 40
1.0
 40
1.0
 40
1.0
 10
505.2491645740006
 20
90.96164049615267
 30
0.0
 10
505.2943407530894
 20
90.4885246562947
 30
0.0
 10
505.3752613144674
 20
89.64106920233024
 30
0.0
 10
506.1832423122295
 20
88.3446870786324
 30
0.0
 10
507.3947240019822
 20
87.38565548182666
 30
0.0
 10
508.513671478823
 20
86.98566609780283
 30
0.0
 10
509.0987590646137
 20
86.89070074942401
 30
0.0
 10
509.1686915086243
 20
86.87935004045369
 30
0.0
  0
LINE
  5
2B9
330
1F
100
AcDbEntity
  8
0
  6
Continuous
 62
     7
370
    15
100
AcDbLine
 10
505.249164574
 20
92.2706385892
 30
0.0
 11
505.249164574
 21
90.9616404962
 31
0.0
  0
SPLINE
  5
2BA
330
1F
100
AcDbEntity
  8
0
  6
Continuous
 62
     7
370
    15
100
AcDbSpline
210
0.0
220
0.0
230
1.0
 70
     8
 71
     3
 72
    12
 73
     8
 74
     0
 42
0.00000001
 43
0.00000001
 40
0.0
 40
0.0
 40
0.0
 40
0.0
 40
0.1136357022100015
 40
0.3008420699228728
 40
0.4919209914144732
 40
0.696444408337292
 40
1.0
 40
1.0
 40
1.0
 40
1.0
 10
509.1686915086243
 20
135.4950962405384
 30
0.0
 10
508.8919368832215
 20
135.4401627884181
 30
0.0
 10
508.1592495961484
 20
135.2947305596163
 30
0.0
 10
507.0882660537491
 20
134.7693533504283
 30
0.0
 10
506.1211728737208
 20
133.9202180728559
 30
0.0
 10
505.3795116344842
 20
132.7335378863474
 30
0.0
 10
505.2979150573518
 20
131.906766508518
 30
0.0
 10
505.2491645740006
 20
131.4128057848394
 30
0.0
  0
LINE
  5
2BB
330
1F
100
AcDbEntity
  8
0
  6
Continuous
 62
     7
370
    15
100
AcDbLine
 10
505.249164574
 20
131.4128057848
 30
0.0
 11
505.249164574
 21
130.1038076918
 31
0.0
  0
SPLINE
  5
2BC
330
1F
100
AcDbEntity
  8
0
  6
Continuous
 62
     7
370
    15
100
AcDbSpline
210
0.0
220
0.0
230
1.0
 70
     8
 71
     3
 72
    11
 73
     7
 74
     0
 42
0.00000001
 43
0.00000001
 40
0.0
 40
0.0
 40
0.0
 40
0.0
 40
0.1990373065918737
 40
0.4636314619600062
 40
0.7350858230440989
 40
1.0
 40
1.0
 40
1.0
 40
1.0
 10
510.752193205211
 20
86.87935004045369
 30
0.0
 10
511.0952432703236
 20
86.95134515463937
 30
0.0
 10
511.8943336817497
 20
87.11904838884928
 30
0.0
 10
512.9880875847754
 20
87.71544913217629
 30
0.0
 10
513.9018384133586
 20
88.5693144669106
 30
0.0
 10
514.2269909137365
 20
89.21023213556178
 30
0.0
 10
514.3875847981903
 20
89.52678347041012
 30
0.0
  0
SPLINE
  5
2BD
330
1F
100
AcDbEntity
  8
0
  6
Continuous
 62
     7
370
    15
100
AcDbSpline
210
0.0
220
0.0
230
1.0
 70
     8
 71
     3
 72
    11
 73
     7
 74
     0
 42
0.00000001
 43
0.00000001
 40
0.0
 40
0.0
 40
0.0
 40
0.0
 40
0.3340934200999498
 40
0.6236929697579788
 40
0.9185170601583851
 40
1.0
 40
1.0
 40
1.0
 40
1.0
 10
514.3875847981905
 20
132.847662810582
 30
0.0
 10
514.1749366732926
 20
133.2474791610444
 30
0.0
 10
513.7779604607971
 20
133.993865147644
 30
0.0
 10
512.6166576873337
 20
134.916786004388
 30
0.0
 10
511.5445928876931
 20
135.3564535974305
 30
0.0
 10
510.8932339878353
 20
135.4704189629961
 30
0.0
 10
510.7521932052109
 20
135.4950962405384
 30
0.0
  0
LINE
  5
2BE
330
1F
100
AcDbEntity
  8
0
  6
Continuous
 62
     7
370
    15
100
AcDbLine
 10
505.249164574
 20
93.658568133
 30
0.0
 11
505.249164574
 21
93.8072612326
 31
0.0
  0
LINE
  5
2BF
330
1F
100
AcDbEntity
  8
0
  6
Continuous
 62
     7
370
    15
100
AcDbLine
 10
505.249164574
 20
128.5671850484
 30
0.0
 11
505.249164574
 21
128.715878148
 31
0.0
  0
LINE
  5
2C0
330
1F
100
AcDbEntity
  8
0
  6
Continuous
 62
     7
370
    15
100
AcDbLine
 10
461.2491648124
 20
129.7166345458
 30
0.0
 11
458.2491661833
 21
129.7166345458
 31
0.0
  0
LINE
  5
2C1
330
1F
100
AcDbEntity
  8
0
  6
Continuous
 62
     7
370
    15
100
AcDbLine
 10
458.2491661833
 20
129.7166345458
 30
0.0
 11
458.2491661833
 21
115.1872233305
 31
0.0
  0
LINE
  5
2C2
330
1F
100
AcDbEntity
  8
0
  6
Continuous
 62
     7
370
    15
100
AcDbLine
 10
458.2491661833
 20
107.1872229505
 30
0.0
 11
458.2491661833
 21
41.1872228425
 31
0.0
  0
LINE
  5
2C3
330
1F
100
AcDbEntity
  8
0
  6
Continuous
 62
     7
370
    15
100
AcDbLine
 10
461.2491648124
 20
129.7166345458
 30
0.0
 11
461.2491648124
 21
120.6705353971
 31
0.0
  0
LINE
  5
2C4
330
1F
100
AcDbEntity
  8
0
  6
Continuous
 62
     7
370
    15
100
AcDbLine
 10
461.2491648124
 20
101.6877384674
 30
0.0
 11
461.2491648124
 21
41.1872228425
 31
0.0
  0
LINE
  5
2C5
330
1F
100
AcDbEntity
  8
0
  6
Continuous
 62
     7
370
    15
100
AcDbLine
 10
458.2491661833
 20
131.1872226935
 30
0.0
 11
461.2491648124
 21
131.1872226935
 31
0.0
  0
LINE
  5
2C6
330
1F
100
AcDbEntity
  8
0
  6
Continuous
 62
     7
370
    15
100
AcDbLine
 10
458.2491661833
 20
129.7166345458
 30
0.0
 11
458.2491661833
 21
131.1872226935
 31
0.0
  0
LINE
  5
2C7
330
1F
100
AcDbEntity
  8
0
  6
Continuous
 62
     7
370
    15
100
AcDbLine
 10
461.2491648124
 20
131.1872226935
 30
0.0
 11
461.2491648124
 21
129.7166345458
 31
0.0
  0
LINE
  5
2C8
330
1F
100
AcDbEntity
  8
0
  6
Continuous
 62
     7
370
    15
100
AcDbLine
 10
452.7538787054
 20
131.9872231971
 30
0.0
 11
452.7538787054
 21
121.187222917
 31
0.0
  0
LINE
  5
2C9
330
1F
100
AcDbEntity
  8
0
  6
Continuous
 62
     7
370
    15
100
AcDbLine
 10
452.7538787054
 20
115.1872233305
 30
0.0
 11
452.7538787054
 21
115.1623612087
 31
0.0
  0
LINE
  5
2CA
330
1F
100
AcDbEntity
  8
0
  6
Continuous
 62
     7
370
    15
100
AcDbLine
 10
452.7538787054
 20
107.2120850723
 30
0.0
 11
452.7538787054
 21
90.3872230839
 31
0.0
  0
ENDSEC
  0
SECTION
  2
OBJECTS
  0
DICTIONARY
  5
C
330
0
100
AcDbDictionary
281
     1
  3
ACAD_GROUP
350
D
  3
ACAD_LAYOUT
350
1A
  3
ACAD_MLINESTYLE
350
17
  3
ACAD_PLOTSETTINGS
350
19
  3
ACAD_PLOTSTYLENAME
350
E
  0
DICTIONARY
  5
D
102
{ACAD_REACTORS
330
C
102
}
330
C
100
AcDbDictionary
281
     1
  0
DICTIONARY
  5
1A
102
{ACAD_REACTORS
330
C
102
}
330
C
100
AcDbDictionary
281
     1
  3
Layout1
350
1E
  3
Layout2
350
26
  3
Model
350
22
  0
DICTIONARY
  5
17
102
{ACAD_REACTORS
330
C
102
}
330
C
100
AcDbDictionary
281
     1
  3
Standard
350
18
  0
DICTIONARY
  5
19
102
{ACAD_REACTORS
330
C
102
}
330
C
100
AcDbDictionary
281
     1
  0
ACDBDICTIONARYWDFLT
  5
E
102
{ACAD_REACTORS
330
C
102
}
330
C
100
AcDbDictionary
281
     1
  3
Normal
350
F
100
AcDbDictionaryWithDefault
340
F
  0
LAYOUT
  5
1E
102
{ACAD_REACTORS
330
1A
102
}
330
1A
100
AcDbPlotSettings
  1

  2
none_device
  4

  6

 40
0.0
 41
0.0
 42
0.0
 43
0.0
 44
0.0
 45
0.0
 46
0.0
 47
0.0
 48
0.0
 49
0.0
140
0.0
141
0.0
142
1.0
143
1.0
 70
   688
 72
     0
 73
     0
 74
     5
  7

 75
    16
147
1.0
148
0.0
149
0.0
100
AcDbLayout
  1
Layout1
 70
     1
 71
     1
 10
0.0
 20
0.0
 11
420.0
 21
297.0
 12
0.0
 22
0.0
 32
0.0
 14
1.0000000000E+20
 24
1.0000000000E+20
 34
1.0000000000E+20
 15
-1.0000000000E+20
 25
-1.0000000000E+20
 35
-1.0000000000E+20
146
0.0
 13
0.0
 23
0.0
 33
0.0
 16
1.0
 26
0.0
 36
0.0
 17
0.0
 27
1.0
 37
0.0
 76
     0
330
1B
  0
LAYOUT
  5
26
102
{ACAD_REACTORS
330
1A
102
}
330
1A
100
AcDbPlotSettings
  1

  2
none_device
  4

  6

 40
0.0
 41
0.0
 42
0.0
 43
0.0
 44
0.0
 45
0.0
 46
0.0
 47
0.0
 48
0.0
 49
0.0
140
0.0
141
0.0
142
1.0
143
1.0
 70
   688
 72
     0
 73
     0
 74
     5
  7

 75
    16
147
1.0
148
0.0
149
0.0
100
AcDbLayout
  1
Layout2
 70
     1
 71
     2
 10
0.0
 20
0.0
 11
0.0
 21
0.0
 12
0.0
 22
0.0
 32
0.0
 14
0.0
 24
0.0
 34
0.0
 15
0.0
 25
0.0
 35
0.0
146
0.0
 13
0.0
 23
0.0
 33
0.0
 16
1.0
 26
0.0
 36
0.0
 17
0.0
 27
1.0
 37
0.0
 76
     0
330
23
  0
LAYOUT
  5
22
102
{ACAD_REACTORS
330
1A
102
}
330
1A
100
AcDbPlotSettings
  1

  2
none_device
  4

  6

 40
0.0
 41
0.0
 42
0.0
 43
0.0
 44
0.0
 45
0.0
 46
0.0
 47
0.0
 48
0.0
 49
0.0
140
0.0
141
0.0
142
1.0
143
1.0
 70
  1712
 72
     0
 73
     0
 74
     0
  7

 75
     0
147
1.0
148
0.0
149
0.0
100
AcDbLayout
  1
Model
 70
     1
 71
     0
 10
0.0
 20
0.0
 11
0.0
 21
0.0
 12
0.0
 22
0.0
 32
0.0
 14
0.0
 24
0.0
 34
0.0
 15
600.0
 25
600.0
 35
0.0
146
0.0
 13
0.0
 23
0.0
 33
0.0
 16
1.0
 26
0.0
 36
0.0
 17
0.0
 27
1.0
 37
0.0
 76
     0
330
1F
  0
MLINESTYLE
  5
18
102
{ACAD_REACTORS
330
17
102
}
330
17
100
AcDbMlineStyle
  2
Standard
 70
     0
  3

 62
   256
 51
90.0
 52
90.0
 71
     2
 49
0.5
 62
   256
  6
BYLAYER
 49
-0.5
 62
   256
  6
BYLAYER
  0
ACDBPLACEHOLDER
  5
F
102
{ACAD_REACTORS
330
E
102
}
330
E
  0
ENDSEC
  0
EOF
