  0
SECTION
  2
HEADER
  9
$ACADVER
  1
AC1015
  9
$ACADMAINTVER
 70
     6
  9
$DWGCODEPAGE
  3
ANSI_1252
  9
$INSBASE
 10
0.0
 20
0.0
 30
0.0
  9
$EXTMIN
 10
0.0
 20
0.0
 30
0.0
  9
$EXTMAX
 10
841.0
 20
594.0
 30
0.0
  9
$LIMMIN
 10
0.0
 20
0.0
  9
$LIMMAX
 10
0.0
 20
0.0
  9
$ORTHOMODE
 70
     0
  9
$REGENMODE
 70
     1
  9
$FILLMODE
 70
     1
  9
$QTEXTMODE
 70
     0
  9
$MIRRTEXT
 70
     1
  9
$LTSCALE
 40
1.0
  9
$ATTMODE
 70
     1
  9
$TEXTSIZE
 40
3.5
  9
$TRACEWID
 40
1.0
  9
$TEXTSTYLE
  7
Standard
  9
$CLAYER
  8
0
  9
$CELTYPE
  6
ByLayer
  9
$CECOLOR
 62
   256
  9
$CELTSCALE
 40
1.0
  9
$DISPSILH
 70
     0
  9
$DIMSCALE
 40
1.0
  9
$DIMASZ
 40
6.0
  9
$DIMEXO
 40
1.0
  9
$DIMDLI
 40
3.75
  9
$DIMRND
 40
0.0
  9
$DIMDLE
 40
0.0
  9
$DIMEXE
 40
1.0
  9
$DIMTP
 40
0.0
  9
$DIMTM
 40
0.0
  9
$DIMTXT
 40
3.5
  9
$DIMCEN
 40
2.5
  9
$DIMTSZ
 40
0.0
  9
$DIMTOL
 70
     0
  9
$DIMLIM
 70
     0
  9
$DIMTIH
 70
     1
  9
$DIMTOH
 70
     1
  9
$DIMSE1
 70
     0
  9
$DIMSE2
 70
     0
  9
$DIMTAD
 70
     1
  9
$DIMZIN
 70
     0
  9
$DIMBLK
  1

  9
$DIMASO
 70
     1
  9
$DIMSHO
 70
     1
  9
$DIMPOST
  1

  9
$DIMAPOST
  1

  9
$DIMALT
 70
     0
  9
$DIMALTD
 70
     3
  9
$DIMALTF
 40
0.0393700787
  9
$DIMLFAC
 40
1.0
  9
$DIMTOFL
 70
     1
  9
$DIMTVP
 40
0.0
  9
$DIMTIX
 70
     0
  9
$DIMSOXD
 70
     0
  9
$DIMSAH
 70
     0
  9
$DIMBLK1
  1

  9
$DIMBLK2
  1

  9
$DIMSTYLE
  2
ISO-25
  9
$DIMCLRD
 70
     0
  9
$DIMCLRE
 70
     0
  9
$DIMCLRT
 70
     0
  9
$DIMTFAC
 40
1.0
  9
$DIMGAP
 40
1.524
  9
$DIMJUST
 70
     0
  9
$DIMSD1
 70
     0
  9
$DIMSD2
 70
     0
  9
$DIMTOLJ
 70
     0
  9
$DIMTZIN
 70
     0
  9
$DIMALTZ
 70
     0
  9
$DIMALTTZ
 70
     0
  9
$DIMUPT
 70
     0
  9
$DIMDEC
 70
     2
  9
$DIMTDEC
 70
     2
  9
$DIMALTU
 70
     2
  9
$DIMALTTD
 70
     3
  9
$DIMTXSTY
  7
Standard
  9
$DIMAUNIT
 70
     0
  9
$DIMADEC
 70
     0
  9
$DIMALTRND
 40
0.0
  9
$DIMAZIN
 70
     0
  9
$DIMDSEP
 70
    44
  9
$DIMATFIT
 70
     3
  9
$DIMFRAC
 70
     0
  9
$DIMLDRBLK
  1

  9
$DIMLUNIT
 70
     2
  9
$DIMLWD
 70
    -2
  9
$DIMLWE
 70
    -2
  9
$DIMTMOVE
 70
     0
  9
$LUNITS
 70
     2
  9
$LUPREC
 70
     2
  9
$SKETCHINC
 40
1.0
  9
$FILLETRAD
 40
10.0
  9
$AUNITS
 70
     0
  9
$AUPREC
 70
     0
  9
$MENU
  1
.
  9
$ELEVATION
 40
0.0
  9
$PELEVATION
 40
0.0
  9
$THICKNESS
 40
0.0
  9
$LIMCHECK
 70
     0
  9
$CHAMFERA
 40
10.0
  9
$CHAMFERB
 40
10.0
  9
$CHAMFERC
 40
20.0
  9
$CHAMFERD
 40
0.0
  9
$SKPOLY
 70
     0
  9
$TDCREATE
 40
2455250.428098415
  9
$TDUCREATE
 40
2455250.386431748
  9
$TDUPDATE
 40
2455250.428098426
  9
$TDUUPDATE
 40
2455250.386431759
  9
$TDINDWG
 40
0.0000000116
  9
$TDUSRTIMER
 40
0.0000000116
  9
$USRTIMER
 70
     1
  9
$ANGBASE
 50
0.0
  9
$ANGDIR
 70
     0
  9
$PDMODE
 70
     0
  9
$PDSIZE
 40
-1.0
  9
$PLINEWID
 40
0.0
  9
$SPLFRAME
 70
     0
  9
$SPLINETYPE
 70
     6
  9
$SPLINESEGS
 70
     8
  9
$HANDSEED
  5
2CF
  9
$SURFTAB1
 70
     6
  9
$SURFTAB2
 70
     6
  9
$SURFTYPE
 70
     6
  9
$SURFU
 70
     6
  9
$SURFV
 70
     6
  9
$UCSBASE
  2

  9
$UCSNAME
  2

  9
$UCSORG
 10
0.0
 20
0.0
 30
0.0
  9
$UCSXDIR
 10
1.0
 20
0.0
 30
0.0
  9
$UCSYDIR
 10
0.0
 20
1.0
 30
0.0
  9
$UCSORTHOREF
  2

  9
$UCSORTHOVIEW
 70
     0
  9
$UCSORGTOP
 10
0.0
 20
0.0
 30
0.0
  9
$UCSORGBOTTOM
 10
0.0
 20
0.0
 30
0.0
  9
$UCSORGLEFT
 10
0.0
 20
0.0
 30
0.0
  9
$UCSORGRIGHT
 10
0.0
 20
0.0
 30
0.0
  9
$UCSORGFRONT
 10
0.0
 20
0.0
 30
0.0
  9
$UCSORGBACK
 10
0.0
 20
0.0
 30
0.0
  9
$PUCSBASE
  2

  9
$PUCSNAME
  2

  9
$PUCSORG
 10
0.0
 20
0.0
 30
0.0
  9
$PUCSXDIR
 10
1.0
 20
0.0
 30
0.0
  9
$PUCSYDIR
 10
0.0
 20
1.0
 30
0.0
  9
$PUCSORTHOREF
  2

  9
$PUCSORTHOVIEW
 70
     0
  9
$PUCSORGTOP
 10
0.0
 20
0.0
 30
0.0
  9
$PUCSORGBOTTOM
 10
0.0
 20
0.0
 30
0.0
  9
$PUCSORGLEFT
 10
0.0
 20
0.0
 30
0.0
  9
$PUCSORGRIGHT
 10
0.0
 20
0.0
 30
0.0
  9
$PUCSORGFRONT
 10
0.0
 20
0.0
 30
0.0
  9
$PUCSORGBACK
 10
0.0
 20
0.0
 30
0.0
  9
$USERI1
 70
     0
  9
$USERI2
 70
     0
  9
$USERI3
 70
     0
  9
$USERI4
 70
     0
  9
$USERI5
 70
     0
  9
$USERR1
 40
0.0
  9
$USERR2
 40
0.0
  9
$USERR3
 40
0.0
  9
$USERR4
 40
0.0
  9
$USERR5
 40
0.0
  9
$WORLDVIEW
 70
     1
  9
$SHADEDGE
 70
     3
  9
$SHADEDIF
 70
    70
  9
$TILEMODE
 70
     1
  9
$MAXACTVP
 70
    64
  9
$PINSBASE
 10
0.0
 20
0.0
 30
0.0
  9
$PLIMCHECK
 70
     0
  9
$PEXTMIN
 10
1.0000000000E+20
 20
1.0000000000E+20
 30
1.0000000000E+20
  9
$PEXTMAX
 10
-1.0000000000E+20
 20
-1.0000000000E+20
 30
-1.0000000000E+20
  9
$PLIMMIN
 10
0.0
 20
0.0
  9
$PLIMMAX
 10
420.0
 20
297.0
  9
$UNITMODE
 70
     0
  9
$VISRETAIN
 70
     1
  9
$PLINEGEN
 70
     0
  9
$PSLTSCALE
 70
     1
  9
$TREEDEPTH
 70
  3020
  9
$CMLSTYLE
  2
Standard
  9
$CMLJUST
 70
     0
  9
$CMLSCALE
 40
20.0
  9
$PROXYGRAPHICS
 70
     1
  9
$MEASUREMENT
 70
     1
  9
$CELWEIGHT
370
    -1
  9
$ENDCAPS
280
     0
  9
$JOINSTYLE
280
     0
  9
$LWDISPLAY
290
     1
  9
$INSUNITS
 70
     4
  9
$HYPERLINKBASE
  1

  9
$STYLESHEET
  1

  9
$XEDIT
290
     1
  9
$CEPSNTYPE
380
     0
  9
$PSTYLEMODE
290
     1
  9
$FINGERPRINTGUID
  2
{FD6F5360-18B0-4DFF-B209-C525A8C0E948}
  9
$VERSIONGUID
  2
{FAEB1C32-E019-11D5-929B-00C0DF256EC4}
  9
$EXTNAMES
290
     1
  9
$PSVPSCALE
 40
0.0
  9
$OLESTARTUP
290
     0
  0
ENDSEC
  0
SECTION
  2
CLASSES
  0
CLASS
  1
ACDBDICTIONARYWDFLT
  2
AcDbDictionaryWithDefault
  3
ObjectDBX Classes
 90
        0
280
     0
281
     0
  0
CLASS
  1
ACDBPLACEHOLDER
  2
AcDbPlaceHolder
  3
ObjectDBX Classes
 90
        0
280
     0
281
     0
  0
CLASS
  1
LAYOUT
  2
AcDbLayout
  3
ObjectDBX Classes
 90
        0
280
     0
281
     0
  0
ENDSEC
  0
SECTION
  2
TABLES
  0
TABLE
  2
VPORT
  5
8
330
0
100
AcDbSymbolTable
 70
     1
  0
VPORT
  5
29
330
8
100
AcDbSymbolTableRecord
100
AcDbViewportTableRecord
  2
*Active
 70
     0
 10
0.0
 20
0.0
 11
1.0
 21
1.0
 12
420.5
 22
297.0
 13
0.0
 23
0.0
 14
10.0
 24
10.0
 15
10.0
 25
10.0
 16
0.0
 26
0.0
 36
1.0
 17
0.0
 27
0.0
 37
0.0
 40
594.0
 41
1.4158249158
 42
50.0
 43
0.0
 44
0.0
 50
0.0
 51
0.0
 71
     0
 72
  2000
 73
     1
 74
     3
 75
     0
 76
     0
 77
     0
 78
     0
281
     0
 65
     1
110
0.0
120
0.0
130
0.0
111
1.0
121
0.0
131
0.0
112
0.0
122
1.0
132
0.0
 79
     0
146
0.0
  0
ENDTAB
  0
TABLE
  2
LTYPE
  5
5
330
0
100
AcDbSymbolTable
 70
     6
  0
LTYPE
  5
14
330
5
100
AcDbSymbolTableRecord
100
AcDbLinetypeTableRecord
  2
ByBlock
 70
     0
  3

 72
    65
 73
     0
 40
0.0
  0
LTYPE
  5
15
330
5
100
AcDbSymbolTableRecord
100
AcDbLinetypeTableRecord
  2
ByLayer
 70
     0
  3

 72
    65
 73
     0
 40
0.0
  0
LTYPE
  5
16
330
5
100
AcDbSymbolTableRecord
100
AcDbLinetypeTableRecord
  2
Continuous
 70
     0
  3
Solid line
 72
    65
 73
     0
 40
0.0
  0
LTYPE
  5
2A
330
5
100
AcDbSymbolTableRecord
100
AcDbLinetypeTableRecord
  2
HIDDEN
 70
     0
  3
Hidden __ __ __ __ __ __ __ __ __ __ __ __ __ __
 72
    65
 73
     2
 40
1.905
 49
1.27
 74
     0
 49
-0.635
 74
     0
  0
LTYPE
  5
2B
330
5
100
AcDbSymbolTableRecord
100
AcDbLinetypeTableRecord
  2
PHANTOM
 70
     0
  3
Phantom ______  __  __  ______  __  __  ______
 72
    65
 73
     6
 40
12.7
 49
6.35
 74
     0
 49
-1.27
 74
     0
 49
1.27
 74
     0
 49
-1.27
 74
     0
 49
1.27
 74
     0
 49
-1.27
 74
     0
  0
LTYPE
  5
2C
330
5
100
AcDbSymbolTableRecord
100
AcDbLinetypeTableRecord
  2
CENTER
 70
     0
  3
Center ____ _ ____ _ ____ _ ____ _ ____ _ ____
 72
    65
 73
     4
 40
10.16
 49
6.35
 74
     0
 49
-1.27
 74
     0
 49
1.27
 74
     0
 49
-1.27
 74
     0
  0
LTYPE
  5
2D
330
5
100
AcDbSymbolTableRecord
100
AcDbLinetypeTableRecord
  2
CENTERX2
 70
     0
  3
Center (2x) ________  __  ________  __  _____
 72
    65
 73
     4
 40
20.32
 49
12.7
 74
     0
 49
-2.54
 74
     0
 49
2.54
 74
     0
 49
-2.54
 74
     0
  0
LTYPE
  5
2E
330
5
100
AcDbSymbolTableRecord
100
AcDbLinetypeTableRecord
  2
DOT2
 70
     0
  3
Dot (.5x) ........................................
 72
    65
 73
     2
 40
0.635
 49
0.0
 74
     0
 49
-0.635
 74
     0
  0
ENDTAB
  0
TABLE
  2
LAYER
  5
2
330
0
100
AcDbSymbolTable
 70
     2
  0
LAYER
  5
10
330
2
100
AcDbSymbolTableRecord
100
AcDbLayerTableRecord
  2
0
 70
     0
 62
     7
  6
Continuous
370
    -3
390
F
  0
LAYER
  5
2F
330
2
100
AcDbSymbolTableRecord
100
AcDbLayerTableRecord
  2
FORMAT
 70
     0
 62
     7
  6
Continuous
370
    -3
390
F
  0
ENDTAB
  0
TABLE
  2
STYLE
  5
3
330
0
100
AcDbSymbolTable
 70
     1
  0
STYLE
  5
11
330
3
100
AcDbSymbolTableRecord
100
AcDbTextStyleTableRecord
  2
Standard
 70
     0
 40
0.0
 41
1.0
 50
0.0
 71
     0
 42
2.5
  3
txt
  4

  0
ENDTAB
  0
TABLE
  2
VIEW
  5
6
330
0
100
AcDbSymbolTable
 70
     0
  0
ENDTAB
  0
TABLE
  2
UCS
  5
7
330
0
100
AcDbSymbolTable
 70
     0
  0
ENDTAB
  0
TABLE
  2
APPID
  5
9
330
0
100
AcDbSymbolTable
 70
     1
  0
APPID
  5
12
330
9
100
AcDbSymbolTableRecord
100
AcDbRegAppTableRecord
  2
ACAD
 70
     0
  0
ENDTAB
  0
TABLE
  2
DIMSTYLE
  5
A
330
0
100
AcDbSymbolTable
 70
     1
100
AcDbDimStyleTable
  0
DIMSTYLE
105
27
330
A
100
AcDbSymbolTableRecord
100
AcDbDimStyleTableRecord
  2
ISO-25
 70
     0
 41
2.5
 42
0.625
 43
3.75
 44
1.25
 73
     0
 74
     0
 77
     1
 78
     8
140
2.5
141
2.5
143
0.0393700787
147
0.625
171
     3
172
     1
271
     2
272
     2
274
     3
278
    44
283
     0
284
     8
340
11
  0
ENDTAB
  0
TABLE
  2
BLOCK_RECORD
  5
1
330
0
100
AcDbSymbolTable
 70
     1
  0
BLOCK_RECORD
  5
1F
330
1
100
AcDbSymbolTableRecord
100
AcDbBlockTableRecord
  2
*Model_Space
340
22
  0
BLOCK_RECORD
  5
1B
330
1
100
AcDbSymbolTableRecord
100
AcDbBlockTableRecord
  2
*Paper_Space
340
1E
  0
BLOCK_RECORD
  5
23
330
1
100
AcDbSymbolTableRecord
100
AcDbBlockTableRecord
  2
*Paper_Space0
340
26
  0
ENDTAB
  0
ENDSEC
  0
SECTION
  2
BLOCKS
  0
BLOCK
  5
20
330
1F
100
AcDbEntity
  8
0
100
AcDbBlockBegin
  2
*Model_Space
 70
     0
 71
     0
 10
0.0
 20
0.0
 30
0.0
  3
*Model_Space
  1

  0
ENDBLK
  5
21
330
1F
100
AcDbEntity
  8
0
100
AcDbBlockEnd
  0
BLOCK
  5
1C
330
1B
100
AcDbEntity
 67
     1
  8
0
100
AcDbBlockBegin
  2
*Paper_Space
 70
     0
 71
     0
 10
0.0
 20
0.0
 30
0.0
  3
*Paper_Space
  1

  0
ENDBLK
  5
1D
330
1B
100
AcDbEntity
 67
     1
  8
0
100
AcDbBlockEnd
  0
BLOCK
  5
24
330
23
100
AcDbEntity
  8
0
100
AcDbBlockBegin
  2
*Paper_Space0
 70
     0
 71
     0
 10
0.0
 20
0.0
 30
0.0
  3
*Paper_Space0
  1

  0
ENDBLK
  5
25
330
23
100
AcDbEntity
  8
0
100
AcDbBlockEnd
  0
ENDSEC
  0
SECTION
  2
ENTITIES
  0
ARC
  5
30
330
1F
100
AcDbEntity
  8
0
  6
Continuous
 62
     7
370
    15
100
AcDbCircle
 10
622.9217647479
 20
385.1926419946
 30
0.0
 40
10.12695189693003
100
AcDbArc
 50
162.5214440331
 51
197.5480351018
  0
LWPOLYLINE
  5
31
330
1F
100
AcDbEntity
  8
0
  6
Continuous
 62
     7
370
    15
100
AcDbPolyline
 90
        3
 70
   128
 43
0.0
 10
626.8397965438
 20
382.139312709
 10
627.1803402311
 20
383.6630495733
 10
627.3024626977
 20
384.7449074036
  0
LINE
  5
32
330
1F
100
AcDbEntity
  8
0
  6
Continuous
 62
     7
370
    15
100
AcDbLine
 10
627.0348154909
 20
387.37631836
 30
0.0
 11
626.8434920317
 21
388.2342601663
 31
0.0
  0
LINE
  5
33
330
1F
100
AcDbEntity
  8
0
  6
Continuous
 62
     7
370
    15
100
AcDbLine
 10
626.8530958301
 20
388.194436813
 30
0.0
 11
626.8529319173
 21
388.194436813
 31
0.0
  0
LINE
  5
34
330
1F
100
AcDbEntity
  8
0
  6
Continuous
 62
     7
370
    15
100
AcDbLine
 10
623.8529332883
 20
388.194436813
 30
0.0
 11
622.8029304153
 21
388.194436813
 31
0.0
  0
LINE
  5
35
330
1F
100
AcDbEntity
  8
0
  6
Continuous
 62
     7
370
    15
100
AcDbLine
 10
614.8029365546
 20
388.194436813
 30
0.0
 11
613.2527762062
 21
388.194436813
 31
0.0
  0
LINE
  5
36
330
1F
100
AcDbEntity
  8
0
  6
Continuous
 62
     7
370
    15
100
AcDbLine
 10
613.2527762062
 20
382.1944395548
 30
0.0
 11
614.8029365546
 21
382.1944395548
 31
0.0
  0
LINE
  5
37
330
1F
100
AcDbEntity
  8
0
  6
Continuous
 62
     7
370
    15
100
AcDbLine
 10
622.8029304153
 20
382.1944395548
 30
0.0
 11
623.8529332883
 21
382.1944395548
 31
0.0
  0
LINE
  5
38
330
1F
100
AcDbEntity
  8
0
  6
Continuous
 62
     7
370
    15
100
AcDbLine
 10
626.8529319173
 20
382.1944395548
 30
0.0
 11
626.8530883795
 21
382.1944395548
 31
0.0
  0
ARC
  5
39
330
1F
100
AcDbEntity
  8
0
  6
Continuous
 62
     7
370
    15
100
AcDbCircle
 10
630.1529338843
 20
295.6888856977
 30
0.0
 40
2.0
100
AcDbArc
 50
304.3297726759
 51
0.0
  0
ARC
  5
3A
330
1F
100
AcDbEntity
  8
0
  6
Continuous
 62
     7
370
    15
100
AcDbCircle
 10
630.1529338843
 20
306.6999926966
 30
0.0
 40
2.000000000000018
100
AcDbArc
 50
0.0
 51
55.5529438572
  0
LWPOLYLINE
  5
3B
330
1F
100
AcDbEntity
  8
0
  6
Continuous
 62
     7
370
    15
100
AcDbPolyline
 90
        3
 70
   128
 43
0.0
 10
630.8198296434
 20
308.5855307525
 10
630.4285475022
 20
308.6809102914
 10
630.0202258832
 20
308.6955851412
  0
LINE
  5
3C
330
1F
100
AcDbEntity
  8
0
  6
Continuous
 62
     7
370
    15
100
AcDbLine
 10
626.8529319173
 20
294.6944391823
 30
0.0
 11
627.2529312379
 21
294.6944391823
 31
0.0
  0
LINE
  5
3D
330
1F
100
AcDbEntity
  8
0
  6
Continuous
 62
     7
370
    15
100
AcDbLine
 10
627.2529312379
 20
307.6944394505
 30
0.0
 11
626.8529319173
 21
307.6944394505
 31
0.0
  0
ARC
  5
3E
330
1F
100
AcDbEntity
  8
0
  6
Continuous
 62
     7
370
    15
100
AcDbCircle
 10
630.1529338843
 20
339.6888856977
 30
0.0
 40
2.00000000000004
100
AcDbArc
 50
304.3297726759
 51
0.0
  0
ARC
  5
3F
330
1F
100
AcDbEntity
  8
0
  6
Continuous
 62
     7
370
    15
100
AcDbCircle
 10
630.1529338843
 20
350.6999926966
 30
0.0
 40
2.000000000000018
100
AcDbArc
 50
0.0
 51
55.5529438572
  0
LWPOLYLINE
  5
40
330
1F
100
AcDbEntity
  8
0
  6
Continuous
 62
     7
370
    15
100
AcDbPolyline
 90
        3
 70
   128
 43
0.0
 10
630.8198296434
 20
352.5855305141
 10
630.4285475022
 20
352.6809109843
 10
630.0202258832
 20
352.6955849027
  0
LINE
  5
41
330
1F
100
AcDbEntity
  8
0
  6
Continuous
 62
     7
370
    15
100
AcDbLine
 10
626.8529319173
 20
338.6944389438
 30
0.0
 11
627.2529312379
 21
338.6944389438
 31
0.0
  0
LINE
  5
42
330
1F
100
AcDbEntity
  8
0
  6
Continuous
 62
     7
370
    15
100
AcDbLine
 10
627.2529312379
 20
351.6944392121
 30
0.0
 11
626.8529319173
 21
351.6944392121
 31
0.0
  0
ARC
  5
43
330
1F
100
AcDbEntity
  8
0
  6
Continuous
 62
     7
370
    15
100
AcDbCircle
 10
619.8213958547
 20
386.1944391972
 30
0.0
 40
64.03153802959946
100
AcDbArc
 50
340.0
 51
0.0
  0
ARC
  5
44
330
1F
100
AcDbEntity
  8
0
  6
Continuous
 62
     7
370
    15
100
AcDbCircle
 10
619.8213958547
 20
386.1944391972
 30
0.0
 40
64.0315380295995
100
AcDbArc
 50
0.0
 51
16.8190100404
  0
LWPOLYLINE
  5
45
330
1F
100
AcDbEntity
  8
0
  6
Continuous
 62
     7
370
    15
100
AcDbPolyline
 90
       14
 70
   128
 43
0.0
 10
671.7720874554
 20
370.6931608265
 10
671.7712529904
 20
370.6930788702
 10
671.8495287902
 20
370.6867719537
 10
672.1399822241
 20
370.6465797967
 10
672.6893880374
 20
370.5628799742
 10
673.4727718836
 20
370.4608815259
 10
674.4040944583
 20
370.3794541305
 10
675.4230060584
 20
370.3435646838
 10
676.4361509091
 20
370.3636290973
 10
677.3836114413
 20
370.4324128574
 10
678.1970956332
 20
370.5284620172
 10
678.8310208327
 20
370.622395212
 10
679.2434849745
 20
370.6827002114
 10
679.3073811537
 20
370.6885377413
  0
ARC
  5
46
330
1F
100
AcDbEntity
  8
0
  6
Continuous
 62
     7
370
    15
100
AcDbCircle
 10
672.8467433848
 20
405.6772473005
 30
0.0
 40
1.976277993374605
100
AcDbArc
 50
137.0434659229
 51
183.1377735596
  0
ARC
  5
47
330
1F
100
AcDbEntity
  8
0
  6
Continuous
 62
     7
370
    15
100
AcDbCircle
 10
675.5391156458
 20
403.2890567542
 30
0.0
 40
5.574839959806373
100
AcDbArc
 50
38.2734144866
 51
137.9361296723
  0
LINE
  5
48
330
1F
100
AcDbEntity
  8
0
  6
Continuous
 62
     7
370
    15
100
AcDbLine
 10
670.8529391295
 20
396.6944391376
 30
0.0
 11
651.8529304272
 21
396.6944391376
 31
0.0
  0
LINE
  5
49
330
1F
100
AcDbEntity
  8
0
  6
Continuous
 62
     7
370
    15
100
AcDbLine
 10
651.8529304272
 20
375.694437558
 30
0.0
 11
670.8529391295
 21
375.694437558
 31
0.0
  0
ARC
  5
4A
330
1F
100
AcDbEntity
  8
0
  6
Continuous
 62
     7
370
    15
100
AcDbCircle
 10
463.1973202821
 20
276.4559867687
 30
0.0
 40
252.8769738736279
100
AcDbArc
 50
30.515994598
 51
31.0166461241
  0
ARC
  5
4B
330
1F
100
AcDbEntity
  8
0
  6
Continuous
 62
     7
370
    15
100
AcDbCircle
 10
679.085848301
 20
403.8936825196
 30
0.0
 40
2.188588427485584
100
AcDbArc
 50
22.2476556849
 51
35.2177695204
  0
LINE
  5
4C
330
1F
100
AcDbEntity
  8
0
  6
Continuous
 62
     7
370
    15
100
AcDbLine
 10
644.5458182103
 20
391.1944428927
 30
0.0
 11
643.8529291159
 21
391.1944428927
 31
0.0
  0
LINE
  5
4D
330
1F
100
AcDbEntity
  8
0
  6
Continuous
 62
     7
370
    15
100
AcDbLine
 10
643.8529291159
 20
381.1944375282
 30
0.0
 11
644.5458182103
 21
381.1944375282
 31
0.0
  0
LINE
  5
4E
330
1F
100
AcDbEntity
  8
0
  6
Continuous
 62
     7
370
    15
100
AcDbLine
 10
646.5458073622
 20
381.1944375282
 30
0.0
 11
647.0146276957
 21
382.0064390546
 31
0.0
  0
LINE
  5
4F
330
1F
100
AcDbEntity
  8
0
  6
Continuous
 62
     7
370
    15
100
AcDbLine
 10
647.0146276957
 20
390.3824413663
 30
0.0
 11
646.5458073622
 21
391.1944428927
 31
0.0
  0
LINE
  5
50
330
1F
100
AcDbEntity
  8
0
  6
Continuous
 62
     7
370
    15
100
AcDbLine
 10
649.8529412753
 20
391.1944428927
 30
0.0
 11
649.3841209418
 21
390.3824413663
 31
0.0
  0
LINE
  5
51
330
1F
100
AcDbEntity
  8
0
  6
Continuous
 62
     7
370
    15
100
AcDbLine
 10
649.3841209418
 20
382.0064390546
 30
0.0
 11
649.8529412753
 21
381.1944375282
 31
0.0
  0
LINE
  5
52
330
1F
100
AcDbEntity
  8
0
  6
Continuous
 62
     7
370
    15
100
AcDbLine
 10
647.8529372222
 20
391.1944428927
 30
0.0
 11
647.3841317898
 21
390.3824413663
 31
0.0
  0
LINE
  5
53
330
1F
100
AcDbEntity
  8
0
  6
Continuous
 62
     7
370
    15
100
AcDbLine
 10
647.3841317898
 20
382.0064390546
 30
0.0
 11
647.8529372222
 21
381.1944375282
 31
0.0
  0
LINE
  5
54
330
1F
100
AcDbEntity
  8
0
  6
Continuous
 62
     7
370
    15
100
AcDbLine
 10
646.5458073622
 20
391.1944428927
 30
0.0
 11
645.852933169
 21
391.1944428927
 31
0.0
  0
LINE
  5
55
330
1F
100
AcDbEntity
  8
0
  6
Continuous
 62
     7
370
    15
100
AcDbLine
 10
645.852933169
 20
381.1944375282
 30
0.0
 11
646.5458073622
 21
381.1944375282
 31
0.0
  0
LINE
  5
56
330
1F
100
AcDbEntity
  8
0
  6
Continuous
 62
     7
370
    15
100
AcDbLine
 10
650.5458154685
 20
381.1944375282
 30
0.0
 11
651.0146209008
 21
382.0064390546
 31
0.0
  0
LINE
  5
57
330
1F
100
AcDbEntity
  8
0
  6
Continuous
 62
     7
370
    15
100
AcDbLine
 10
651.0146209008
 20
390.3824413663
 30
0.0
 11
650.5458154685
 21
391.1944428927
 31
0.0
  0
LINE
  5
58
330
1F
100
AcDbEntity
  8
0
  6
Continuous
 62
     7
370
    15
100
AcDbLine
 10
648.5458114153
 20
391.1944428927
 30
0.0
 11
647.8529372222
 21
391.1944428927
 31
0.0
  0
LINE
  5
59
330
1F
100
AcDbEntity
  8
0
  6
Continuous
 62
     7
370
    15
100
AcDbLine
 10
647.8529372222
 20
381.1944375282
 30
0.0
 11
648.5458114153
 21
381.1944375282
 31
0.0
  0
LINE
  5
5A
330
1F
100
AcDbEntity
  8
0
  6
Continuous
 62
     7
370
    15
100
AcDbLine
 10
645.852933169
 20
391.1944428927
 30
0.0
 11
645.3841277367
 21
390.3824413663
 31
0.0
  0
LINE
  5
5B
330
1F
100
AcDbEntity
  8
0
  6
Continuous
 62
     7
370
    15
100
AcDbLine
 10
645.3841277367
 20
382.0064390546
 30
0.0
 11
645.852933169
 21
381.1944375282
 31
0.0
  0
LINE
  5
5C
330
1F
100
AcDbEntity
  8
0
  6
Continuous
 62
     7
370
    15
100
AcDbLine
 10
648.5458114153
 20
381.1944375282
 30
0.0
 11
649.0146168477
 21
382.0064390546
 31
0.0
  0
LINE
  5
5D
330
1F
100
AcDbEntity
  8
0
  6
Continuous
 62
     7
370
    15
100
AcDbLine
 10
649.0146168477
 20
390.3824413663
 30
0.0
 11
648.5458114153
 21
391.1944428927
 31
0.0
  0
LINE
  5
5E
330
1F
100
AcDbEntity
  8
0
  6
Continuous
 62
     7
370
    15
100
AcDbLine
 10
643.8529291159
 20
391.1944428927
 30
0.0
 11
643.3841236836
 21
390.3824413663
 31
0.0
  0
LINE
  5
5F
330
1F
100
AcDbEntity
  8
0
  6
Continuous
 62
     7
370
    15
100
AcDbLine
 10
643.3841236836
 20
382.0064390546
 30
0.0
 11
643.8529291159
 21
381.1944375282
 31
0.0
  0
LINE
  5
60
330
1F
100
AcDbEntity
  8
0
  6
Continuous
 62
     7
370
    15
100
AcDbLine
 10
644.5458182103
 20
381.1944375282
 30
0.0
 11
645.0146236426
 21
382.0064390546
 31
0.0
  0
LINE
  5
61
330
1F
100
AcDbEntity
  8
0
  6
Continuous
 62
     7
370
    15
100
AcDbLine
 10
645.0146236426
 20
390.3824413663
 30
0.0
 11
644.5458182103
 21
391.1944428927
 31
0.0
  0
LINE
  5
62
330
1F
100
AcDbEntity
  8
0
  6
Continuous
 62
     7
370
    15
100
AcDbLine
 10
651.8529304272
 20
391.1944428927
 30
0.0
 11
651.3841249949
 21
390.3824413663
 31
0.0
  0
LINE
  5
63
330
1F
100
AcDbEntity
  8
0
  6
Continuous
 62
     7
370
    15
100
AcDbLine
 10
651.3841249949
 20
382.0064390546
 30
0.0
 11
651.8529304272
 21
381.1944375282
 31
0.0
  0
LINE
  5
64
330
1F
100
AcDbEntity
  8
0
  6
Continuous
 62
     7
370
    15
100
AcDbLine
 10
650.5458154685
 20
391.1944428927
 30
0.0
 11
649.8529412753
 21
391.1944428927
 31
0.0
  0
LINE
  5
65
330
1F
100
AcDbEntity
  8
0
  6
Continuous
 62
     7
370
    15
100
AcDbLine
 10
649.8529412753
 20
381.1944375282
 30
0.0
 11
650.5458154685
 21
381.1944375282
 31
0.0
  0
LINE
  5
66
330
1F
100
AcDbEntity
  8
0
  6
Continuous
 62
     7
370
    15
100
AcDbLine
 10
632.5458162433
 20
391.1944428927
 30
0.0
 11
631.8529345996
 21
391.1944428927
 31
0.0
  0
LINE
  5
67
330
1F
100
AcDbEntity
  8
0
  6
Continuous
 62
     7
370
    15
100
AcDbLine
 10
631.8529345996
 20
381.1944375282
 30
0.0
 11
632.5458162433
 21
381.1944375282
 31
0.0
  0
LINE
  5
68
330
1F
100
AcDbEntity
  8
0
  6
Continuous
 62
     7
370
    15
100
AcDbLine
 10
632.5458162433
 20
381.1944375282
 30
0.0
 11
633.0146216756
 21
382.0064390546
 31
0.0
  0
LINE
  5
69
330
1F
100
AcDbEntity
  8
0
  6
Continuous
 62
     7
370
    15
100
AcDbLine
 10
633.0146216756
 20
390.3824413663
 30
0.0
 11
632.5458162433
 21
391.1944428927
 31
0.0
  0
LINE
  5
6A
330
1F
100
AcDbEntity
  8
0
  6
Continuous
 62
     7
370
    15
100
AcDbLine
 10
631.8529345996
 20
391.1944428927
 30
0.0
 11
631.3841291672
 21
390.3824413663
 31
0.0
  0
LINE
  5
6B
330
1F
100
AcDbEntity
  8
0
  6
Continuous
 62
     7
370
    15
100
AcDbLine
 10
631.3841291672
 20
382.0064390546
 30
0.0
 11
631.8529345996
 21
381.1944375282
 31
0.0
  0
LINE
  5
6C
330
1F
100
AcDbEntity
  8
0
  6
Continuous
 62
     7
370
    15
100
AcDbLine
 10
630.6582265503
 20
381.3891472763
 30
0.0
 11
631.0146176225
 21
382.0064390546
 31
0.0
  0
LINE
  5
6D
330
1F
100
AcDbEntity
  8
0
  6
Continuous
 62
     7
370
    15
100
AcDbLine
 10
631.0146176225
 20
390.3824413663
 30
0.0
 11
630.6582265503
 21
390.9997294193
 31
0.0
  0
LINE
  5
6E
330
1F
100
AcDbEntity
  8
0
  6
Continuous
 62
     7
370
    15
100
AcDbLine
 10
630.6582265503
 20
390.9997294193
 30
0.0
 11
626.8529319173
 21
387.194442237
 31
0.0
  0
LINE
  5
6F
330
1F
100
AcDbEntity
  8
0
  6
Continuous
 62
     7
370
    15
100
AcDbLine
 10
626.8529319173
 20
385.1944381839
 30
0.0
 11
630.6582265503
 21
381.3891472763
 31
0.0
  0
LINE
  5
70
330
1F
100
AcDbEntity
  8
0
  6
Continuous
 62
     7
370
    15
100
AcDbLine
 10
649.3841209418
 20
390.3824413663
 30
0.0
 11
649.0146168477
 21
390.3824413663
 31
0.0
  0
LINE
  5
71
330
1F
100
AcDbEntity
  8
0
  6
Continuous
 62
     7
370
    15
100
AcDbLine
 10
649.0146168477
 20
382.0064390546
 30
0.0
 11
649.3841209418
 21
382.0064390546
 31
0.0
  0
LINE
  5
72
330
1F
100
AcDbEntity
  8
0
  6
Continuous
 62
     7
370
    15
100
AcDbLine
 10
645.3841277367
 20
390.3824413663
 30
0.0
 11
645.0146236426
 21
390.3824413663
 31
0.0
  0
LINE
  5
73
330
1F
100
AcDbEntity
  8
0
  6
Continuous
 62
     7
370
    15
100
AcDbLine
 10
645.0146236426
 20
382.0064390546
 30
0.0
 11
645.3841277367
 21
382.0064390546
 31
0.0
  0
LINE
  5
74
330
1F
100
AcDbEntity
  8
0
  6
Continuous
 62
     7
370
    15
100
AcDbLine
 10
647.3841317898
 20
390.3824413663
 30
0.0
 11
647.0146276957
 21
390.3824413663
 31
0.0
  0
LINE
  5
75
330
1F
100
AcDbEntity
  8
0
  6
Continuous
 62
     7
370
    15
100
AcDbLine
 10
647.0146276957
 20
382.0064390546
 30
0.0
 11
647.3841317898
 21
382.0064390546
 31
0.0
  0
LINE
  5
76
330
1F
100
AcDbEntity
  8
0
  6
Continuous
 62
     7
370
    15
100
AcDbLine
 10
643.3841236836
 20
390.3824413663
 30
0.0
 11
643.3029272563
 21
390.3824413663
 31
0.0
  0
LINE
  5
77
330
1F
100
AcDbEntity
  8
0
  6
Continuous
 62
     7
370
    15
100
AcDbLine
 10
643.3029272563
 20
382.0064390546
 30
0.0
 11
643.3841236836
 21
382.0064390546
 31
0.0
  0
LINE
  5
78
330
1F
100
AcDbEntity
  8
0
  6
Continuous
 62
     7
370
    15
100
AcDbLine
 10
651.3841249949
 20
390.3824413663
 30
0.0
 11
651.0146209008
 21
390.3824413663
 31
0.0
  0
LINE
  5
79
330
1F
100
AcDbEntity
  8
0
  6
Continuous
 62
     7
370
    15
100
AcDbLine
 10
651.0146209008
 20
382.0064390546
 30
0.0
 11
651.3841249949
 21
382.0064390546
 31
0.0
  0
LINE
  5
7A
330
1F
100
AcDbEntity
  8
0
  6
Continuous
 62
     7
370
    15
100
AcDbLine
 10
633.302936793
 20
390.3824413663
 30
0.0
 11
633.0146216756
 21
390.3824413663
 31
0.0
  0
LINE
  5
7B
330
1F
100
AcDbEntity
  8
0
  6
Continuous
 62
     7
370
    15
100
AcDbLine
 10
633.0146216756
 20
382.0064390546
 30
0.0
 11
633.302936793
 21
382.0064390546
 31
0.0
  0
LINE
  5
7C
330
1F
100
AcDbEntity
  8
0
  6
Continuous
 62
     7
370
    15
100
AcDbLine
 10
631.3841291672
 20
390.3824413663
 30
0.0
 11
631.0146176225
 21
390.3824413663
 31
0.0
  0
LINE
  5
7D
330
1F
100
AcDbEntity
  8
0
  6
Continuous
 62
     7
370
    15
100
AcDbLine
 10
631.0146176225
 20
382.0064390546
 30
0.0
 11
631.3841291672
 21
382.0064390546
 31
0.0
  0
ARC
  5
7E
330
1F
100
AcDbEntity
  8
0
  6
Continuous
 62
     7
370
    15
100
AcDbCircle
 10
675.5642090918
 20
365.9057144046
 30
0.0
 40
4.711275207452572
100
AcDbArc
 50
255.1810072227
 51
255.506233997
  0
LWPOLYLINE
  5
7F
330
1F
100
AcDbEntity
  8
0
  6
Continuous
 62
     7
370
    15
100
AcDbPolyline
 90
        3
 70
   128
 43
0.0
 10
670.8529391295
 20
365.9057157582
 10
670.9161647565
 20
365.1364321357
 10
670.977229715
 20
364.830686385
  0
LINE
  5
80
330
1F
100
AcDbEntity
  8
0
  6
Continuous
 62
     7
370
    15
100
AcDbLine
 10
673.9039965874
 20
361.496655876
 30
0.0
 11
674.3592270619
 21
361.3511423117
 31
0.0
  0
LINE
  5
81
330
1F
100
AcDbEntity
  8
0
  6
Continuous
 62
     7
370
    15
100
AcDbLine
 10
676.9030042893
 20
361.3886671609
 30
0.0
 11
677.2288777835
 21
361.4983359819
 31
0.0
  0
LINE
  5
82
330
1F
100
AcDbEntity
  8
0
  6
Continuous
 62
     7
370
    15
100
AcDbLine
 10
679.8014887578
 20
363.846192742
 30
0.0
 11
679.9913593537
 21
364.2943637913
 31
0.0
  0
ARC
  5
83
330
1F
100
AcDbEntity
  8
0
  6
Continuous
 62
     7
370
    15
100
AcDbCircle
 10
675.5642090918
 20
365.9057144046
 30
0.0
 40
4.71127520745254
100
AcDbArc
 50
282.4260628537
 51
286.5092184555
  0
LINE
  5
84
330
1F
100
AcDbEntity
  8
0
  6
Continuous
 62
     7
370
    15
100
AcDbLine
 10
626.8529319173
 20
393.1944394952
 30
0.0
 11
623.8529332883
 21
393.1944394952
 31
0.0
  0
LINE
  5
85
330
1F
100
AcDbEntity
  8
0
  6
Continuous
 62
     7
370
    15
100
AcDbLine
 10
395.4029330021
 20
342.5944397694
 30
0.0
 11
391.4029323465
 21
338.5944391137
 31
0.0
  0
LINE
  5
86
330
1F
100
AcDbEntity
  8
0
  6
Continuous
 62
     7
370
    15
100
AcDbLine
 10
391.4029323465
 20
307.7944392806
 30
0.0
 11
395.4029330021
 21
303.794438625
 31
0.0
  0
LINE
  5
87
330
1F
100
AcDbEntity
  8
0
  6
Continuous
 62
     7
370
    15
100
AcDbLine
 10
395.4029330021
 20
303.794438625
 30
0.0
 11
398.9029326445
 21
303.794438625
 31
0.0
  0
LINE
  5
88
330
1F
100
AcDbEntity
  8
0
  6
Continuous
 62
     7
370
    15
100
AcDbLine
 10
398.9029326445
 20
342.5944397694
 30
0.0
 11
395.4029330021
 21
342.5944397694
 31
0.0
  0
LINE
  5
89
330
1F
100
AcDbEntity
  8
0
  6
Continuous
 62
     7
370
    15
100
AcDbLine
 10
398.9029326445
 20
307.2944382673
 30
0.0
 11
400.9029366976
 21
309.2944395265
 31
0.0
  0
LINE
  5
8A
330
1F
100
AcDbEntity
  8
0
  6
Continuous
 62
     7
370
    15
100
AcDbLine
 10
400.9029366976
 20
337.0944388679
 30
0.0
 11
398.9029326445
 21
339.094440127
 31
0.0
  0
ARC
  5
8B
330
1F
100
AcDbEntity
  8
0
  6
Continuous
 62
     7
370
    15
100
AcDbCircle
 10
651.1652914131
 20
531.1944391972
 30
0.0
 40
2.0
100
AcDbArc
 50
356.2055053037
 51
90.0
  0
ARC
  5
8C
330
1F
100
AcDbEntity
  8
0
  6
Continuous
 62
     7
370
    15
100
AcDbCircle
 10
625.4405719153
 20
531.1944383647
 30
0.0
 40
1.999994275956463
100
AcDbArc
 50
89.9996263475
 51
183.7976680194
  0
LWPOLYLINE
  5
8D
330
1F
100
AcDbEntity
  8
0
  6
Continuous
 62
     7
370
    15
100
AcDbPolyline
 90
       16
 70
   128
 43
0.0
 10
623.4450140006
 20
531.0613612181
 10
624.3286156065
 20
517.8089390045
 10
625.1925700313
 20
504.8526326662
 10
625.9800665981
 20
493.0432240015
 10
626.6910606033
 20
482.3807130104
 10
627.3255296952
 20
472.8650996929
 10
627.8834813243
 20
464.4963691479
 10
628.3649154908
 20
457.2745213753
 10
628.6888592846
 20
452.4146566635
 10
628.9657973653
 20
448.2597360855
 10
629.2002149827
 20
444.7419444567
 10
629.4547119147
 20
440.9185523635
 10
629.7502689964
 20
436.4873344546
 10
630.2011185295
 20
429.7653833872
 10
630.722681523
 20
422.0010811931
 10
631.3029327399
 20
413.1944427734
  0
LWPOLYLINE
  5
8E
330
1F
100
AcDbEntity
  8
0
  6
Continuous
 62
     7
370
    15
100
AcDbPolyline
 90
       20
 70
   128
 43
0.0
 10
645.3029313094
 20
413.1944427734
 10
645.6963070637
 20
419.1351408607
 10
646.0361578471
 20
424.1950983649
 10
646.3145562417
 20
428.3743078357
 10
646.5410389907
 20
431.7781726366
 10
646.7562564618
 20
435.0105548745
 10
646.9664671427
 20
438.1674850827
 10
647.2078361518
 20
441.7912910229
 10
647.4423506266
 20
445.3102970964
 10
647.6775058514
 20
448.8370517737
 10
647.9620584256
 20
453.1040737873
 10
648.3115502602
 20
458.3450505978
 10
648.7213917977
 20
464.4904980904
 10
649.1915532357
 20
471.5403864628
 10
649.7220643765
 20
479.4947306162
 10
650.3128954178
 20
488.3535454517
 10
650.951872111
 20
497.9345152622
 10
651.6490080363
 20
508.3879480606
 10
652.4042584902
 20
519.7138140446
 10
653.1608500487
 20
531.0613612181
  0
LINE
  5
8F
330
1F
100
AcDbEntity
  8
0
  6
Continuous
 62
     7
370
    15
100
AcDbLine
 10
587.8039323694
 20
335.6944393834
 30
0.0
 11
587.2471728331
 21
335.6944393834
 31
0.0
  0
LINE
  5
90
330
1F
100
AcDbEntity
  8
0
  6
Continuous
 62
     7
370
    15
100
AcDbLine
 10
587.2471728331
 20
310.6944390109
 30
0.0
 11
587.8039323694
 21
310.6944390109
 31
0.0
  0
LINE
  5
91
330
1F
100
AcDbEntity
  8
0
  6
Continuous
 62
     7
370
    15
100
AcDbLine
 10
439.9019353992
 20
310.6944390109
 30
0.0
 11
440.4586949355
 21
310.6944390109
 31
0.0
  0
LINE
  5
92
330
1F
100
AcDbEntity
  8
0
  6
Continuous
 62
     7
370
    15
100
AcDbLine
 10
440.4586949355
 20
335.6944393834
 30
0.0
 11
439.9019353992
 21
335.6944393834
 31
0.0
  0
LINE
  5
93
330
1F
100
AcDbEntity
  8
0
  6
Continuous
 62
     7
370
    15
100
AcDbLine
 10
633.302936793
 20
310.6944390109
 30
0.0
 11
643.3029272563
 21
310.6944390109
 31
0.0
  0
LINE
  5
94
330
1F
100
AcDbEntity
  8
0
  6
Continuous
 62
     7
370
    15
100
AcDbLine
 10
439.4029327637
 20
331.1944395771
 30
0.0
 11
439.2808177477
 21
331.1944395771
 31
0.0
  0
LINE
  5
95
330
1F
100
AcDbEntity
  8
0
  6
Continuous
 62
     7
370
    15
100
AcDbLine
 10
403.8529344803
 20
331.1944395771
 30
0.0
 11
400.9029366976
 21
331.1944395771
 31
0.0
  0
LINE
  5
96
330
1F
100
AcDbEntity
  8
0
  6
Continuous
 62
     7
370
    15
100
AcDbLine
 10
400.9029366976
 20
315.1944388172
 30
0.0
 11
403.8529344803
 21
315.1944388172
 31
0.0
  0
LINE
  5
97
330
1F
100
AcDbEntity
  8
0
  6
Continuous
 62
     7
370
    15
100
AcDbLine
 10
439.2808177477
 20
315.1944388172
 30
0.0
 11
439.4029327637
 21
315.1944388172
 31
0.0
  0
LINE
  5
98
330
1F
100
AcDbEntity
  8
0
  6
Continuous
 62
     7
370
    15
100
AcDbLine
 10
588.3029350049
 20
315.1944388172
 30
0.0
 11
588.4250500208
 21
315.1944388172
 31
0.0
  0
LINE
  5
99
330
1F
100
AcDbEntity
  8
0
  6
Continuous
 62
     7
370
    15
100
AcDbLine
 10
626.8529319173
 20
315.1944388172
 30
0.0
 11
633.302936793
 21
315.1944388172
 31
0.0
  0
LINE
  5
9A
330
1F
100
AcDbEntity
  8
0
  6
Continuous
 62
     7
370
    15
100
AcDbLine
 10
633.302936793
 20
331.1944395771
 30
0.0
 11
626.8529319173
 21
331.1944395771
 31
0.0
  0
LINE
  5
9B
330
1F
100
AcDbEntity
  8
0
  6
Continuous
 62
     7
370
    15
100
AcDbLine
 10
588.4250500208
 20
331.1944395771
 30
0.0
 11
588.3029350049
 21
331.1944395771
 31
0.0
  0
LINE
  5
9C
330
1F
100
AcDbEntity
  8
0
  6
Continuous
 62
     7
370
    15
100
AcDbLine
 10
622.8029304153
 20
377.1944405979
 30
0.0
 11
622.8029304153
 21
393.1944394952
 31
0.0
  0
LINE
  5
9D
330
1F
100
AcDbEntity
  8
0
  6
Continuous
 62
     7
370
    15
100
AcDbLine
 10
614.8029365546
 20
393.1944394952
 30
0.0
 11
614.8029365546
 21
377.1944405979
 31
0.0
  0
LINE
  5
9E
330
1F
100
AcDbEntity
  8
0
  6
Continuous
 62
     7
370
    15
100
AcDbLine
 10
633.302936793
 20
407.1944380647
 30
0.0
 11
628.8029351241
 21
407.1944380647
 31
0.0
  0
LINE
  5
9F
330
1F
100
AcDbEntity
  8
0
  6
Continuous
 62
     7
370
    15
100
AcDbLine
 10
628.8029351241
 20
399.1944367534
 30
0.0
 11
633.302936793
 21
399.1944367534
 31
0.0
  0
LINE
  5
A0
330
1F
100
AcDbEntity
  8
0
  6
Continuous
 62
     7
370
    15
100
AcDbLine
 10
614.8029365546
 20
377.1944405979
 30
0.0
 11
616.8029331571
 21
375.1944402701
 31
0.0
  0
LINE
  5
A1
330
1F
100
AcDbEntity
  8
0
  6
Continuous
 62
     7
370
    15
100
AcDbLine
 10
620.8029338128
 20
375.1944402701
 30
0.0
 11
622.8029304153
 21
377.1944405979
 31
0.0
  0
ARC
  5
A2
330
1F
100
AcDbEntity
  8
0
  6
Continuous
 62
     7
370
    15
100
AcDbCircle
 10
628.8029338843
 20
393.1944391972
 30
0.0
 40
6.0
100
AcDbArc
 50
90.0
 51
180.0
  0
ARC
  5
A3
330
1F
100
AcDbEntity
  8
0
  6
Continuous
 62
     7
370
    15
100
AcDbCircle
 10
628.8029338843
 20
393.1944391972
 30
0.0
 40
14.0
100
AcDbArc
 50
90.0
 51
180.0
  0
SPLINE
  5
A4
330
1F
100
AcDbEntity
  8
0
  6
Continuous
 62
     7
370
    15
100
AcDbSpline
210
0.0
220
0.0
230
1.0
 70
     8
 71
     3
 72
    18
 73
    14
 74
     0
 42
0.00000001
 43
0.00000001
 40
0.0
 40
0.0
 40
0.0
 40
0.0
 40
0.0326417143101299
 40
0.1400450019947607
 40
0.2474481229810143
 40
0.3548513502225174
 40
0.4622547245889765
 40
0.5696577875986272
 40
0.6770616639450074
 40
0.7844649263611607
 40
0.8918681513158696
 40
0.9992713833147067
 40
0.9999999999999999
 40
0.9999999999999999
 40
0.9999999999999999
 40
0.9999999999999999
 10
613.2527762061703
 20
382.2304370349486
 30
0.0
 10
613.2527719375164
 20
382.2199077409409
 30
0.0
 10
613.2527536234153
 20
382.1747331834314
 30
0.0
 10
613.252895443077
 20
382.4405043388323
 30
0.0
 10
613.2526776136879
 20
383.0057412715036
 30
0.0
 10
613.2528725254344
 20
383.8422597321486
 30
0.0
 10
613.252757742801
 20
384.8244610165154
 30
0.0
 10
613.2527984441683
 20
385.8509147639272
 30
0.0
 10
613.2527951248123
 20
386.7999658925047
 30
0.0
 10
613.2527229975913
 20
387.5790325823781
 30
0.0
 10
613.2528807149837
 20
388.0485327129796
 30
0.0
 10
613.2527760872098
 20
388.2489291344423
 30
0.0
 10
613.2527762053741
 20
388.1936618271002
 30
0.0
 10
613.2527762061703
 20
388.193289423569
 30
0.0
  0
SPLINE
  5
A5
330
1F
100
AcDbEntity
  8
0
  6
Continuous
 62
     7
370
    15
100
AcDbSpline
210
0.0
220
0.0
230
1.0
 70
     8
 71
     3
 72
    13
 73
     9
 74
     0
 42
0.00000001
 43
0.00000001
 40
0.0
 40
0.0
 40
0.0
 40
0.0
 40
0.0651603162253182
 40
0.2795618062881725
 40
0.4939629636709674
 40
0.7083643332866657
 40
0.922765996474216
 40
1.0
 40
1.0
 40
1.0
 40
1.0
 10
626.8530883795369
 20
382.2304370349486
 30
0.0
 10
626.8530925346362
 20
382.2199080727723
 30
0.0
 10
626.8531103615454
 20
382.1747349389559
 30
0.0
 10
626.8529787608695
 20
382.4404762321359
 30
0.0
 10
626.8531968907331
 20
383.0058429208729
 30
0.0
 10
626.8529874706387
 20
383.8418812415334
 30
0.0
 10
626.8530880260362
 20
384.6160312498529
 30
0.0
 10
626.8530824149442
 20
385.0732163609418
 30
0.0
 10
626.8530809289563
 20
385.1942928975661
 30
0.0
  0
SPLINE
  5
A6
330
1F
100
AcDbEntity
  8
0
  6
Continuous
 62
     7
370
    15
100
AcDbSpline
210
0.0
220
0.0
230
1.0
 70
     8
 71
     3
 72
    11
 73
     7
 74
     0
 42
0.00000001
 43
0.00000001
 40
0.0
 40
0.0
 40
0.0
 40
0.0
 40
0.1799539943079578
 40
0.5885909003137683
 40
0.9972278330756521
 40
0.9999999999999999
 40
0.9999999999999999
 40
0.9999999999999999
 40
0.9999999999999999
 10
626.8530958301175
 20
387.1945986991961
 30
0.0
 10
626.8531046597114
 20
387.3110246929643
 30
0.0
 10
626.8531335394184
 20
387.6918291355412
 30
0.0
 10
626.8529724402622
 20
388.0390650127826
 30
0.0
 10
626.8530959705683
 20
388.2489399113091
 30
0.0
 10
626.8530958310575
 20
388.193661899231
 30
0.0
 10
626.8530958301175
 20
388.193289423569
 30
0.0
  0
SPLINE
  5
A7
330
1F
100
AcDbEntity
  8
0
  6
Continuous
 62
     7
370
    15
100
AcDbSpline
210
0.0
220
0.0
230
1.0
 70
     8
 71
     3
 72
    19
 73
    15
 74
     0
 42
0.00000001
 43
0.00000001
 40
0.0
 40
0.0
 40
0.0
 40
0.0
 40
0.0390832281892506
 40
0.0780296889031233
 40
0.1388089767184927
 40
0.2381075759102961
 40
0.4910421690211013
 40
0.6249649566681903
 40
0.7616681333288898
 40
0.8316204259453805
 40
0.9020119704446361
 40
0.9480830501551338
 40
0.9875354060717156
 40
1.0
 40
1.0
 40
1.0
 40
1.0
 10
630.1529356247532
 20
293.6888864731629
 30
0.0
 10
630.2706562042597
 20
293.6950831803757
 30
0.0
 10
630.5056854130011
 20
293.7074549101031
 30
0.0
 10
630.8753619175421
 20
293.8132066757552
 30
0.0
 10
631.2883857034816
 20
294.0344199402324
 30
0.0
 10
631.7987151862286
 20
294.6099411794775
 30
0.0
 10
631.919333613365
 20
295.3501681305079
 30
0.0
 10
631.8563047375769
 20
296.1331917651284
 30
0.0
 10
631.6728231085808
 20
296.64047510579
 30
0.0
 10
631.3533250850539
 20
297.0258421896766
 30
0.0
 10
631.0196180649401
 20
297.2563669030536
 30
0.0
 10
630.6336226035643
 20
297.393987019528
 30
0.0
 10
630.3460447297774
 20
297.4383222026892
 30
0.0
 10
630.1903225284668
 20
297.4410153687985
 30
0.0
 10
630.1529356247532
 20
297.4416619634469
 30
0.0
  0
SPLINE
  5
A8
330
1F
100
AcDbEntity
  8
0
  6
Continuous
 62
     7
370
    15
100
AcDbSpline
210
0.0
220
0.0
230
1.0
 70
     8
 71
     3
 72
    19
 73
    15
 74
     0
 42
0.00000001
 43
0.00000001
 40
0.0
 40
0.0
 40
0.0
 40
0.0
 40
0.0390832383026004
 40
0.0780297673005087
 40
0.138808988080986
 40
0.2381075449572626
 40
0.4910420665483883
 40
0.6249649829188457
 40
0.7616682751638376
 40
0.8316203309316518
 40
0.9020118587535031
 40
0.9480830953731127
 40
0.9875353891607576
 40
1.0
 40
1.0
 40
1.0
 40
1.0
 10
630.1529356247532
 20
297.4416619634469
 30
0.0
 10
630.2706562574402
 20
297.4540549972922
 30
0.0
 10
630.5056857476766
 20
297.4787977153754
 30
0.0
 10
630.8753612082909
 20
297.6903080784038
 30
0.0
 10
631.2883861319013
 20
298.1327291599763
 30
0.0
 10
631.7987148873527
 20
299.2837714450539
 30
0.0
 10
631.9193337802371
 20
300.7642252201112
 30
0.0
 10
631.8563045144996
 20
302.3302750482006
 30
0.0
 10
631.672823931071
 20
303.3448396584948
 30
0.0
 10
631.3533247398213
 20
304.1155742942649
 30
0.0
 10
631.0196168874093
 20
304.5766222513711
 30
0.0
 10
630.6336238696488
 20
304.8518656650429
 30
0.0
 10
630.3460442821712
 20
304.9405335427234
 30
0.0
 10
630.1903225089695
 20
304.9459227797248
 30
0.0
 10
630.1529356247532
 20
304.9472166693051
 30
0.0
  0
SPLINE
  5
A9
330
1F
100
AcDbEntity
  8
0
  6
Continuous
 62
     7
370
    15
100
AcDbSpline
210
0.0
220
0.0
230
1.0
 70
     8
 71
     3
 72
    18
 73
    14
 74
     0
 42
0.00000001
 43
0.00000001
 40
0.0
 40
0.0
 40
0.0
 40
0.0
 40
0.0344336689164809
 40
0.0724914448143899
 40
0.1306345655743031
 40
0.2236186076913401
 40
0.4104355368515253
 40
0.5001955036376659
 40
0.7376503653876568
 40
0.8568702024391198
 40
0.9094910117870862
 40
0.9625702750152486
 40
1.0
 40
1.0
 40
1.0
 40
1.0
 10
630.1529356247532
 20
304.9472166693051
 30
0.0
 10
630.2565271304643
 20
304.9520137043261
 30
0.0
 10
630.474613037537
 20
304.9621126571952
 30
0.0
 10
630.8299241161801
 20
305.0544103461419
 30
0.0
 10
631.2379866808002
 20
305.2572505533384
 30
0.0
 10
631.6908521621044
 20
305.7199063413738
 30
0.0
 10
631.8591644604724
 20
306.2752532649671
 30
0.0
 10
631.9110190902471
 20
307.0441289108337
 30
0.0
 10
631.8120200001008
 20
307.7190341541915
 30
0.0
 10
631.3563540708828
 20
308.3033579900949
 30
0.0
 10
630.9135677600402
 20
308.5603457728036
 30
0.0
 10
630.5379869300081
 20
308.6802564941091
 30
0.0
 10
630.2655861595326
 20
308.6942189559998
 30
0.0
 10
630.1529356247532
 20
308.6999930909117
 30
0.0
  0
LINE
  5
AA
330
1F
100
AcDbEntity
  8
0
  6
Continuous
 62
     7
370
    15
100
AcDbLine
 10
632.1529322273
 20
305.962388078
 30
0.0
 11
632.1529322273
 21
306.6999918318
 31
0.0
  0
LINE
  5
AB
330
1F
100
AcDbEntity
  8
0
  6
Continuous
 62
     7
370
    15
100
AcDbLine
 10
632.1529322273
 20
295.6888849383
 30
0.0
 11
632.1529322273
 21
305.962388078
 31
0.0
  0
LINE
  5
AC
330
1F
100
AcDbEntity
  8
0
  6
Continuous
 62
     7
370
    15
100
AcDbLine
 10
627.2529312379
 20
301.1944393164
 30
0.0
 11
627.2529312379
 21
304.9472166693
 31
0.0
  0
LINE
  5
AD
330
1F
100
AcDbEntity
  8
0
  6
Continuous
 62
     7
370
    15
100
AcDbLine
 10
630.1529356248
 20
304.9472166693
 30
0.0
 11
627.2529312379
 21
304.9472166693
 31
0.0
  0
LINE
  5
AE
330
1F
100
AcDbEntity
  8
0
  6
Continuous
 62
     7
370
    15
100
AcDbLine
 10
630.1529356248
 20
297.4416619634
 30
0.0
 11
627.2529312379
 21
297.4416619634
 31
0.0
  0
LINE
  5
AF
330
1F
100
AcDbEntity
  8
0
  6
Continuous
 62
     7
370
    15
100
AcDbLine
 10
627.2529312379
 20
297.4416619634
 30
0.0
 11
627.2529312379
 21
301.1944393164
 31
0.0
  0
LINE
  5
B0
330
1F
100
AcDbEntity
  8
0
  6
Continuous
 62
     7
370
    15
100
AcDbLine
 10
630.1529356248
 20
293.6888864732
 30
0.0
 11
627.2529312379
 21
293.6888864732
 31
0.0
  0
LINE
  5
B1
330
1F
100
AcDbEntity
  8
0
  6
Continuous
 62
     7
370
    15
100
AcDbLine
 10
627.2529312379
 20
293.6888864732
 30
0.0
 11
627.2529312379
 21
295.5652742183
 31
0.0
  0
LINE
  5
B2
330
1F
100
AcDbEntity
  8
0
  6
Continuous
 62
     7
370
    15
100
AcDbLine
 10
627.2529312379
 20
295.5652742183
 30
0.0
 11
627.2529312379
 21
297.4416619634
 31
0.0
  0
LINE
  5
B3
330
1F
100
AcDbEntity
  8
0
  6
Continuous
 62
     7
370
    15
100
AcDbLine
 10
627.2529312379
 20
306.8236044144
 30
0.0
 11
627.2529312379
 21
308.6999930909
 31
0.0
  0
LINE
  5
B4
330
1F
100
AcDbEntity
  8
0
  6
Continuous
 62
     7
370
    15
100
AcDbLine
 10
630.1529356248
 20
308.6999930909
 30
0.0
 11
627.2529312379
 21
308.6999930909
 31
0.0
  0
LINE
  5
B5
330
1F
100
AcDbEntity
  8
0
  6
Continuous
 62
     7
370
    15
100
AcDbLine
 10
627.2529312379
 20
304.9472166693
 30
0.0
 11
627.2529312379
 21
306.8236044144
 31
0.0
  0
SPLINE
  5
B6
330
1F
100
AcDbEntity
  8
0
  6
Continuous
 62
     7
370
    15
100
AcDbSpline
210
0.0
220
0.0
230
1.0
 70
     8
 71
     3
 72
    19
 73
    15
 74
     0
 42
0.00000001
 43
0.00000001
 40
0.0
 40
0.0
 40
0.0
 40
0.0
 40
0.0390832383026004
 40
0.0780297673005087
 40
0.138808988080986
 40
0.2381075449572626
 40
0.4910420665483883
 40
0.6249649829188457
 40
0.7616682751638376
 40
0.8316203309316518
 40
0.9020118587535031
 40
0.9480830953731127
 40
0.9875353891607576
 40
1.0
 40
1.0
 40
1.0
 40
1.0
 10
630.1529356247532
 20
341.4416617250283
 30
0.0
 10
630.2706562574402
 20
341.4540547588737
 30
0.0
 10
630.5056857476766
 20
341.4787974769568
 30
0.0
 10
630.8753612082909
 20
341.6903078399852
 30
0.0
 10
631.2883861319013
 20
342.1327289215578
 30
0.0
 10
631.7987148873527
 20
343.2837712066353
 30
0.0
 10
631.9193337802371
 20
344.7642249816926
 30
0.0
 10
631.8563045144996
 20
346.3302748097821
 30
0.0
 10
631.672823931071
 20
347.3448394200763
 30
0.0
 10
631.3533247398213
 20
348.1155740558464
 30
0.0
 10
631.0196168874093
 20
348.5766220129525
 30
0.0
 10
630.6336238696488
 20
348.8518654266243
 30
0.0
 10
630.3460442821712
 20
348.9405333043048
 30
0.0
 10
630.1903225089695
 20
348.9459225413062
 30
0.0
 10
630.1529356247532
 20
348.9472164308866
 30
0.0
  0
SPLINE
  5
B7
330
1F
100
AcDbEntity
  8
0
  6
Continuous
 62
     7
370
    15
100
AcDbSpline
210
0.0
220
0.0
230
1.0
 70
     8
 71
     3
 72
    18
 73
    14
 74
     0
 42
0.00000001
 43
0.00000001
 40
0.0
 40
0.0
 40
0.0
 40
0.0
 40
0.0344336820135696
 40
0.0724914376297771
 40
0.130634495345536
 40
0.2236185753877317
 40
0.410435602881658
 40
0.5001955542131911
 40
0.7376503226618256
 40
0.856870286982824
 40
0.9094909896064634
 40
0.962570277977967
 40
1.0
 40
1.0
 40
1.0
 40
1.0
 10
630.1529356247532
 20
348.9472164308866
 30
0.0
 10
630.2565271119697
 20
348.9520134622383
 30
0.0
 10
630.4746128755418
 20
348.9621124025405
 30
0.0
 10
630.8299240190765
 20
349.0544100452322
 30
0.0
 10
631.2379870881833
 20
349.2572506345231
 30
0.0
 10
631.6908520026492
 20
349.7199054987764
 30
0.0
 10
631.8591644034298
 20
350.2752562822465
 30
0.0
 10
631.9110192058818
 20
351.044126725101
 30
0.0
 10
631.8120189268616
 20
351.7190336629419
 30
0.0
 10
631.3563551353998
 20
352.3033592677162
 30
0.0
 10
630.9135671561985
 20
352.5603449339191
 30
0.0
 10
630.5379870987247
 20
352.6802581408876
 30
0.0
 10
630.2655861830542
 20
352.6942186115833
 30
0.0
 10
630.1529356247532
 20
352.6999919211705
 30
0.0
  0
SPLINE
  5
B8
330
1F
100
AcDbEntity
  8
0
  6
Continuous
 62
     7
370
    15
100
AcDbSpline
210
0.0
220
0.0
230
1.0
 70
     8
 71
     3
 72
    19
 73
    15
 74
     0
 42
0.00000001
 43
0.00000001
 40
0.0
 40
0.0
 40
0.0
 40
0.0
 40
0.0390832438517477
 40
0.0780297535336295
 40
0.1388089401177278
 40
0.2381075737637892
 40
0.4910421303766088
 40
0.6249649185773509
 40
0.7616681836146089
 40
0.8316203942290826
 40
0.9020119390193454
 40
0.9480830698622514
 40
0.9875354010027046
 40
1.0
 40
1.0
 40
1.0
 40
1.0
 10
630.1529356247532
 20
337.6888853034218
 30
0.0
 10
630.2706562410585
 20
337.6950818161293
 30
0.0
 10
630.5056856237518
 20
337.7074531628161
 30
0.0
 10
630.8753612098618
 20
337.8132083408026
 30
0.0
 10
631.2883864736067
 20
338.0344191690365
 30
0.0
 10
631.7987144650132
 20
338.6099394532904
 30
0.0
 10
631.9193338150781
 20
339.3501681102423
 30
0.0
 10
631.8563045644765
 20
340.133191824186
 30
0.0
 10
631.6728234715653
 20
340.6404743213739
 30
0.0
 10
631.353324939346
 20
341.0258421623892
 30
0.0
 10
631.0196176950134
 20
341.2563667799776
 30
0.0
 10
630.6336230435351
 20
341.3939866830013
 30
0.0
 10
630.3460445720483
 20
341.4383219745659
 30
0.0
 10
630.1903225216345
 20
341.4410151319632
 30
0.0
 10
630.1529356247532
 20
341.4416617250283
 30
0.0
  0
LINE
  5
B9
330
1F
100
AcDbEntity
  8
0
  6
Continuous
 62
     7
370
    15
100
AcDbLine
 10
632.1529322273
 20
339.6888865626
 30
0.0
 11
632.1529322273
 21
350.699993456
 31
0.0
  0
LINE
  5
BA
330
1F
100
AcDbEntity
  8
0
  6
Continuous
 62
     7
370
    15
100
AcDbLine
 10
627.2529312379
 20
345.194439078
 30
0.0
 11
627.2529312379
 21
348.9472164309
 31
0.0
  0
LINE
  5
BB
330
1F
100
AcDbEntity
  8
0
  6
Continuous
 62
     7
370
    15
100
AcDbLine
 10
630.1529356248
 20
348.9472164309
 30
0.0
 11
627.2529312379
 21
348.9472164309
 31
0.0
  0
LINE
  5
BC
330
1F
100
AcDbEntity
  8
0
  6
Continuous
 62
     7
370
    15
100
AcDbLine
 10
630.1529356248
 20
341.441661725
 30
0.0
 11
627.2529312379
 21
341.441661725
 31
0.0
  0
LINE
  5
BD
330
1F
100
AcDbEntity
  8
0
  6
Continuous
 62
     7
370
    15
100
AcDbLine
 10
627.2529312379
 20
341.441661725
 30
0.0
 11
627.2529312379
 21
345.194439078
 31
0.0
  0
LINE
  5
BE
330
1F
100
AcDbEntity
  8
0
  6
Continuous
 62
     7
370
    15
100
AcDbLine
 10
630.1529356248
 20
337.6888853034
 30
0.0
 11
627.2529312379
 21
337.6888853034
 31
0.0
  0
LINE
  5
BF
330
1F
100
AcDbEntity
  8
0
  6
Continuous
 62
     7
370
    15
100
AcDbLine
 10
627.2529312379
 20
337.6888853034
 30
0.0
 11
627.2529312379
 21
339.5652739799
 31
0.0
  0
LINE
  5
C0
330
1F
100
AcDbEntity
  8
0
  6
Continuous
 62
     7
370
    15
100
AcDbLine
 10
627.2529312379
 20
339.5652739799
 30
0.0
 11
627.2529312379
 21
341.441661725
 31
0.0
  0
LINE
  5
C1
330
1F
100
AcDbEntity
  8
0
  6
Continuous
 62
     7
370
    15
100
AcDbLine
 10
627.2529312379
 20
350.823604176
 30
0.0
 11
627.2529312379
 21
352.6999919212
 31
0.0
  0
LINE
  5
C2
330
1F
100
AcDbEntity
  8
0
  6
Continuous
 62
     7
370
    15
100
AcDbLine
 10
630.1529356248
 20
352.6999919212
 30
0.0
 11
627.2529312379
 21
352.6999919212
 31
0.0
  0
LINE
  5
C3
330
1F
100
AcDbEntity
  8
0
  6
Continuous
 62
     7
370
    15
100
AcDbLine
 10
627.2529312379
 20
348.9472164309
 30
0.0
 11
627.2529312379
 21
350.823604176
 31
0.0
  0
LINE
  5
C4
330
1F
100
AcDbEntity
  8
0
  6
Continuous
 62
     7
370
    15
100
AcDbLine
 10
670.8529391295
 20
393.5289556628
 30
0.0
 11
670.8529391295
 21
387.7938637978
 31
0.0
  0
SPLINE
  5
C5
330
1F
100
AcDbEntity
  8
0
  6
Continuous
 62
     7
370
    15
100
AcDbSpline
210
0.0
220
0.0
230
1.0
 70
     8
 71
     3
 72
    12
 73
     8
 74
     0
 42
0.00000001
 43
0.00000001
 40
0.0
 40
0.0
 40
0.0
 40
0.0
 40
0.1136356149160963
 40
0.3008435139845502
 40
0.4919221750331683
 40
0.6964448174274551
 40
0.9999999999999999
 40
0.9999999999999999
 40
0.9999999999999999
 40
0.9999999999999999
 10
674.7724660641301
 20
391.742552304848
 30
0.0
 10
674.4957116354126
 20
391.7559532693467
 30
0.0
 10
673.7630207892581
 20
391.7914315237085
 30
0.0
 10
672.6920286438083
 20
391.930567440639
 30
0.0
 10
671.7249293515982
 20
392.2103795260886
 30
0.0
 10
670.9832929471788
 20
392.6931154456757
 30
0.0
 10
670.9016921700494
 20
393.2163468515045
 30
0.0
 10
670.8529391295064
 20
393.5289556628306
 30
0.0
  0
SPLINE
  5
C6
330
1F
100
AcDbEntity
  8
0
  6
Continuous
 62
     7
370
    15
100
AcDbSpline
210
0.0
220
0.0
230
1.0
 70
     8
 71
     3
 72
    12
 73
     8
 74
     0
 42
0.00000001
 43
0.00000001
 40
0.0
 40
0.0
 40
0.0
 40
0.0
 40
0.2917315934193974
 40
0.5225560192853045
 40
0.761146229291173
 40
0.9714510641611681
 40
1.0
 40
1.0
 40
1.0
 40
1.0
 10
670.8529391295064
 20
387.7938637977679
 30
0.0
 10
670.8981153085953
 20
388.3553441953829
 30
0.0
 10
670.9790358699732
 20
389.3610801804552
 30
0.0
 10
671.7870168677354
 20
390.5677306689138
 30
0.0
 10
672.9984985574879
 20
391.3607757588109
 30
0.0
 10
674.1174460343287
 20
391.6626903522594
 30
0.0
 10
674.7025336201194
 20
391.7340259372961
 30
0.0
 10
674.7724660641301
 20
391.742552304848
 30
0.0
  0
SPLINE
  5
C7
330
1F
100
AcDbEntity
  8
0
  6
Continuous
 62
     7
370
    15
100
AcDbSpline
210
0.0
220
0.0
230
1.0
 70
     8
 71
     3
 72
    11
 73
     7
 74
     0
 42
0.00000001
 43
0.00000001
 40
0.0
 40
0.0
 40
0.0
 40
0.0
 40
0.3340936934125171
 40
0.6236909971417606
 40
0.9185144974536761
 40
1.0
 40
1.0
 40
1.0
 40
1.0
 10
679.9913593536961
 20
392.6816160327037
 30
0.0
 10
679.7787040962531
 20
392.5036979902007
 30
0.0
 10
679.3817161489283
 20
392.1715579841899
 30
0.0
 10
678.2204335943078
 20
391.8897178672179
 30
0.0
 10
677.1483635534796
 20
391.7761967890507
 30
0.0
 10
676.496998640698
 20
391.7485408819734
 30
0.0
 10
676.3559528595555
 20
391.742552304848
 30
0.0
  0
SPLINE
  5
C8
330
1F
100
AcDbEntity
  8
0
  6
Continuous
 62
     7
370
    15
100
AcDbSpline
210
0.0
220
0.0
230
1.0
 70
     8
 71
     3
 72
    11
 73
     7
 74
     0
 42
0.00000001
 43
0.00000001
 40
0.0
 40
0.0
 40
0.0
 40
0.0
 40
0.0091481133249742
 40
0.499999950328112
 40
0.9908611324711963
 40
0.9999999999999999
 40
0.9999999999999999
 40
0.9999999999999999
 40
0.9999999999999999
 10
676.3559528595555
 20
391.742552304848
 30
0.0
 10
676.3511750226965
 20
391.7427316775417
 30
0.0
 10
676.0900372222233
 20
391.752535484593
 30
0.0
 10
675.5642081864513
 20
391.7620403898295
 30
0.0
 10
675.0383691842642
 20
391.7525454347475
 30
0.0
 10
674.7772389332004
 20
391.7427316780746
 30
0.0
 10
674.7724660641301
 20
391.742552304848
 30
0.0
  0
ARC
  5
C9
330
1F
100
AcDbEntity
  8
0
  6
Continuous
 62
     7
370
    15
100
AcDbCircle
 10
671.5640686385
 20
393.4696908724
 30
0.0
 40
0.7135947687628499
100
AcDbArc
 50
85.9203930011
 51
175.236038409
  0
SPLINE
  5
CA
330
1F
100
AcDbEntity
  8
0
  6
Continuous
 62
     7
370
    15
100
AcDbSpline
210
0.0
220
0.0
230
1.0
 70
     8
 71
     3
 72
    16
 73
    12
 74
     0
 42
0.00000001
 43
0.00000001
 40
0.0
 40
0.0
 40
0.0
 40
0.0
 40
0.1632159154733609
 40
0.2700785493221903
 40
0.368807801826261
 40
0.465414547548418
 40
0.562667294596742
 40
0.6630040278015648
 40
0.7707095454270602
 40
0.8765167844448076
 40
1.0
 40
1.0
 40
1.0
 40
1.0
 10
671.6148355013478
 20
394.1814775115092
 30
0.0
 10
671.6534843011917
 20
393.8571466807932
 30
0.0
 10
671.717437695471
 20
393.3204661738327
 30
0.0
 10
672.3413754237541
 20
392.8069223880822
 30
0.0
 10
673.1556154861939
 20
392.5111284695722
 30
0.0
 10
674.1929025490505
 20
392.346068518889
 30
0.0
 10
675.3776277678186
 20
392.2836606553331
 30
0.0
 10
676.6308759497149
 20
392.3170190983359
 30
0.0
 10
677.7908216082266
 20
392.4678373433307
 30
0.0
 10
678.7695514632328
 20
392.7677448989783
 30
0.0
 10
679.0983373071463
 20
393.1119772321552
 30
0.0
 10
679.2754032618153
 20
393.2973618155559
 30
0.0
  0
ARC
  5
CB
330
1F
100
AcDbEntity
  8
0
  6
Continuous
 62
     7
370
    15
100
AcDbCircle
 10
679.1821802742
 20
392.4648566203
 30
0.0
 40
0.8377084370755803
100
AcDbArc
 50
14.9960711963
 51
83.6107005825
  0
ARC
  5
CC
330
1F
100
AcDbEntity
  8
0
  6
Continuous
 62
     7
370
    15
100
AcDbCircle
 10
679.1375316551
 20
389.838466849
 30
0.0
 40
0.9485261555836909
100
AcDbArc
 50
278.357750742
 51
334.1794385635
  0
SPLINE
  5
CD
330
1F
100
AcDbEntity
  8
0
  6
Continuous
 62
     7
370
    15
100
AcDbSpline
210
0.0
220
0.0
230
1.0
 70
     8
 71
     3
 72
    16
 73
    12
 74
     0
 42
0.00000001
 43
0.00000001
 40
0.0
 40
0.0
 40
0.0
 40
0.0
 40
0.0982185714655157
 40
0.1976625915347339
 40
0.2943631618536578
 40
0.3914074484406858
 40
0.4911093936911598
 40
0.5996273442535002
 40
0.7226906849463891
 40
0.8431783171114615
 40
1.0
 40
1.0
 40
1.0
 40
1.0
 10
679.2754032618153
 20
388.9000142460902
 30
0.0
 10
679.1414964205136
 20
389.1850997707846
 30
0.0
 10
678.8720120156704
 20
389.7588277611161
 30
0.0
 10
678.1039994372743
 20
390.4182687398773
 30
0.0
 10
677.0996210681315
 20
390.8619733778072
 30
0.0
 10
675.9299455081942
 20
391.0622728512708
 30
0.0
 10
674.6736294358042
 20
391.0107324249123
 30
0.0
 10
673.4145605585576
 20
390.6564504108396
 30
0.0
 10
672.3915357100766
 20
389.9400682379323
 30
0.0
 10
671.7141842866174
 20
388.8258501307354
 30
0.0
 10
671.6507233871997
 20
387.9001344192068
 30
0.0
 10
671.6148355013478
 20
387.3766312843402
 30
0.0
  0
LWPOLYLINE
  5
CE
330
1F
100
AcDbEntity
  8
0
  6
Continuous
 62
     7
370
    15
100
AcDbPolyline
 90
        9
 70
   128
 43
0.0
 10
671.6148355013
 20
387.3766312843
 10
671.4661964184
 20
387.3846481091
 10
671.3232644803
 20
387.4083931094
 10
671.1915531165
 20
387.446949864
 10
671.0760840184
 20
387.4988357073
 10
670.9813424355
 20
387.5620613342
 10
670.9109344489
 20
387.6341978556
 10
670.8675720698
 20
387.7124662047
 10
670.8529391295
 20
387.7938637978
  0
SPLINE
  5
CF
330
1F
100
AcDbEntity
  8
0
  6
Continuous
 62
     7
370
    15
100
AcDbSpline
210
0.0
220
0.0
230
1.0
 70
     8
 71
     3
 72
    11
 73
     7
 74
     0
 42
0.00000001
 43
0.00000001
 40
0.0
 40
0.0
 40
0.0
 40
0.0
 40
0.1990395767931109
 40
0.4636331989219459
 40
0.7350852594683046
 40
1.0
 40
1.0
 40
1.0
 40
1.0
 10
676.3559528595555
 20
391.742552304848
 30
0.0
 10
676.6990079024911
 20
391.6885084940219
 30
0.0
 10
677.4981037884708
 20
391.5626214453308
 30
0.0
 10
678.5918638104
 20
391.0931837958669
 30
0.0
 10
679.5055940082082
 20
390.368791765357
 30
0.0
 10
679.8307586237695
 20
389.7372530466782
 30
0.0
 10
679.9913593536961
 20
389.4253323322375
 30
0.0
  0
LINE
  5
D0
330
1F
100
AcDbEntity
  8
0
  6
Continuous
 62
     7
370
    15
100
AcDbLine
 10
679.9913593537
 20
392.6816160327
 30
0.0
 11
679.9913593537
 21
389.4253323322
 31
0.0
  0
SPLINE
  5
D1
330
1F
100
AcDbEntity
  8
0
  6
Continuous
 62
     7
370
    15
100
AcDbSpline
210
0.0
220
0.0
230
1.0
 70
     8
 71
     3
 72
    14
 73
    10
 74
     0
 42
0.00000001
 43
0.00000001
 40
0.0
 40
0.0
 40
0.0
 40
0.0
 40
0.0621969344585248
 40
0.2157646114917305
 40
0.3692821008822938
 40
0.526993242363154
 40
0.6847106102863741
 40
0.8423239159814846
 40
1.0
 40
1.0
 40
1.0
 40
1.0
 10
679.2754032618153
 20
374.216238642319
 30
0.0
 10
679.3619974299303
 20
374.5245118739488
 30
0.0
 10
679.6623973966399
 20
375.5939287935277
 30
0.0
 10
680.0550836331705
 20
377.5002488575237
 30
0.0
 10
680.354800928829
 20
379.9422412824172
 30
0.0
 10
680.4280010585894
 20
382.3894787796038
 30
0.0
 10
680.272867658081
 20
384.7582690362971
 30
0.0
 10
679.9015712278913
 20
386.9748632340064
 30
0.0
 10
679.4841536216452
 20
388.2582120647717
 30
0.0
 10
679.2754032618153
 20
388.9000142460902
 30
0.0
  0
SPLINE
  5
D2
330
1F
100
AcDbEntity
  8
0
  6
Continuous
 62
     7
370
    15
100
AcDbSpline
210
0.0
220
0.0
230
1.0
 70
     8
 71
     3
 72
    16
 73
    12
 74
     0
 42
0.00000001
 43
0.00000001
 40
0.0
 40
0.0
 40
0.0
 40
0.0
 40
0.1632156580106732
 40
0.2700784372674637
 40
0.3688076631508141
 40
0.4654144856157052
 40
0.562667256821172
 40
0.6630040108149119
 40
0.7707095514426711
 40
0.8765168084130668
 40
1.0
 40
1.0
 40
1.0
 40
1.0
 10
671.6148355013478
 20
376.0771664327224
 30
0.0
 10
671.6534846564781
 20
375.4192928318209
 30
0.0
 10
671.7174387130099
 20
374.3306872640917
 30
0.0
 10
672.3413746322087
 20
373.0007090647891
 30
0.0
 10
673.1556161938688
 20
372.1201708620917
 30
0.0
 10
674.1929021031921
 20
371.552529281578
 30
0.0
 10
675.3776278021892
 20
371.3179553920222
 30
0.0
 10
676.6308759400401
 20
371.4465821244837
 30
0.0
 10
677.7908215920223
 20
371.9763661650879
 30
0.0
 10
678.7695513006566
 20
372.9127532905509
 30
0.0
 10
679.0983372695579
 20
373.7599728868694
 30
0.0
 10
679.2754032618153
 20
374.216238642319
 30
0.0
  0
LINE
  5
D3
330
1F
100
AcDbEntity
  8
0
  6
Continuous
 62
     7
370
    15
100
AcDbLine
 10
671.6148355013
 20
387.3766312843
 30
0.0
 11
671.6148355013
 21
376.0771664327
 31
0.0
  0
SPLINE
  5
D4
330
1F
100
AcDbEntity
  8
0
  6
Continuous
 62
     7
370
    15
100
AcDbSpline
210
0.0
220
0.0
230
1.0
 70
     8
 71
     3
 72
    14
 73
    10
 74
     0
 42
0.00000001
 43
0.00000001
 40
0.0
 40
0.0
 40
0.0
 40
0.0
 40
0.0621969532021963
 40
0.2157645551301671
 40
0.3692823191559593
 40
0.5269934810698765
 40
0.6847108232325276
 40
0.8423237630791635
 40
1.0
 40
1.0
 40
1.0
 40
1.0
 10
679.2754032618153
 20
393.2973618155559
 30
0.0
 10
679.361997418177
 20
393.4338335057799
 30
0.0
 10
679.6623971751156
 20
393.9072610936769
 30
0.0
 10
680.0550842501943
 20
394.9293444815532
 30
0.0
 10
680.3548006502741
 20
396.4983647684068
 30
0.0
 10
680.4280010300832
 20
398.3659193831717
 30
0.0
 10
680.2728681520954
 20
400.4669153615677
 30
0.0
 10
679.9015702139342
 20
402.7266460422882
 30
0.0
 10
679.4841535125458
 20
404.2906660742656
 30
0.0
 10
679.2754032618153
 20
405.0728330856402
 30
0.0
  0
LINE
  5
D5
330
1F
100
AcDbEntity
  8
0
  6
Continuous
 62
     7
370
    15
100
AcDbLine
 10
671.6148355013
 20
403.2429406887
 30
0.0
 11
671.6148355013
 21
394.1814775115
 31
0.0
  0
SPLINE
  5
D6
330
1F
100
AcDbEntity
  8
0
  6
Continuous
 62
     7
370
    15
100
AcDbSpline
210
0.0
220
0.0
230
1.0
 70
     8
 71
     3
 72
    16
 73
    12
 74
     0
 42
0.00000001
 43
0.00000001
 40
0.0
 40
0.0
 40
0.0
 40
0.0
 40
0.0982187136179632
 40
0.197662590091276
 40
0.2943631525031459
 40
0.3914074674550609
 40
0.4911094029940145
 40
0.5996272139229394
 40
0.7226904359517973
 40
0.8431780367456583
 40
1.0
 40
1.0
 40
1.0
 40
1.0
 10
679.2754032618153
 20
405.0728330856402
 30
0.0
 10
679.1414966560146
 20
405.4437351529788
 30
0.0
 10
678.8720131171052
 20
406.1901658544184
 30
0.0
 10
678.1039986526289
 20
407.131951147645
 30
0.0
 10
677.0996209036553
 20
407.7977489161279
 30
0.0
 10
675.9299457010902
 20
408.1105606656571
 30
0.0
 10
674.6736303231336
 20
408.0294938141982
 30
0.0
 10
673.4145602156195
 20
407.4824323461538
 30
0.0
 10
672.3915354171932
 20
406.4412349545982
 30
0.0
 10
671.7141838007718
 20
404.9434261701279
 30
0.0
 10
671.6507232320972
 20
403.8572095333142
 30
0.0
 10
671.6148355013478
 20
403.2429406887134
 30
0.0
  0
SPLINE
  5
D7
330
1F
100
AcDbEntity
  8
0
  6
Continuous
 62
     7
370
    15
100
AcDbSpline
210
0.0
220
0.0
230
1.0
 70
     8
 71
     3
 72
    14
 73
    10
 74
     0
 42
0.00000001
 43
0.00000001
 40
0.0
 40
0.0
 40
0.0
 40
0.0
 40
0.1575838729478261
 40
0.3151114770653424
 40
0.472986390394961
 40
0.6308558517556957
 40
0.784361732766761
 40
0.9379122330564561
 40
1.0
 40
1.0
 40
1.0
 40
1.0
 10
679.9913593536961
 20
389.4253323322375
 30
0.0
 10
680.2028065122005
 20
388.7454112073556
 30
0.0
 10
680.6256253272934
 20
387.385811738567
 30
0.0
 10
681.0009249106711
 20
385.0404813063174
 30
0.0
 10
681.1578911632328
 20
382.5349937489209
 30
0.0
 10
681.083770436897
 20
379.9464486252469
 30
0.0
 10
680.7807707862538
 20
377.3628025085246
 30
0.0
 10
680.3834017495184
 20
375.3449379651694
 30
0.0
 10
680.0790034126189
 20
374.2116845110108
 30
0.0
 10
679.9913593536961
 20
373.8853918856223
 30
0.0
  0
ARC
  5
D8
330
1F
100
AcDbEntity
  8
0
  6
Continuous
 62
     7
370
    15
100
AcDbCircle
 10
678.9793513068
 20
372.635487007
 30
0.0
 40
1.608235832445637
100
AcDbArc
 50
51.0040136921
 51
79.3922144206
  0
SPLINE
  5
D9
330
1F
100
AcDbEntity
  8
0
  6
Continuous
 62
     7
370
    15
100
AcDbSpline
210
0.0
220
0.0
230
1.0
 70
     8
 71
     3
 72
    14
 73
    10
 74
     0
 42
0.00000001
 43
0.00000001
 40
0.0
 40
0.0
 40
0.0
 40
0.0
 40
0.1575839707205444
 40
0.3151114256560936
 40
0.4729863368774326
 40
0.630855849297625
 40
0.7843616147782884
 40
0.9379121894722523
 40
0.9999999999999999
 40
0.9999999999999999
 40
0.9999999999999999
 40
0.9999999999999999
 10
679.9913593536961
 20
371.274056518658
 30
0.0
 10
680.2028064582739
 20
371.2547872332489
 30
0.0
 10
680.6256248342145
 20
371.2162555731512
 30
0.0
 10
681.0009251546303
 20
370.682124373747
 30
0.0
 10
681.15789108272
 20
369.7801680250061
 30
0.0
 10
681.0837706198403
 20
368.5275803130142
 30
0.0
 10
680.7807704858964
 20
366.9661619149991
 30
0.0
 10
680.3834017020523
 20
365.5319976347423
 30
0.0
 10
680.0790034125431
 20
364.6205567461828
 30
0.0
 10
679.9913593536961
 20
364.3581295853694
 30
0.0
  0
LINE
  5
DA
330
1F
100
AcDbEntity
  8
0
  6
Continuous
 62
     7
370
    15
100
AcDbLine
 10
679.9913593537
 20
373.8853918856
 30
0.0
 11
679.9913593537
 21
371.2740565187
 31
0.0
  0
SPLINE
  5
DB
330
1F
100
AcDbEntity
  8
0
  6
Continuous
 62
     7
370
    15
100
AcDbSpline
210
0.0
220
0.0
230
1.0
 70
     8
 71
     3
 72
    14
 73
    10
 74
     0
 42
0.00000001
 43
0.00000001
 40
0.0
 40
0.0
 40
0.0
 40
0.0
 40
0.1575837626739429
 40
0.3151114913564611
 40
0.4729863663336266
 40
0.630855829780329
 40
0.7843617205427525
 40
0.9379123559027851
 40
1.0
 40
1.0
 40
1.0
 40
1.0
 10
679.9913593536961
 20
405.1436806565364
 30
0.0
 10
680.2028065622717
 20
404.3151031991196
 30
0.0
 10
680.6256257925454
 20
402.6582429117357
 30
0.0
 10
681.0009246749203
 20
400.2677911372156
 30
0.0
 10
681.1578911978673
 20
398.0454567899684
 30
0.0
 10
681.0837705033591
 20
396.070184143466
 30
0.0
 10
680.7807703871198
 20
394.4098423625442
 30
0.0
 10
680.3834025059268
 20
393.3277681564351
 30
0.0
 10
680.0790034432177
 20
392.8260680254361
 30
0.0
 10
679.9913593536961
 20
392.6816160327037
 30
0.0
  0
LINE
  5
DC
330
1F
100
AcDbEntity
  8
0
  6
Continuous
 62
     7
370
    15
100
AcDbLine
 10
679.9913593537
 20
406.5928632861
 30
0.0
 11
679.9913593537
 21
405.1436806565
 31
0.0
  0
ARC
  5
DD
330
1F
100
AcDbEntity
  8
0
  6
Continuous
 62
     7
370
    15
100
AcDbCircle
 10
679.7681329705
 20
403.7465125998
 30
0.0
 40
1.41488819240861
100
AcDbArc
 50
80.9225389306
 51
110.380094093
  0
LINE
  5
DE
330
1F
100
AcDbEntity
  8
0
  6
Continuous
 62
     7
370
    15
100
AcDbLine
 10
670.8529391295
 20
375.9778539187
 30
0.0
 11
670.8529391295
 21
387.7938637978
 31
0.0
  0
ARC
  5
DF
330
1F
100
AcDbEntity
  8
0
  6
Continuous
 62
     7
370
    15
100
AcDbCircle
 10
671.4275869608
 20
374.5415035186
 30
0.0
 40
1.547036716393559
100
AcDbArc
 50
83.0480507549
 51
111.8051119671
  0
SPLINE
  5
E0
330
1F
100
AcDbEntity
  8
0
  6
Continuous
 62
     7
370
    15
100
AcDbSpline
210
0.0
220
0.0
230
1.0
 70
     8
 71
     3
 72
    11
 73
     7
 74
     0
 42
0.00000001
 43
0.00000001
 40
0.0
 40
0.0
 40
0.0
 40
0.0
 40
0.3340937095961562
 40
0.6236909551962513
 40
0.9185145920042721
 40
1.0
 40
1.0
 40
1.0
 40
1.0
 10
679.9913593536961
 20
373.8853918856223
 30
0.0
 10
679.7787041847752
 20
373.3605274382817
 30
0.0
 10
679.3817164486336
 20
372.3807029186699
 30
0.0
 10
678.220432777824
 20
371.2979723432695
 30
0.0
 10
677.1483645378576
 20
370.8029155109129
 30
0.0
 10
676.4969986684599
 20
370.6763728047967
 30
0.0
 10
676.3559528595555
 20
370.6489714330276
 30
0.0
  0
SPLINE
  5
E1
330
1F
100
AcDbEntity
  8
0
  6
Continuous
 62
     7
370
    15
100
AcDbSpline
210
0.0
220
0.0
230
1.0
 70
     8
 71
     3
 72
    11
 73
     7
 74
     0
 42
0.00000001
 43
0.00000001
 40
0.0
 40
0.0
 40
0.0
 40
0.0
 40
0.0091481239974938
 40
0.4999999503225968
 40
0.9908611217907852
 40
0.9999999999999999
 40
0.9999999999999999
 40
0.9999999999999999
 40
0.9999999999999999
 10
676.3559528595555
 20
370.6489714330276
 30
0.0
 10
676.3511750227495
 20
370.6484669304958
 30
0.0
 10
676.0900375298296
 20
370.6208928354234
 30
0.0
 10
675.5642081866987
 20
370.5944573800675
 30
0.0
 10
675.0383688761336
 20
370.6208648516645
 30
0.0
 10
674.7772389331474
 20
370.648466929031
 30
0.0
 10
674.7724660641301
 20
370.6489714330276
 30
0.0
  0
SPLINE
  5
E2
330
1F
100
AcDbEntity
  8
0
  6
Continuous
 62
     7
370
    15
100
AcDbSpline
210
0.0
220
0.0
230
1.0
 70
     8
 71
     3
 72
    12
 73
     8
 74
     0
 42
0.00000001
 43
0.00000001
 40
0.0
 40
0.0
 40
0.0
 40
0.0
 40
0.1136356199733175
 40
0.300843619735246
 40
0.4919219116585641
 40
0.6964444010058679
 40
1.0
 40
1.0
 40
1.0
 40
1.0
 10
674.7724660641301
 20
370.6489714330276
 30
0.0
 10
674.4957115840172
 20
370.7100410941001
 30
0.0
 10
673.7630203768528
 20
370.8717194296199
 30
0.0
 10
672.6920304360659
 20
371.4667614970444
 30
0.0
 10
671.7249284778924
 20
372.483420046293
 30
0.0
 10
670.9832925274532
 20
373.9959219622602
 30
0.0
 10
670.9016920391158
 20
375.2366001343725
 30
0.0
 10
670.8529391295064
 20
375.9778539186557
 30
0.0
  0
SPLINE
  5
E3
330
1F
100
AcDbEntity
  8
0
  6
Continuous
 62
     7
370
    15
100
AcDbSpline
210
0.0
220
0.0
230
1.0
 70
     8
 71
     3
 72
    12
 73
     8
 74
     0
 42
0.00000001
 43
0.00000001
 40
0.0
 40
0.0
 40
0.0
 40
0.0
 40
0.291731622068609
 40
0.5225561438647313
 40
0.7611462844464133
 40
0.9714509781262469
 40
1.0
 40
1.0
 40
1.0
 40
1.0
 10
670.8529391295064
 20
371.3786663955291
 30
0.0
 10
670.8981153360021
 20
371.3588463827831
 30
0.0
 10
670.9790359578167
 20
371.3233443369011
 30
0.0
 10
671.7870167187909
 20
371.062126111095
 30
0.0
 10
672.9984973835795
 20
370.8067942847186
 30
0.0
 10
674.1174480890172
 20
370.6822851590175
 30
0.0
 10
674.7025336368142
 20
370.652528144156
 30
0.0
 10
674.7724660641301
 20
370.6489714330276
 30
0.0
  0
LINE
  5
E4
330
1F
100
AcDbEntity
  8
0
  6
Continuous
 62
     7
370
    15
100
AcDbLine
 10
670.8529391295
 20
375.9778539187
 30
0.0
 11
670.8529391295
 21
371.3786663955
 31
0.0
  0
ARC
  5
E5
330
1F
100
AcDbEntity
  8
0
  6
Continuous
 62
     7
370
    15
100
AcDbCircle
 10
679.2707832474
 20
371.4263134135
 30
0.0
 40
0.7364863114893465
100
AcDbArc
 50
270.3594215678
 51
348.0689647462
  0
ARC
  5
E6
330
1F
100
AcDbEntity
  8
0
  6
Continuous
 62
     7
370
    15
100
AcDbCircle
 10
671.6131626611
 20
371.3803276647
 30
0.0
 40
0.7602253466824354
100
AcDbArc
 50
180.1252047005
 51
270.1260767827
  0
SPLINE
  5
E7
330
1F
100
AcDbEntity
  8
0
  6
Continuous
 62
     7
370
    15
100
AcDbSpline
210
0.0
220
0.0
230
1.0
 70
     8
 71
     3
 72
    11
 73
     7
 74
     0
 42
0.00000001
 43
0.00000001
 40
0.0
 40
0.0
 40
0.0
 40
0.0
 40
0.1990397805681786
 40
0.4636330061219266
 40
0.7350860208223999
 40
0.9999999999999999
 40
0.9999999999999999
 40
0.9999999999999999
 40
0.9999999999999999
 10
676.3559528595555
 20
370.6489714330276
 30
0.0
 10
676.6990076534245
 20
370.6715617068575
 30
0.0
 10
677.4981018088342
 20
370.7241823263886
 30
0.0
 10
678.5918676012296
 20
370.8977903203685
 30
0.0
 10
679.5055908398749
 20
371.1137109433688
 30
0.0
 10
679.8307579238821
 20
371.2210441724002
 30
0.0
 10
679.9913593536961
 20
371.274056518658
 30
0.0
  0
LWPOLYLINE
  5
E8
330
1F
100
AcDbEntity
  8
0
  6
Continuous
 62
     7
370
    15
100
AcDbPolyline
 90
        9
 70
   128
 43
0.0
 10
671.6148355013
 20
403.2429406887
 10
671.4661964184
 20
403.2383660322
 10
671.3232644803
 20
403.2248059755
 10
671.1915531165
 20
403.2027820593
 10
671.0760840184
 20
403.1731511003
 10
670.9813424355
 20
403.1370455867
 10
670.9109344489
 20
403.0958513266
 10
670.8675720698
 20
403.051147843
 10
670.8529391295
 20
403.0046636706
  0
LINE
  5
E9
330
1F
100
AcDbEntity
  8
0
  6
Continuous
 62
     7
370
    15
100
AcDbLine
 10
670.8529391295
 20
393.5289556628
 30
0.0
 11
670.8529391295
 21
403.0046636706
 31
0.0
  0
SPLINE
  5
EA
330
1F
100
AcDbEntity
  8
0
  6
Continuous
 62
     7
370
    15
100
AcDbSpline
210
0.0
220
0.0
230
1.0
 70
    24
 71
     1
 72
     4
 73
     2
 74
     0
 42
0.00000001
 43
0.00000001
 40
0.0
 40
0.0
 40
1.0
 40
1.0
 10
679.3555119043934
 20
370.6719192212661
 30
0.0
 10
679.2754032618153
 20
370.689841592892
 30
0.0
  0
SPLINE
  5
EB
330
1F
100
AcDbEntity
  8
0
  6
Continuous
 62
     7
370
    15
100
AcDbSpline
210
0.0
220
0.0
230
1.0
 70
     8
 71
     3
 72
    16
 73
    12
 74
     0
 42
0.00000001
 43
0.00000001
 40
0.0
 40
0.0
 40
0.0
 40
0.0
 40
0.1632157035401876
 40
0.2700786062315158
 40
0.3688077291552973
 40
0.4654144976536153
 40
0.562667259900509
 40
0.6630039919090915
 40
0.7707095662675756
 40
0.8765168602695367
 40
1.0
 40
1.0
 40
1.0
 40
1.0
 10
671.6148355013478
 20
365.5913683122237
 30
0.0
 10
671.6534848305748
 20
365.0953416445929
 30
0.0
 10
671.7174391973608
 20
364.2745493547479
 30
0.0
 10
672.3413736806946
 20
363.1296470793962
 30
0.0
 10
673.155616492998
 20
362.3274213475614
 30
0.0
 10
674.1929023965653
 20
361.784654145998
 30
0.0
 10
675.3776276416634
 20
361.5545511697407
 30
0.0
 10
676.6308763571873
 20
361.6815792831555
 30
0.0
 10
677.7908215745553
 20
362.1913974922757
 30
0.0
 10
678.769550963614
 20
363.0591385025329
 30
0.0
 10
679.0983371924706
 20
363.7713741136209
 30
0.0
 10
679.2754032618153
 20
364.1549448019107
 30
0.0
  0
LINE
  5
EC
330
1F
100
AcDbEntity
  8
0
  6
Continuous
 62
     7
370
    15
100
AcDbLine
 10
671.6148355013
 20
370.6201041585
 30
0.0
 11
671.6148355013
 21
365.5913683122
 31
0.0
  0
ARC
  5
ED
330
1F
100
AcDbEntity
  8
0
  6
Continuous
 62
     7
370
    15
100
AcDbCircle
 10
679.501090487
 20
364.722686368
 30
0.0
 40
0.6109543431526443
100
AcDbArc
 50
248.3213117922
 51
323.3660455386
  0
ARC
  5
EE
330
1F
100
AcDbEntity
  8
0
  6
Continuous
 62
     7
370
    15
100
AcDbCircle
 10
671.5160701518
 20
366.2623697923
 30
0.0
 40
0.6782312146204192
100
AcDbArc
 50
192.1129257763
 51
278.3732963765
  0
LINE
  5
EF
330
1F
100
AcDbEntity
  8
0
  6
Continuous
 62
     7
370
    15
100
AcDbLine
 10
670.8529391295
 20
366.1200503355
 30
0.0
 11
670.8529391295
 21
371.3786663955
 31
0.0
  0
SPLINE
  5
F0
330
1F
100
AcDbEntity
  8
0
  6
Continuous
 62
     7
370
    15
100
AcDbSpline
210
0.0
220
0.0
230
1.0
 70
     8
 71
     3
 72
    11
 73
     7
 74
     0
 42
0.00000001
 43
0.00000001
 40
0.0
 40
0.0
 40
0.0
 40
0.0
 40
0.1990397328262945
 40
0.4636330471912104
 40
0.7350857352835567
 40
1.0
 40
1.0
 40
1.0
 40
1.0
 10
676.3559528595555
 20
408.6582908874591
 30
0.0
 10
676.699007716913
 20
408.5683062699493
 30
0.0
 10
677.498102282666
 20
408.3587006709867
 30
0.0
 10
678.591866451628
 20
407.5997317820306
 30
0.0
 10
679.5055919396254
 20
406.4804910352798
 30
0.0
 10
679.8307581633685
 20
405.5856480093266
 30
0.0
 10
679.9913593536961
 20
405.1436806565364
 30
0.0
  0
SPLINE
  5
F1
330
1F
100
AcDbEntity
  8
0
  6
Continuous
 62
     7
370
    15
100
AcDbSpline
210
0.0
220
0.0
230
1.0
 70
     8
 71
     3
 72
    12
 73
     8
 74
     0
 42
0.00000001
 43
0.00000001
 40
0.0
 40
0.0
 40
0.0
 40
0.0
 40
0.2917317801072279
 40
0.522556101618799
 40
0.7611462372403631
 40
0.9714510020703523
 40
1.0
 40
1.0
 40
1.0
 40
1.0
 10
670.8529391295064
 20
403.0046636706431
 30
0.0
 10
670.89811517768
 20
403.7246382406548
 30
0.0
 10
670.9790354655258
 20
405.0142718363899
 30
0.0
 10
671.7870171156802
 20
406.7801563865078
 30
0.0
 10
672.998497938567
 20
408.0244151254839
 30
0.0
 10
674.1174474316014
 20
408.5253701681938
 30
0.0
 10
674.7025336313619
 20
408.6440997350218
 30
0.0
 10
674.7724660641301
 20
408.6582908874591
 30
0.0
  0
SPLINE
  5
F2
330
1F
100
AcDbEntity
  8
0
  6
Continuous
 62
     7
370
    15
100
AcDbSpline
210
0.0
220
0.0
230
1.0
 70
     8
 71
     3
 72
    11
 73
     7
 74
     0
 42
0.00000001
 43
0.00000001
 40
0.0
 40
0.0
 40
0.0
 40
0.0
 40
0.009139079833479
 40
0.5000000497811411
 40
0.9908516745938288
 40
1.0
 40
1.0
 40
1.0
 40
1.0
 10
674.7724660641301
 20
408.6582908874591
 30
0.0
 10
674.7772389321458
 20
408.6590208693131
 30
0.0
 10
675.0383630594015
 20
408.6989582557843
 30
0.0
 10
675.5642081923561
 20
408.7370231404061
 30
0.0
 10
676.0900433347662
 20
408.6989177688755
 30
0.0
 10
676.3511750237504
 20
408.6590208672101
 30
0.0
 10
676.3559528595555
 20
408.6582908874591
 30
0.0
  0
SPLINE
  5
F3
330
1F
100
AcDbEntity
  8
0
  6
Continuous
 62
     7
370
    15
100
AcDbSpline
210
0.0
220
0.0
230
1.0
 70
     8
 71
     3
 72
    12
 73
     8
 74
     0
 42
0.00000001
 43
0.00000001
 40
0.0
 40
0.0
 40
0.0
 40
0.0
 40
0.1136355179096347
 40
0.3008434375786587
 40
0.4919219570760481
 40
0.6964446162286667
 40
1.0
 40
1.0
 40
1.0
 40
1.0
 10
674.7724660641301
 20
408.6582908874591
 30
0.0
 10
674.49571157711
 20
408.6139322843489
 30
0.0
 10
673.7630201372145
 20
408.4964954574542
 30
0.0
 10
672.6920293803906
 20
408.0749569090369
 30
0.0
 10
671.7249288135978
 20
407.4072081105741
 30
0.0
 10
670.983292912372
 20
406.4966622436332
 30
0.0
 10
670.9016921641675
 20
405.9084492074561
 30
0.0
 10
670.8529391295064
 20
405.5570165163119
 30
0.0
  0
LINE
  5
F4
330
1F
100
AcDbEntity
  8
0
  6
Continuous
 62
     7
370
    15
100
AcDbLine
 10
670.8529391295
 20
405.5570165163
 30
0.0
 11
670.8529391295
 21
403.0046636706
 31
0.0
  0
SPLINE
  5
F5
330
1F
100
AcDbEntity
  8
0
  6
Continuous
 62
     7
370
    15
100
AcDbSpline
210
0.0
220
0.0
230
1.0
 70
     8
 71
     3
 72
    11
 73
     7
 74
     0
 42
0.00000001
 43
0.00000001
 40
0.0
 40
0.0
 40
0.0
 40
0.0
 40
0.3340937349259013
 40
0.6236912338092571
 40
0.9185144978813125
 40
1.0
 40
1.0
 40
1.0
 40
1.0
 10
679.9913593536961
 20
406.5928632861217
 30
0.0
 10
679.7787039503812
 20
406.8958688976595
 30
0.0
 10
679.3817156294265
 20
407.461524352866
 30
0.0
 10
678.2204349163728
 20
408.1928079009218
 30
0.0
 10
677.1483630489678
 20
408.546288492479
 30
0.0
 10
676.4969986232054
 20
408.6383549205298
 30
0.0
 10
676.3559528595555
 20
408.6582908874591
 30
0.0
  0
LINE
  5
F6
330
1F
100
AcDbEntity
  8
0
  6
Continuous
 62
     7
370
    15
100
AcDbLine
 10
679.9253025061
 20
406.7477906591
 30
0.0
 11
679.9172409779
 21
406.7604864484
 31
0.0
  0
LINE
  5
F7
330
1F
100
AcDbEntity
  8
0
  6
Continuous
 62
     7
370
    15
100
AcDbLine
 10
651.8529304272
 20
396.6944391376
 30
0.0
 11
651.8529304272
 21
375.694437558
 31
0.0
  0
LINE
  5
F8
330
1F
100
AcDbEntity
  8
0
  6
Continuous
 62
     7
370
    15
100
AcDbLine
 10
670.8529391295
 20
404.4695670253
 30
0.0
 11
670.8529391295
 21
405.5570165163
 31
0.0
  0
LINE
  5
F9
330
1F
100
AcDbEntity
  8
0
  6
Continuous
 62
     7
370
    15
100
AcDbLine
 10
643.8529291159
 20
391.1944428927
 30
0.0
 11
643.8529291159
 21
381.1944375282
 31
0.0
  0
LINE
  5
FA
330
1F
100
AcDbEntity
  8
0
  6
Continuous
 62
     7
370
    15
100
AcDbLine
 10
644.5458182103
 20
391.1944428927
 30
0.0
 11
644.5458182103
 21
381.1944375282
 31
0.0
  0
LINE
  5
FB
330
1F
100
AcDbEntity
  8
0
  6
Continuous
 62
     7
370
    15
100
AcDbLine
 10
647.0146276957
 20
390.3824413663
 30
0.0
 11
647.0146276957
 21
382.0064390546
 31
0.0
  0
LINE
  5
FC
330
1F
100
AcDbEntity
  8
0
  6
Continuous
 62
     7
370
    15
100
AcDbLine
 10
646.5458073622
 20
391.1944428927
 30
0.0
 11
646.5458073622
 21
381.1944375282
 31
0.0
  0
LINE
  5
FD
330
1F
100
AcDbEntity
  8
0
  6
Continuous
 62
     7
370
    15
100
AcDbLine
 10
649.8529412753
 20
391.1944428927
 30
0.0
 11
649.8529412753
 21
381.1944375282
 31
0.0
  0
LINE
  5
FE
330
1F
100
AcDbEntity
  8
0
  6
Continuous
 62
     7
370
    15
100
AcDbLine
 10
649.3841209418
 20
390.3824413663
 30
0.0
 11
649.3841209418
 21
382.0064390546
 31
0.0
  0
LINE
  5
FF
330
1F
100
AcDbEntity
  8
0
  6
Continuous
 62
     7
370
    15
100
AcDbLine
 10
647.8529372222
 20
391.1944428927
 30
0.0
 11
647.8529372222
 21
381.1944375282
 31
0.0
  0
LINE
  5
100
330
1F
100
AcDbEntity
  8
0
  6
Continuous
 62
     7
370
    15
100
AcDbLine
 10
647.3841317898
 20
390.3824413663
 30
0.0
 11
647.3841317898
 21
382.0064390546
 31
0.0
  0
LINE
  5
101
330
1F
100
AcDbEntity
  8
0
  6
Continuous
 62
     7
370
    15
100
AcDbLine
 10
645.852933169
 20
391.1944428927
 30
0.0
 11
645.852933169
 21
381.1944375282
 31
0.0
  0
LINE
  5
102
330
1F
100
AcDbEntity
  8
0
  6
Continuous
 62
     7
370
    15
100
AcDbLine
 10
651.0146209008
 20
390.3824413663
 30
0.0
 11
651.0146209008
 21
382.0064390546
 31
0.0
  0
LINE
  5
103
330
1F
100
AcDbEntity
  8
0
  6
Continuous
 62
     7
370
    15
100
AcDbLine
 10
650.5458154685
 20
391.1944428927
 30
0.0
 11
650.5458154685
 21
381.1944375282
 31
0.0
  0
LINE
  5
104
330
1F
100
AcDbEntity
  8
0
  6
Continuous
 62
     7
370
    15
100
AcDbLine
 10
648.5458114153
 20
391.1944428927
 30
0.0
 11
648.5458114153
 21
381.1944375282
 31
0.0
  0
LINE
  5
105
330
1F
100
AcDbEntity
  8
0
  6
Continuous
 62
     7
370
    15
100
AcDbLine
 10
645.3841277367
 20
390.3824413663
 30
0.0
 11
645.3841277367
 21
382.0064390546
 31
0.0
  0
LINE
  5
106
330
1F
100
AcDbEntity
  8
0
  6
Continuous
 62
     7
370
    15
100
AcDbLine
 10
649.0146168477
 20
390.3824413663
 30
0.0
 11
649.0146168477
 21
382.0064390546
 31
0.0
  0
LINE
  5
107
330
1F
100
AcDbEntity
  8
0
  6
Continuous
 62
     7
370
    15
100
AcDbLine
 10
643.3841236836
 20
390.3824413663
 30
0.0
 11
643.3841236836
 21
382.0064390546
 31
0.0
  0
LINE
  5
108
330
1F
100
AcDbEntity
  8
0
  6
Continuous
 62
     7
370
    15
100
AcDbLine
 10
645.0146236426
 20
390.3824413663
 30
0.0
 11
645.0146236426
 21
382.0064390546
 31
0.0
  0
LINE
  5
109
330
1F
100
AcDbEntity
  8
0
  6
Continuous
 62
     7
370
    15
100
AcDbLine
 10
651.3841249949
 20
390.3824413663
 30
0.0
 11
651.3841249949
 21
382.0064390546
 31
0.0
  0
LINE
  5
10A
330
1F
100
AcDbEntity
  8
0
  6
Continuous
 62
     7
370
    15
100
AcDbLine
 10
631.8529345996
 20
391.1944428927
 30
0.0
 11
631.8529345996
 21
381.1944375282
 31
0.0
  0
LINE
  5
10B
330
1F
100
AcDbEntity
  8
0
  6
Continuous
 62
     7
370
    15
100
AcDbLine
 10
632.5458162433
 20
391.1944428927
 30
0.0
 11
632.5458162433
 21
381.1944375282
 31
0.0
  0
LINE
  5
10C
330
1F
100
AcDbEntity
  8
0
  6
Continuous
 62
     7
370
    15
100
AcDbLine
 10
633.0146216756
 20
390.3824413663
 30
0.0
 11
633.0146216756
 21
382.0064390546
 31
0.0
  0
LINE
  5
10D
330
1F
100
AcDbEntity
  8
0
  6
Continuous
 62
     7
370
    15
100
AcDbLine
 10
631.3841291672
 20
390.3824413663
 30
0.0
 11
631.3841291672
 21
382.0064390546
 31
0.0
  0
LINE
  5
10E
330
1F
100
AcDbEntity
  8
0
  6
Continuous
 62
     7
370
    15
100
AcDbLine
 10
630.6582265503
 20
390.9997294193
 30
0.0
 11
630.6582265503
 21
381.3891472763
 31
0.0
  0
LINE
  5
10F
330
1F
100
AcDbEntity
  8
0
  6
Continuous
 62
     7
370
    15
100
AcDbLine
 10
631.0146176225
 20
390.3824413663
 30
0.0
 11
631.0146176225
 21
382.0064390546
 31
0.0
  0
SPLINE
  5
110
330
1F
100
AcDbEntity
  8
0
  6
Continuous
 62
     7
370
    15
100
AcDbSpline
210
0.0
220
0.0
230
1.0
 70
     8
 71
     3
 72
    11
 73
     7
 74
     0
 42
0.00000001
 43
0.00000001
 40
0.0
 40
0.0
 40
0.0
 40
0.0
 40
0.3340936401283451
 40
0.6236909407553517
 40
0.9185145596411671
 40
1.0
 40
1.0
 40
1.0
 40
1.0
 10
679.9913593536961
 20
364.3581295853694
 30
0.0
 10
679.7787041161268
 20
363.8815517149449
 30
0.0
 10
679.3817161784781
 20
362.9918691090919
 30
0.0
 10
678.2204330688278
 20
361.9235698688759
 30
0.0
 10
677.1483642584005
 20
361.4197710687467
 30
0.0
 10
676.4969986603159
 20
361.2896261677421
 30
0.0
 10
676.3559528595555
 20
361.26144477187
 30
0.0
  0
SPLINE
  5
111
330
1F
100
AcDbEntity
  8
0
  6
Continuous
 62
     7
370
    15
100
AcDbSpline
210
0.0
220
0.0
230
1.0
 70
     8
 71
     3
 72
    11
 73
     7
 74
     0
 42
0.00000001
 43
0.00000001
 40
0.0
 40
0.0
 40
0.0
 40
0.0
 40
0.0091482430011902
 40
0.4999999502613122
 40
0.9908610026577181
 40
0.9999999999999999
 40
0.9999999999999999
 40
0.9999999999999999
 40
0.9999999999999999
 10
676.3559528595555
 20
361.2614447718699
 30
0.0
 10
676.3511750233408
 20
361.2606350719183
 30
0.0
 10
676.0900409597468
 20
361.2163806795171
 30
0.0
 10
675.5642081900714
 20
361.1740333374084
 30
0.0
 10
675.0383654391891
 20
361.2163357693523
 30
0.0
 10
674.7772389325556
 20
361.2606350695765
 30
0.0
 10
674.7724660641301
 20
361.2614447718699
 30
0.0
  0
SPLINE
  5
112
330
1F
100
AcDbEntity
  8
0
  6
Continuous
 62
     7
370
    15
100
AcDbSpline
210
0.0
220
0.0
230
1.0
 70
     8
 71
     3
 72
    12
 73
     8
 74
     0
 42
0.00000001
 43
0.00000001
 40
0.0
 40
0.0
 40
0.0
 40
0.0
 40
0.113635492495769
 40
0.3008435289551689
 40
0.4919219698896261
 40
0.6964444685016451
 40
1.0
 40
1.0
 40
1.0
 40
1.0
 10
674.7724660641301
 20
361.2614447718699
 30
0.0
 10
674.4957115246935
 20
361.3241960474901
 30
0.0
 10
673.7630195596232
 20
361.4903264948474
 30
0.0
 10
672.6920301776618
 20
362.0931950404838
 30
0.0
 10
671.7249288593115
 20
363.0811423907458
 30
0.0
 10
670.9832925185408
 20
364.4844677547605
 30
0.0
 10
670.9016920324943
 20
365.5083332219095
 30
0.0
 10
670.8529391295064
 20
366.1200503355105
 30
0.0
  0
LINE
  5
113
330
1F
100
AcDbEntity
  8
0
  6
Continuous
 62
     7
370
    15
100
AcDbLine
 10
670.8529391295
 20
366.1200503355
 30
0.0
 11
670.8529391295
 21
365.9057157582
 31
0.0
  0
LINE
  5
114
330
1F
100
AcDbEntity
  8
0
  6
Continuous
 62
     7
370
    15
100
AcDbLine
 10
626.8529319173
 20
393.1944394952
 30
0.0
 11
626.8529319173
 21
292.3120862341
 31
0.0
  0
LINE
  5
115
330
1F
100
AcDbEntity
  8
0
  6
Continuous
 62
     7
370
    15
100
AcDbLine
 10
623.8529332883
 20
292.3120862341
 30
0.0
 11
626.8529319173
 21
292.3120862341
 31
0.0
  0
LINE
  5
116
330
1F
100
AcDbEntity
  8
0
  6
Continuous
 62
     7
370
    15
100
AcDbLine
 10
623.8529332883
 20
393.1944394952
 30
0.0
 11
623.8529332883
 21
292.3120862341
 31
0.0
  0
LINE
  5
117
330
1F
100
AcDbEntity
  8
0
  6
Continuous
 62
     7
370
    15
100
AcDbLine
 10
626.8529319173
 20
291.1944376772
 30
0.0
 11
623.8529332883
 21
291.1944376772
 31
0.0
  0
LINE
  5
118
330
1F
100
AcDbEntity
  8
0
  6
Continuous
 62
     7
370
    15
100
AcDbLine
 10
623.8529332883
 20
291.1944376772
 30
0.0
 11
623.8529332883
 21
292.3120862341
 31
0.0
  0
LINE
  5
119
330
1F
100
AcDbEntity
  8
0
  6
Continuous
 62
     7
370
    15
100
AcDbLine
 10
626.8529319173
 20
292.3120862341
 30
0.0
 11
626.8529319173
 21
291.1944376772
 31
0.0
  0
LINE
  5
11A
330
1F
100
AcDbEntity
  8
0
  6
Continuous
 62
     7
370
    15
100
AcDbLine
 10
391.4029323465
 20
307.7944392806
 30
0.0
 11
391.4029323465
 21
338.5944391137
 31
0.0
  0
LINE
  5
11B
330
1F
100
AcDbEntity
  8
0
  6
Continuous
 62
     7
370
    15
100
AcDbLine
 10
395.4029330021
 20
342.5944397694
 30
0.0
 11
395.4029330021
 21
303.794438625
 31
0.0
  0
LINE
  5
11C
330
1F
100
AcDbEntity
  8
0
  6
Continuous
 62
     7
370
    15
100
AcDbLine
 10
398.9029326445
 20
303.794438625
 30
0.0
 11
398.9029326445
 21
342.5944397694
 31
0.0
  0
LINE
  5
11D
330
1F
100
AcDbEntity
  8
0
  6
Continuous
 62
     7
370
    15
100
AcDbLine
 10
400.9029366976
 20
337.0944388679
 30
0.0
 11
400.9029366976
 21
309.2944395265
 31
0.0
  0
SPLINE
  5
11E
330
1F
100
AcDbEntity
  8
0
  6
Continuous
 62
     7
370
    15
100
AcDbSpline
210
0.0
220
0.0
230
1.0
 70
    24
 71
     3
 72
    55
 73
    51
 74
     0
 42
0.00000001
 43
0.00000001
 40
0.0
 40
0.0
 40
0.0
 40
0.0
 40
0.0625000000000008
 40
0.0625000000000008
 40
0.0937500000000011
 40
0.0937500000000011
 40
0.1250000000000013
 40
0.1562500000000016
 40
0.1562500000000016
 40
0.1875000000000018
 40
0.1875000000000018
 40
0.2500000000000023
 40
0.2500000000000023
 40
0.2812500000000022
 40
0.2812500000000022
 40
0.3125000000000021
 40
0.3125000000000021
 40
0.3750000000000019
 40
0.3750000000000019
 40
0.4062500000000014
 40
0.4062500000000014
 40
0.4375000000000008
 40
0.4375000000000008
 40
0.5000000000000008
 40
0.5000000000000008
 40
0.5312500000000003
 40
0.5312500000000003
 40
0.5624999999999998
 40
0.5624999999999998
 40
0.5937499999999993
 40
0.5937499999999993
 40
0.6249999999999988
 40
0.6249999999999988
 40
0.6874999999999978
 40
0.6874999999999978
 40
0.718749999999998
 40
0.718749999999998
 40
0.7499999999999983
 40
0.7499999999999983
 40
0.8124999999999988
 40
0.8124999999999988
 40
0.843749999999999
 40
0.843749999999999
 40
0.8749999999999991
 40
0.8749999999999991
 40
0.9062499999999993
 40
0.9062499999999993
 40
0.9374999999999997
 40
0.9374999999999997
 40
1.0
 40
1.0
 40
1.0
 40
1.0
 10
625.4405763557753
 20
533.1944391971668
 30
0.0
 10
625.4405712163145
 20
533.1944391971668
 30
0.0
 10
625.5232826506235
 20
533.1944391971668
 30
0.0
 10
625.7688158534507
 20
533.194439197167
 30
0.0
 10
625.871634838396
 20
533.1944391971668
 30
0.0
 10
626.1148385456646
 20
533.1944391971668
 30
0.0
 10
626.3959297352496
 20
533.1944391971666
 30
0.0
 10
626.7509439148553
 20
533.1944391971668
 30
0.0
 10
627.1435956688836
 20
533.1944391971668
 30
0.0
 10
627.3594567669984
 20
533.1944391971667
 30
0.0
 10
628.0616421731363
 20
533.1944391971667
 30
0.0
 10
628.5910123529175
 20
533.1944391971668
 30
0.0
 10
629.4748632685255
 20
533.1944391971668
 30
0.0
 10
629.7845567280324
 20
533.1944391971668
 30
0.0
 10
630.4345887147214
 20
533.194439197167
 30
0.0
 10
630.775739234958
 20
533.194439197167
 30
0.0
 10
631.8231271220811
 20
533.1944391971668
 30
0.0
 10
632.5585528461569
 20
533.1944391971667
 30
0.0
 10
633.7243894140037
 20
533.1944391971667
 30
0.0
 10
634.1255252081065
 20
533.194439197167
 30
0.0
 10
634.9427114049009
 20
533.1944391971668
 30
0.0
 10
635.3544938725302
 20
533.1944391971668
 30
0.0
 10
636.5981558545305
 20
533.194439197167
 30
0.0
 10
637.4387002063504
 20
533.194439197167
 30
0.0
 10
638.7171642405344
 20
533.194439197167
 30
0.0
 10
639.1434148557277
 20
533.1944391971668
 30
0.0
 10
639.9852074977218
 20
533.1944391971668
 30
0.0
 10
640.4024046120876
 20
533.1944391971668
 30
0.0
 10
641.2295235215379
 20
533.194439197167
 30
0.0
 10
641.6395686554376
 20
533.1944391971668
 30
0.0
 10
642.4517390987702
 20
533.1944391971668
 30
0.0
 10
642.8562315447039
 20
533.1944391971668
 30
0.0
 10
644.0317644118019
 20
533.1944391971668
 30
0.0
 10
644.7688860532205
 20
533.1944391971668
 30
0.0
 10
645.814584166838
 20
533.1944391971668
 30
0.0
 10
646.1526801468347
 20
533.1944391971668
 30
0.0
 10
646.8073533049898
 20
533.1944391971668
 30
0.0
 10
647.1199500791475
 20
533.1944391971668
 30
0.0
 10
648.0084720643972
 20
533.1944391971668
 30
0.0
 10
648.5382916558408
 20
533.194439197167
 30
0.0
 10
649.2392013490736
 20
533.194439197167
 30
0.0
 10
649.4572728986083
 20
533.1944391971668
 30
0.0
 10
649.8520570678484
 20
533.1944391971667
 30
0.0
 10
650.0301838898479
 20
533.1944391971668
 30
0.0
 10
650.3489343193462
 20
533.194439197167
 30
0.0
 10
650.4895550213993
 20
533.1944391971668
 30
0.0
 10
650.7326845095616
 20
533.1944391971668
 30
0.0
 10
650.8352944763799
 20
533.1944391971667
 30
0.0
 10
651.082402826307
 20
533.1944391971668
 30
0.0
 10
651.165295957315
 20
533.1944391971668
 30
0.0
 10
651.1652914128716
 20
533.1944391971668
 30
0.0
  0
LINE
  5
11F
330
1F
100
AcDbEntity
  8
0
  6
Continuous
 62
     7
370
    15
100
AcDbLine
 10
631.3029327399
 20
413.1944427734
 30
0.0
 11
634.302931369
 21
413.1944427734
 31
0.0
  0
LWPOLYLINE
  5
120
330
1F
100
AcDbEntity
  8
0
  6
Continuous
 62
     7
370
    15
100
AcDbPolyline
 90
        2
 70
   128
 43
0.0
 10
631.3029327399
 20
413.1944427734
 10
631.3029327399
 20
413.1944427734
  0
LWPOLYLINE
  5
121
330
1F
100
AcDbEntity
  8
0
  6
Continuous
 62
     7
370
    15
100
AcDbPolyline
 90
        2
 70
   128
 43
0.0
 10
645.3029313094
 20
413.1944427734
 10
645.3029313094
 20
413.1944427734
  0
LINE
  5
122
330
1F
100
AcDbEntity
  8
0
  6
Continuous
 62
     7
370
    15
100
AcDbLine
 10
642.3029401309
 20
413.1944427734
 30
0.0
 11
645.3029313094
 21
413.1944427734
 31
0.0
  0
LINE
  5
123
330
1F
100
AcDbEntity
  8
0
  6
Continuous
 62
     7
370
    15
100
AcDbLine
 10
634.302931369
 20
413.1944427734
 30
0.0
 11
642.3029401309
 21
413.1944427734
 31
0.0
  0
SPLINE
  5
124
330
1F
100
AcDbEntity
  8
0
  6
Continuous
 62
     7
370
    15
100
AcDbSpline
210
0.0
220
0.0
230
1.0
 70
     8
 71
     3
 72
     8
 73
     4
 74
     0
 42
0.00000001
 43
0.00000001
 40
0.0
 40
0.0
 40
0.0
 40
0.0
 40
0.0000226150302117
 40
0.0000226150302117
 40
0.0000226150302117
 40
0.0000226150302117
 10
566.3015564740579
 20
313.4899842348767
 30
0.0
 10
566.3015413384094
 20
313.4852328705302
 30
0.0
 10
566.3013776635413
 20
313.4804860588781
 30
0.0
 10
566.3010648201748
 20
313.4757493626898
 30
0.0
  0
SPLINE
  5
125
330
1F
100
AcDbEntity
  8
0
  6
Continuous
 62
     7
370
    15
100
AcDbSpline
210
0.0
220
0.0
230
1.0
 70
    24
 71
     3
 72
    14
 73
    10
 74
     0
 42
0.00000001
 43
0.00000001
 40
0.1393700509402417
 40
0.1393700509402417
 40
0.1393700509402417
 40
0.1393700509402417
 40
0.2500000000000002
 40
0.3750000000000002
 40
0.5000000000000003
 40
0.5000000000000003
 40
0.6250000000000002
 40
0.7500000000000002
 40
0.8606299490597574
 40
0.8606299490597574
 40
0.8606299490597574
 40
0.8606299490597574
 10
566.3029338842977
 20
332.89900607105
 30
0.0
 10
566.3029338842977
 20
332.1827661686616
 30
0.0
 10
566.3029338842977
 20
330.4000977615013
 30
0.0
 10
566.3029338842977
 20
327.0454533435537
 30
0.0
 10
566.3029338842977
 20
324.4781613506645
 30
0.0
 10
566.3029338842977
 20
321.910717043669
 30
0.0
 10
566.3029338842977
 20
319.3434250507798
 30
0.0
 10
566.3029338842977
 20
315.9887806328321
 30
0.0
 10
566.3029338842977
 20
314.206112225672
 30
0.0
 10
566.3029338842977
 20
313.4898723232835
 30
0.0
  0
SPLINE
  5
126
330
1F
100
AcDbEntity
  8
0
  6
Continuous
 62
     7
370
    15
100
AcDbSpline
210
0.0
220
0.0
230
1.0
 70
     8
 71
     3
 72
     8
 73
     4
 74
     0
 42
0.00000001
 43
0.00000001
 40
0.0
 40
0.0
 40
0.0
 40
0.0
 40
0.0000226150302116
 40
0.0000226150302116
 40
0.0000226150302116
 40
0.0000226150302116
 10
566.3010648201748
 20
332.9131290316437
 30
0.0
 10
566.3013776635413
 20
332.9083923354554
 30
0.0
 10
566.3015413384094
 20
332.9036455238032
 30
0.0
 10
566.301556474058
 20
332.8988941594569
 30
0.0
  0
LINE
  5
127
330
1F
100
AcDbEntity
  8
0
  6
Continuous
 62
     7
370
    15
100
AcDbLine
 10
584.9201329953
 20
332.9131292647
 30
0.0
 11
566.3029351241
 21
332.9131292647
 31
0.0
  0
SPLINE
  5
128
330
1F
100
AcDbEntity
  8
0
  6
Continuous
 62
     7
370
    15
100
AcDbSpline
210
0.0
220
0.0
230
1.0
 70
     8
 71
     3
 72
    16
 73
    12
 74
     0
 42
0.00000001
 43
0.00000001
 40
0.0
 40
0.0
 40
0.0
 40
0.0
 40
0.1250000000000006
 40
0.1250000000000006
 40
0.2500000000000012
 40
0.2500000000000012
 40
0.5000000000000008
 40
0.5000000000000008
 40
0.7500000000000003
 40
0.7500000000000003
 40
1.0
 40
1.0
 40
1.0
 40
1.0
 10
587.2881004757396
 20
335.4451047989684
 30
0.0
 10
587.2972438577942
 20
335.3902958762361
 30
0.0
 10
587.2832386646254
 20
335.3271610648827
 30
0.0
 10
587.2180810443728
 20
335.1849514976705
 30
0.0
 10
587.1665168281172
 20
335.1054691588514
 30
0.0
 10
586.9665247296875
 20
334.8464524826734
 30
0.0
 10
586.7769520959215
 20
334.650162438314
 30
0.0
 10
586.3280053417195
 20
334.2165310021959
 30
0.0
 10
586.0668223046854
 20
333.9781662139741
 30
0.0
 10
585.5130344349417
 20
333.4712026727115
 30
0.0
 10
585.2180403811132
 20
333.2005671144458
 30
0.0
 10
584.9201308630708
 20
332.9131290316437
 30
0.0
  0
SPLINE
  5
129
330
1F
100
AcDbEntity
  8
0
  6
Continuous
 62
     7
370
    15
100
AcDbSpline
210
0.0
220
0.0
230
1.0
 70
     8
 71
     3
 72
    16
 73
    12
 74
     0
 42
0.00000001
 43
0.00000001
 40
0.0
 40
0.0
 40
0.0
 40
0.0
 40
0.1249999999999994
 40
0.1249999999999994
 40
0.2499999999999988
 40
0.2499999999999988
 40
0.4999999999999992
 40
0.4999999999999992
 40
0.7499999999999996
 40
0.7499999999999996
 40
1.0
 40
1.0
 40
1.0
 40
1.0
 10
587.2881004757396
 20
310.9437735953652
 30
0.0
 10
587.2972438577942
 20
310.9985825180974
 30
0.0
 10
587.2832386646254
 20
311.0617173294509
 30
0.0
 10
587.2180810443728
 20
311.203926896663
 30
0.0
 10
587.1665168281172
 20
311.2834092354821
 30
0.0
 10
586.9665247296875
 20
311.5424259116601
 30
0.0
 10
586.7769520959215
 20
311.7387159560195
 30
0.0
 10
586.3280053417195
 20
312.1723473921376
 30
0.0
 10
586.0668223046854
 20
312.4107121803594
 30
0.0
 10
585.5130344349417
 20
312.9176757216221
 30
0.0
 10
585.2180403811211
 20
313.188311279891
 30
0.0
 10
584.9201308630708
 20
313.4757493626898
 30
0.0
  0
LINE
  5
12A
330
1F
100
AcDbEntity
  8
0
  6
Continuous
 62
     7
370
    15
100
AcDbLine
 10
566.3029351241
 20
313.4757491296
 30
0.0
 11
584.9201329953
 21
313.4757491296
 31
0.0
  0
LINE
  5
12B
330
1F
100
AcDbEntity
  8
0
  6
Continuous
 62
     7
370
    15
100
AcDbLine
 10
588.3029350049
 20
332.2607229
 30
0.0
 11
588.3029350049
 21
314.1281554943
 31
0.0
  0
SPLINE
  5
12C
330
1F
100
AcDbEntity
  8
0
  6
Continuous
 62
     7
370
    15
100
AcDbSpline
210
0.0
220
0.0
230
1.0
 70
     8
 71
     3
 72
    16
 73
    12
 74
     0
 42
0.00000001
 43
0.00000001
 40
0.0
 40
0.0
 40
0.0
 40
0.0
 40
0.1250000000000006
 40
0.1250000000000006
 40
0.2500000000000012
 40
0.2500000000000012
 40
0.5000000000000008
 40
0.5000000000000008
 40
0.7500000000000003
 40
0.7500000000000003
 40
1.0
 40
1.0
 40
1.0
 40
1.0
 10
440.4177672928557
 20
335.4451047989684
 30
0.0
 10
440.4086239108011
 20
335.3902958762361
 30
0.0
 10
440.4226291039699
 20
335.3271610648827
 30
0.0
 10
440.4877867242225
 20
335.1849514976705
 30
0.0
 10
440.5393509404781
 20
335.1054691588514
 30
0.0
 10
440.7393430389076
 20
334.8464524826734
 30
0.0
 10
440.9289156726738
 20
334.650162438314
 30
0.0
 10
441.3778624268758
 20
334.2165310021959
 30
0.0
 10
441.6390454639098
 20
333.9781662139741
 30
0.0
 10
442.1928333336536
 20
333.4712026727115
 30
0.0
 10
442.4878273874655
 20
333.200567114439
 30
0.0
 10
442.7857369055244
 20
332.9131290316437
 30
0.0
  0
LINE
  5
12D
330
1F
100
AcDbEntity
  8
0
  6
Continuous
 62
     7
370
    15
100
AcDbLine
 10
461.4029326445
 20
332.9131292647
 30
0.0
 11
442.7857347733
 21
332.9131292647
 31
0.0
  0
SPLINE
  5
12E
330
1F
100
AcDbEntity
  8
0
  6
Continuous
 62
     7
370
    15
100
AcDbSpline
210
0.0
220
0.0
230
1.0
 70
     8
 71
     3
 72
     8
 73
     4
 74
     0
 42
0.00000001
 43
0.00000001
 40
0.0
 40
0.0
 40
0.0
 40
0.0
 40
0.0000226150302116
 40
0.0000226150302116
 40
0.0000226150302116
 40
0.0000226150302116
 10
461.4043112945373
 20
332.8988941594569
 30
0.0
 10
461.4043264301859
 20
332.9036455238032
 30
0.0
 10
461.404490105054
 20
332.9083923354554
 30
0.0
 10
461.4048029484205
 20
332.9131290316437
 30
0.0
  0
SPLINE
  5
12F
330
1F
100
AcDbEntity
  8
0
  6
Continuous
 62
     7
370
    15
100
AcDbSpline
210
0.0
220
0.0
230
1.0
 70
    24
 71
     3
 72
    22
 73
    18
 74
     0
 42
0.00000001
 43
0.00000001
 40
0.0
 40
0.0
 40
0.0
 40
0.0
 40
0.1250000000000001
 40
0.1250000000000001
 40
0.2500000000000001
 40
0.2500000000000001
 40
0.3750000000000001
 40
0.3750000000000001
 40
0.5000000000000001
 40
0.5000000000000001
 40
0.6250000000000001
 40
0.6250000000000001
 40
0.7500000000000001
 40
0.7500000000000001
 40
0.8750000000000001
 40
0.8750000000000001
 40
1.0
 40
1.0
 40
1.0
 40
1.0
 10
461.4029338842976
 20
313.4899824906429
 30
0.0
 10
461.4029338842976
 20
314.0735720214419
 30
0.0
 10
461.4029338842976
 20
314.7373326111319
 30
0.0
 10
461.4029338842976
 20
316.1926603889175
 30
0.0
 10
461.4029338842976
 20
316.9841685717912
 30
0.0
 10
461.4029338842976
 20
318.6560762087859
 30
0.0
 10
461.4029338842976
 20
319.5364078766102
 30
0.0
 10
461.4029338842976
 20
321.3426757379117
 30
0.0
 10
461.4029338842976
 20
322.2685386975532
 30
0.0
 10
461.4029338842976
 20
324.1203396967804
 30
0.0
 10
461.4029338842976
 20
325.0462026564219
 30
0.0
 10
461.4029338842976
 20
326.8524705177234
 30
0.0
 10
461.4029338842976
 20
327.7328021855476
 30
0.0
 10
461.4029338842976
 20
329.4047098225424
 30
0.0
 10
461.4029338842976
 20
330.1962180054161
 30
0.0
 10
461.4029338842976
 20
331.6515457832016
 30
0.0
 10
461.4029338842976
 20
332.3153063728917
 30
0.0
 10
461.4029338842976
 20
332.8988959036906
 30
0.0
  0
SPLINE
  5
130
330
1F
100
AcDbEntity
  8
0
  6
Continuous
 62
     7
370
    15
100
AcDbSpline
210
0.0
220
0.0
230
1.0
 70
     8
 71
     3
 72
     8
 73
     4
 74
     0
 42
0.00000001
 43
0.00000001
 40
0.0
 40
0.0
 40
0.0
 40
0.0
 40
0.0000226150302117
 40
0.0000226150302117
 40
0.0000226150302117
 40
0.0000226150302117
 10
461.4048029484205
 20
313.4757493626898
 30
0.0
 10
461.404490105054
 20
313.4804860588781
 30
0.0
 10
461.4043264301859
 20
313.4852328705302
 30
0.0
 10
461.4043112945373
 20
313.4899842348767
 30
0.0
  0
LINE
  5
131
330
1F
100
AcDbEntity
  8
0
  6
Continuous
 62
     7
370
    15
100
AcDbLine
 10
442.7857347733
 20
313.4757491296
 30
0.0
 11
461.4029326445
 21
313.4757491296
 31
0.0
  0
SPLINE
  5
132
330
1F
100
AcDbEntity
  8
0
  6
Continuous
 62
     7
370
    15
100
AcDbSpline
210
0.0
220
0.0
230
1.0
 70
     8
 71
     3
 72
    16
 73
    12
 74
     0
 42
0.00000001
 43
0.00000001
 40
0.0
 40
0.0
 40
0.0
 40
0.0
 40
0.1249999999999993
 40
0.1249999999999993
 40
0.2499999999999986
 40
0.2499999999999986
 40
0.499999999999999
 40
0.499999999999999
 40
0.7499999999999994
 40
0.7499999999999994
 40
1.0
 40
1.0
 40
1.0
 40
1.0
 10
440.4177672928557
 20
310.9437735953652
 30
0.0
 10
440.4086239108011
 20
310.9985825180974
 30
0.0
 10
440.4226291039699
 20
311.0617173294509
 30
0.0
 10
440.4877867242225
 20
311.203926896663
 30
0.0
 10
440.5393509404781
 20
311.2834092354821
 30
0.0
 10
440.7393430389076
 20
311.5424259116601
 30
0.0
 10
440.9289156726738
 20
311.7387159560195
 30
0.0
 10
441.3778624268758
 20
312.1723473921376
 30
0.0
 10
441.6390454639098
 20
312.4107121803594
 30
0.0
 10
442.1928333336536
 20
312.9176757216221
 30
0.0
 10
442.4878273874844
 20
313.1883112798868
 30
0.0
 10
442.7857369055244
 20
313.4757493626898
 30
0.0
  0
LINE
  5
133
330
1F
100
AcDbEntity
  8
0
  6
Continuous
 62
     7
370
    15
100
AcDbLine
 10
439.4029327637
 20
332.2607229
 30
0.0
 11
439.4029327637
 21
314.1281554943
 31
0.0
  0
SPLINE
  5
134
330
1F
100
AcDbEntity
  8
0
  6
Continuous
 62
     7
370
    15
100
AcDbSpline
210
0.0
220
0.0
230
1.0
 70
     8
 71
     3
 72
    44
 73
    40
 74
     0
 42
0.00000001
 43
0.00000001
 40
0.0
 40
0.0
 40
0.0
 40
0.0
 40
0.0625000000000005
 40
0.0625000000000005
 40
0.125000000000001
 40
0.125000000000001
 40
0.1875000000000015
 40
0.1875000000000015
 40
0.2500000000000019
 40
0.2500000000000019
 40
0.2812500000000019
 40
0.2812500000000019
 40
0.312500000000002
 40
0.312500000000002
 40
0.3750000000000019
 40
0.3750000000000019
 40
0.4375000000000019
 40
0.4375000000000019
 40
0.5000000000000018
 40
0.5000000000000018
 40
0.5625000000000017
 40
0.5625000000000017
 40
0.5937500000000017
 40
0.5937500000000017
 40
0.6250000000000016
 40
0.6250000000000016
 40
0.6875000000000013
 40
0.6875000000000013
 40
0.7187500000000013
 40
0.7187500000000013
 40
0.7500000000000012
 40
0.7500000000000012
 40
0.8125000000000009
 40
0.8125000000000009
 40
0.8750000000000007
 40
0.8750000000000007
 40
0.9375000000000003
 40
0.9375000000000003
 40
1.0
 40
1.0
 40
1.0
 40
1.0
 10
461.4029338842976
 20
313.4898723159578
 30
0.0
 10
462.0285878872005
 20
313.5618131758919
 30
0.0
 10
462.6494927141872
 20
313.6791569274598
 30
0.0
 10
463.8691084612952
 20
314.0014995214557
 30
0.0
 10
464.4604776139273
 20
314.2050633015555
 30
0.0
 10
465.6039708781061
 20
314.7026907771094
 30
0.0
 10
466.1561278907169
 20
314.9966753262912
 30
0.0
 10
467.2157763817354
 20
315.6876481070013
 30
0.0
 10
467.7063406551184
 20
316.0758441498589
 30
0.0
 10
468.3838136810108
 20
316.7215467344819
 30
0.0
 10
468.5998745338147
 20
316.9473935070581
 30
0.0
 10
469.011852965662
 20
317.4209877401941
 30
0.0
 10
469.2086596480054
 20
317.670098433491
 30
0.0
 10
469.7572356685824
 20
318.4381360618348
 30
0.0
 10
470.0698916519771
 20
318.9789970922313
 30
0.0
 10
470.5833856099308
 20
320.1215110094139
 30
0.0
 10
470.7846180180273
 20
320.7272133052563
 30
0.0
 10
471.052999867024
 20
321.9490206541644
 30
0.0
 10
471.1238244204263
 20
322.5710400049069
 30
0.0
 10
471.122236138078
 20
323.8385867920779
 30
0.0
 10
471.0499728749471
 20
324.461059148312
 30
0.0
 10
470.8457117357499
 20
325.3796157688851
 30
0.0
 10
470.7609995464441
 20
325.6844690022628
 30
0.0
 10
470.5606276518294
 20
326.2833602199007
 30
0.0
 10
470.4459314280145
 20
326.5749824547673
 30
0.0
 10
470.0602939995517
 20
327.4274712507859
 30
0.0
 10
469.7476661280945
 20
327.9658920824425
 30
0.0
 10
469.1994039824372
 20
328.7308283689567
 30
0.0
 10
469.0020720883297
 20
328.9798616889484
 30
0.0
 10
468.5892367161877
 20
329.4529494619716
 30
0.0
 10
468.3732226371608
 20
329.6779975515599
 30
0.0
 10
467.69763625691
 20
330.3201485961335
 30
0.0
 10
467.2106581396483
 20
330.7044243328009
 30
0.0
 10
466.1647081864721
 20
331.3867510218162
 30
0.0
 10
465.6034445187323
 20
331.6865792041112
 30
0.0
 10
464.4558576197969
 20
332.1856623748197
 30
0.0
 10
463.8649626268403
 20
332.3885210389603
 30
0.0
 10
462.6518436770056
 20
332.7090536139001
 30
0.0
 10
462.0285878877757
 20
332.8270652232048
 30
0.0
 10
461.4029338842976
 20
332.8990060783752
 30
0.0
  0
SPLINE
  5
135
330
1F
100
AcDbEntity
  8
0
  6
Continuous
 62
     7
370
    15
100
AcDbSpline
210
0.0
220
0.0
230
1.0
 70
     8
 71
     3
 72
    44
 73
    40
 74
     0
 42
0.00000001
 43
0.00000001
 40
0.0
 40
0.0
 40
0.0
 40
0.0
 40
0.0624999999999998
 40
0.0624999999999998
 40
0.1249999999999996
 40
0.1249999999999996
 40
0.1874999999999994
 40
0.1874999999999994
 40
0.2499999999999993
 40
0.2499999999999993
 40
0.2812499999999995
 40
0.2812499999999995
 40
0.3124999999999997
 40
0.3124999999999997
 40
0.3749999999999997
 40
0.3749999999999997
 40
0.4062499999999997
 40
0.4062499999999997
 40
0.4374999999999997
 40
0.4374999999999997
 40
0.4999999999999998
 40
0.4999999999999998
 40
0.5624999999999998
 40
0.5624999999999998
 40
0.6249999999999999
 40
0.6249999999999999
 40
0.6874999999999999
 40
0.6874999999999999
 40
0.7187499999999999
 40
0.7187499999999999
 40
0.7499999999999999
 40
0.7499999999999999
 40
0.8125
 40
0.8125
 40
0.8749999999999999
 40
0.8749999999999999
 40
0.9375
 40
0.9375
 40
1.0
 40
1.0
 40
1.0
 40
1.0
 10
566.3029338842977
 20
332.8990060783752
 30
0.0
 10
565.6768657034777
 20
332.8270175987368
 30
0.0
 10
565.0540240559732
 20
332.7090536062208
 30
0.0
 10
563.8409051104844
 20
332.3885210289666
 30
0.0
 10
563.250010119632
 20
332.1856623638515
 30
0.0
 10
562.1024232247947
 20
331.6865791914929
 30
0.0
 10
561.5411595592326
 20
331.3867510085878
 30
0.0
 10
560.4952096106447
 20
330.7044243191571
 30
0.0
 10
560.0082314955389
 20
330.320148582448
 30
0.0
 10
559.3326451182221
 20
329.6779975381707
 30
0.0
 10
559.1166310401308
 20
329.4529494487321
 30
0.0
 10
558.7037956697802
 20
328.9798616761036
 30
0.0
 10
558.5064637766194
 20
328.7308283564641
 30
0.0
 10
557.9582016336674
 20
327.9658920712769
 30
0.0
 10
557.6455737637344
 20
327.4274712406551
 30
0.0
 10
557.2599363371602
 20
326.5749824464032
 30
0.0
 10
557.145240113906
 20
326.2833602121623
 30
0.0
 10
556.9448682202764
 20
325.6844689958496
 30
0.0
 10
556.8601560314231
 20
325.3796157632848
 30
0.0
 10
556.6558948932746
 20
324.4610591450423
 30
0.0
 10
556.5836316305151
 20
323.8385867904137
 30
0.0
 10
556.582043348171
 20
322.5710400065707
 30
0.0
 10
556.6528679012055
 20
321.9490206574302
 30
0.0
 10
556.92124974882
 20
320.7272133116139
 30
0.0
 10
557.1224821558819
 20
320.1215110172327
 30
0.0
 10
557.6359761113117
 20
318.9789971024106
 30
0.0
 10
557.9486320931779
 20
318.4381360730495
 30
0.0
 10
558.4972081110446
 20
317.6700984460322
 30
0.0
 10
558.6940147924878
 20
317.4209877530321
 30
0.0
 10
559.1059932225112
 20
316.9473935203323
 30
0.0
 10
559.3220540743588
 20
316.7215467479263
 30
0.0
 10
559.9995270972388
 20
316.0758441636577
 30
0.0
 10
560.490091367976
 20
315.6876481210636
 30
0.0
 10
561.54973985503
 20
314.9966753394417
 30
0.0
 10
562.1018968655917
 20
314.702690789649
 30
0.0
 10
563.2453901255241
 20
314.2050633125336
 30
0.0
 10
563.8367592759613
 20
314.0014995314887
 30
0.0
 10
565.0563750185015
 20
313.6791569351997
 30
0.0
 10
565.6768657039689
 20
313.5618607996653
 30
0.0
 10
566.3029338842977
 20
313.4898723159578
 30
0.0
  0
LINE
  5
136
330
1F
100
AcDbEntity
  8
0
  6
Continuous
 62
     7
370
    15
100
AcDbLine
 10
633.302936793
 20
323.1944391972
 30
0.0
 11
643.3029272563
 21
323.1944391972
 31
0.0
  0
LINE
  5
137
330
1F
100
AcDbEntity
  8
0
  6
Continuous
 62
     7
370
    15
100
AcDbLine
 10
633.302936793
 20
413.1944427734
 30
0.0
 11
633.302936793
 21
323.1944391972
 31
0.0
  0
LINE
  5
138
330
1F
100
AcDbEntity
  8
0
  6
Continuous
 62
     7
370
    15
100
AcDbLine
 10
643.3029272563
 20
413.1944427734
 30
0.0
 11
643.3029272563
 21
323.1944391972
 31
0.0
  0
LINE
  5
139
330
1F
100
AcDbEntity
  8
0
  6
Continuous
 62
     7
370
    15
100
AcDbLine
 10
643.3029272563
 20
323.1944391972
 30
0.0
 11
643.3029272563
 21
310.6944390109
 31
0.0
  0
LINE
  5
13A
330
1F
100
AcDbEntity
  8
0
  6
Continuous
 62
     7
370
    15
100
AcDbLine
 10
633.302936793
 20
323.1944391972
 30
0.0
 11
633.302936793
 21
310.6944390109
 31
0.0
  0
SPLINE
  5
13B
330
1F
100
AcDbEntity
  8
0
  6
Continuous
 62
     7
370
    15
100
AcDbSpline
210
0.0
220
0.0
230
1.0
 70
     8
 71
     3
 72
    18
 73
    14
 74
     0
 42
0.00000001
 43
0.00000001
 40
0.0
 40
0.0
 40
0.0
 40
0.0
 40
0.2500000000000003
 40
0.2500000000000003
 40
0.5000000000000007
 40
0.5000000000000007
 40
0.750000000000001
 40
0.750000000000001
 40
0.8750000000000009
 40
0.8750000000000009
 40
0.9375000000000004
 40
0.9375000000000004
 40
1.0
 40
1.0
 40
1.0
 40
1.0
 10
461.4048029484205
 20
332.9131290316437
 30
0.0
 10
461.4359146017529
 20
333.3841840885125
 30
0.0
 10
461.4708211489966
 20
333.9108251860765
 30
0.0
 10
461.5481458329571
 20
335.0708941868229
 30
0.0
 10
461.591086594493
 20
335.7120352824469
 30
0.0
 10
461.6810137976775
 20
337.045874621844
 30
0.0
 10
461.7282941912046
 20
337.7430688018775
 30
0.0
 10
461.8029449444494
 20
338.8357507004391
 30
0.0
 10
461.8281745140669
 20
339.2037453706714
 30
0.0
 10
461.866323390599
 20
339.7581024389759
 30
0.0
 10
461.8791022996899
 20
339.9434558997045
 30
0.0
 10
461.904787449892
 20
340.3153032088395
 30
0.0
 10
461.9178327979878
 20
340.5037682058943
 30
0.0
 10
461.9306104202716
 20
340.6880808992265
 30
0.0
  0
SPLINE
  5
13C
330
1F
100
AcDbEntity
  8
0
  6
Continuous
 62
     7
370
    15
100
AcDbSpline
210
0.0
220
0.0
230
1.0
 70
     8
 71
     3
 72
    58
 73
    54
 74
     0
 42
0.00000001
 43
0.00000001
 40
0.0
 40
0.0
 40
0.0
 40
0.0
 40
0.0156250000000003
 40
0.0156250000000003
 40
0.0312500000000005
 40
0.0312500000000005
 40
0.0625000000000007
 40
0.0625000000000007
 40
0.1250000000000014
 40
0.1250000000000014
 40
0.1562500000000015
 40
0.1562500000000015
 40
0.1875000000000017
 40
0.1875000000000017
 40
0.2500000000000019
 40
0.2500000000000019
 40
0.2812500000000021
 40
0.2812500000000021
 40
0.3125000000000022
 40
0.3125000000000022
 40
0.3750000000000022
 40
0.3750000000000022
 40
0.4062500000000021
 40
0.4062500000000021
 40
0.437500000000002
 40
0.437500000000002
 40
0.5000000000000018
 40
0.5000000000000018
 40
0.5625000000000016
 40
0.5625000000000016
 40
0.5937500000000014
 40
0.5937500000000014
 40
0.6250000000000013
 40
0.6250000000000013
 40
0.687500000000001
 40
0.687500000000001
 40
0.718750000000001
 40
0.718750000000001
 40
0.7500000000000009
 40
0.7500000000000009
 40
0.8125000000000006
 40
0.8125000000000006
 40
0.8437500000000006
 40
0.8437500000000006
 40
0.8750000000000004
 40
0.8750000000000004
 40
0.9375000000000004
 40
0.9375000000000004
 40
0.9687500000000003
 40
0.9687500000000003
 40
0.9843750000000002
 40
0.9843750000000002
 40
1.0
 40
1.0
 40
1.0
 40
1.0
 10
461.9306104202718
 20
340.6880808992253
 30
0.0
 10
462.2074317968576
 20
340.6495066301698
 30
0.0
 10
462.4849268804361
 20
340.614780126465
 30
0.0
 10
463.037581389799
 20
340.5319873983333
 30
0.0
 10
463.3129081945009
 20
340.4848771307343
 30
0.0
 10
464.1359417136902
 20
340.3267156281294
 30
0.0
 10
464.6818860883859
 20
340.1984883308728
 30
0.0
 10
466.2921582010867
 20
339.7513227338347
 30
0.0
 10
467.3332441849544
 20
339.3700857499077
 30
0.0
 10
468.8450426406999
 20
338.6704967044958
 30
0.0
 10
469.3411604611238
 20
338.4155400964773
 30
0.0
 10
470.3134684695028
 20
337.861694991241
 30
0.0
 10
470.7840018312455
 20
337.5660726565263
 30
0.0
 10
472.1490733660874
 20
336.6235053982833
 30
0.0
 10
472.9975207760398
 20
335.9213843044767
 30
0.0
 10
474.1743147829626
 20
334.7534262687594
 30
0.0
 10
474.5505135346875
 20
334.3448740940921
 30
0.0
 10
475.2688950159302
 20
333.4870484872786
 30
0.0
 10
475.6070055157175
 20
333.0423691148682
 30
0.0
 10
476.5491324815388
 20
331.6739001374378
 30
0.0
 10
477.0856706481509
 20
330.7108138577338
 30
0.0
 10
477.7480967970396
 20
329.1872168439517
 30
0.0
 10
477.9455813888239
 20
328.6645153450474
 30
0.0
 10
478.2877126414143
 20
327.5980879105718
 30
0.0
 10
478.4306401482532
 20
327.0602760121344
 30
0.0
 10
478.7759881055763
 20
325.4332058861165
 30
0.0
 10
478.8959936828953
 20
324.3304798601297
 30
0.0
 10
478.8979783956581
 20
322.0861307982904
 30
0.0
 10
478.7798307111496
 20
320.9843626796268
 30
0.0
 10
478.4386398582294
 20
319.3612255939323
 30
0.0
 10
478.297322522021
 20
318.8250609616173
 30
0.0
 10
477.959129714815
 20
317.7625617706174
 30
0.0
 10
477.7615829258576
 20
317.2355814476897
 30
0.0
 10
477.0994088580591
 20
315.7041188476612
 30
0.0
 10
476.5623896904586
 20
314.7367189101063
 30
0.0
 10
475.6190873511543
 20
313.3628530108254
 30
0.0
 10
475.279823303317
 20
312.9158014164389
 30
0.0
 10
474.5635701926989
 20
312.0587037685568
 30
0.0
 10
474.1877283705294
 20
311.6495532521192
 30
0.0
 10
473.0093929811602
 20
310.4777388273072
 30
0.0
 10
472.1564613209743
 20
309.770304887826
 30
0.0
 10
470.7773743267524
 20
308.8183144935197
 30
0.0
 10
470.3025597892641
 20
308.5206878009138
 30
0.0
 10
469.3369724758523
 20
307.9712389940985
 30
0.0
 10
468.844337804233
 20
307.718093238136
 30
0.0
 10
467.3380321459426
 20
307.0209329869866
 30
0.0
 10
466.2951551796552
 20
306.6382799979594
 30
0.0
 10
464.6775989715418
 20
306.1892536445738
 30
0.0
 10
464.1340542168192
 20
306.0617688216314
 30
0.0
 10
463.3121880372005
 20
305.9038785322986
 30
0.0
 10
463.0371380003289
 20
305.8568205553977
 30
0.0
 10
462.484802509579
 20
305.7740836568835
 30
0.0
 10
462.2073298728841
 20
305.7393575613489
 30
0.0
 10
461.9306104202718
 20
305.7007974951082
 30
0.0
  0
SPLINE
  5
13D
330
1F
100
AcDbEntity
  8
0
  6
Continuous
 62
     7
370
    15
100
AcDbSpline
210
0.0
220
0.0
230
1.0
 70
     8
 71
     3
 72
    18
 73
    14
 74
     0
 42
0.00000001
 43
0.00000001
 40
0.0
 40
0.0
 40
0.0
 40
0.0
 40
0.2499999999999999
 40
0.2499999999999999
 40
0.4999999999999998
 40
0.4999999999999998
 40
0.7499999999999997
 40
0.7499999999999997
 40
0.8749999999999999
 40
0.8749999999999999
 40
0.9375
 40
0.9375
 40
1.0
 40
1.0
 40
1.0
 40
1.0
 10
461.4048029484205
 20
313.4757493626898
 30
0.0
 10
461.4359147000963
 20
313.0046928168241
 30
0.0
 10
461.4708212300613
 20
312.4780519995505
 30
0.0
 10
461.5481454614839
 20
311.3179897730911
 30
0.0
 10
461.5910863654389
 20
310.676846513357
 30
0.0
 10
461.6810138944892
 20
309.3430023325005
 30
0.0
 10
461.7282938930059
 20
308.6458140587741
 30
0.0
 10
461.8029428945234
 20
307.5531576484065
 30
0.0
 10
461.8281737085246
 20
307.1851447480586
 30
0.0
 10
461.8663230169435
 20
306.6307813760287
 30
0.0
 10
461.8791020438002
 20
306.4454262021791
 30
0.0
 10
461.9047873753671
 20
306.0735762613622
 30
0.0
 10
461.9178328429772
 20
305.8851095413258
 30
0.0
 10
461.9306104202719
 20
305.7007974951075
 30
0.0
  0
SPLINE
  5
13E
330
1F
100
AcDbEntity
  8
0
  6
Continuous
 62
     7
370
    15
100
AcDbSpline
210
0.0
220
0.0
230
1.0
 70
     8
 71
     3
 72
    18
 73
    14
 74
     0
 42
0.00000001
 43
0.00000001
 40
0.0
 40
0.0
 40
0.0
 40
0.0
 40
0.2500000000000002
 40
0.2500000000000002
 40
0.5000000000000004
 40
0.5000000000000004
 40
0.7500000000000007
 40
0.7500000000000007
 40
0.875000000000001
 40
0.875000000000001
 40
0.9375000000000004
 40
0.9375000000000004
 40
1.0
 40
1.0
 40
1.0
 40
1.0
 10
566.3010648201748
 20
313.4757493626898
 30
0.0
 10
566.2699531668424
 20
313.004694305821
 30
0.0
 10
566.2350466195985
 20
312.4780532082571
 30
0.0
 10
566.1577219356382
 20
311.3179842075107
 30
0.0
 10
566.1147811741023
 20
310.6768431118867
 30
0.0
 10
566.0248539709181
 20
309.3430037724896
 30
0.0
 10
565.9775735773909
 20
308.6458095924562
 30
0.0
 10
565.9029228241462
 20
307.5531276938946
 30
0.0
 10
565.8776932545196
 20
307.1851330236627
 30
0.0
 10
565.8395443779849
 20
306.6307759553582
 30
0.0
 10
565.8267654689085
 20
306.4454224946284
 30
0.0
 10
565.8010803187093
 20
306.0735751854928
 30
0.0
 10
565.788034970525
 20
305.8851101884455
 30
0.0
 10
565.7752573483235
 20
305.7007974951076
 30
0.0
  0
SPLINE
  5
13F
330
1F
100
AcDbEntity
  8
0
  6
Continuous
 62
     7
370
    15
100
AcDbSpline
210
0.0
220
0.0
230
1.0
 70
     8
 71
     3
 72
    58
 73
    54
 74
     0
 42
0.00000001
 43
0.00000001
 40
0.0
 40
0.0
 40
0.0
 40
0.0
 40
0.0156249999999998
 40
0.0156249999999998
 40
0.0312499999999997
 40
0.0312499999999997
 40
0.0624999999999997
 40
0.0624999999999997
 40
0.1249999999999997
 40
0.1249999999999997
 40
0.1562499999999997
 40
0.1562499999999997
 40
0.1874999999999997
 40
0.1874999999999997
 40
0.2499999999999997
 40
0.2499999999999997
 40
0.2812499999999997
 40
0.2812499999999997
 40
0.3124999999999997
 40
0.3124999999999997
 40
0.3749999999999994
 40
0.3749999999999994
 40
0.4062499999999993
 40
0.4062499999999993
 40
0.4374999999999992
 40
0.4374999999999992
 40
0.4999999999999991
 40
0.4999999999999991
 40
0.562499999999999
 40
0.562499999999999
 40
0.593749999999999
 40
0.593749999999999
 40
0.624999999999999
 40
0.624999999999999
 40
0.687499999999999
 40
0.687499999999999
 40
0.718749999999999
 40
0.718749999999999
 40
0.7499999999999989
 40
0.7499999999999989
 40
0.8124999999999989
 40
0.8124999999999989
 40
0.8437499999999991
 40
0.8437499999999991
 40
0.8749999999999993
 40
0.8749999999999993
 40
0.9374999999999997
 40
0.9374999999999997
 40
0.9687499999999999
 40
0.9687499999999999
 40
0.984375
 40
0.984375
 40
1.0
 40
1.0
 40
1.0
 40
1.0
 10
565.7752573483234
 20
305.7007974951082
 30
0.0
 10
565.4984441204521
 20
305.7393706286636
 30
0.0
 10
565.2209142418268
 20
305.7741032473346
 30
0.0
 10
564.6684524983665
 20
305.8568651224098
 30
0.0
 10
564.3933507467217
 20
305.9039365269495
 30
0.0
 10
563.5713621775894
 20
306.0618659609935
 30
0.0
 10
563.0277793833462
 20
306.1893753949767
 30
0.0
 10
561.4102335790933
 20
306.6384412053254
 30
0.0
 10
560.3673922285442
 20
307.021109926904
 30
0.0
 10
558.8611176408041
 20
307.7182982195199
 30
0.0
 10
558.3684932060031
 20
307.9714530594416
 30
0.0
 10
557.4029262440658
 20
308.5209197663062
 30
0.0
 10
556.9281207702643
 20
308.8185561783754
 30
0.0
 10
555.5490737742338
 20
309.7705656963936
 30
0.0
 10
554.6961671673558
 20
310.4780106197005
 30
0.0
 10
553.5178680894252
 20
311.6498401312112
 30
0.0
 10
553.1420381578881
 20
312.0589954431148
 30
0.0
 10
552.425808599707
 20
312.9161024313611
 30
0.0
 10
552.0865590959343
 20
313.3631547942099
 30
0.0
 10
551.1432967980174
 20
314.7370240720955
 30
0.0
 10
550.6063024648527
 20
315.7044252194618
 30
0.0
 10
549.9441639857723
 20
317.235888701989
 30
0.0
 10
549.7466291601319
 20
317.7628686890689
 30
0.0
 10
549.4084609572334
 20
318.8253609856151
 30
0.0
 10
549.2671552455536
 20
319.3615220508089
 30
0.0
 10
548.9259977515027
 20
320.9846481671363
 30
0.0
 10
548.8078703122196
 20
322.0864151073529
 30
0.0
 10
548.8098936284292
 20
324.3307353652821
 30
0.0
 10
548.9299147748463
 20
325.4334475992797
 30
0.0
 10
549.2752827476603
 20
327.0604975828175
 30
0.0
 10
549.4182163518169
 20
327.5983028609789
 30
0.0
 10
549.7603588793239
 20
328.6647172051977
 30
0.0
 10
549.9578470992325
 20
329.1874083514566
 30
0.0
 10
550.6202838601408
 20
330.7109805285426
 30
0.0
 10
551.1568267619008
 20
331.6740515480034
 30
0.0
 10
552.098958142819
 20
333.0424991256838
 30
0.0
 10
552.4370704689255
 20
333.4871725261299
 30
0.0
 10
553.1554509032236
 20
334.344982170766
 30
0.0
 10
553.5316486823829
 20
334.7535269019633
 30
0.0
 10
554.7084386446513
 20
335.9214639563735
 30
0.0
 10
555.5568818722452
 20
336.62357284147
 30
0.0
 10
556.9219453263047
 20
337.5661239501363
 30
0.0
 10
557.392475684945
 20
337.8617412721773
 30
0.0
 10
558.3647770851773
 20
338.415577072663
 30
0.0
 10
558.8608901092915
 20
338.6705288093227
 30
0.0
 10
560.3726754312462
 20
339.3701056731667
 30
0.0
 10
561.4137519444463
 20
339.7513363683564
 30
0.0
 10
563.0240089049576
 20
340.1984949577106
 30
0.0
 10
563.5699479713354
 20
340.3267203052893
 30
0.0
 10
564.3929733605735
 20
340.4848795473063
 30
0.0
 10
564.6682974358422
 20
340.5319891724582
 30
0.0
 10
565.2209464467992
 20
340.614780841519
 30
0.0
 10
565.4984387459706
 20
340.6495070167512
 30
0.0
 10
565.7752573483234
 20
340.6880808992253
 30
0.0
  0
SPLINE
  5
140
330
1F
100
AcDbEntity
  8
0
  6
Continuous
 62
     7
370
    15
100
AcDbSpline
210
0.0
220
0.0
230
1.0
 70
     8
 71
     3
 72
    18
 73
    14
 74
     0
 42
0.00000001
 43
0.00000001
 40
0.0
 40
0.0
 40
0.0
 40
0.0
 40
0.2500000000000004
 40
0.2500000000000004
 40
0.5000000000000008
 40
0.5000000000000008
 40
0.7500000000000011
 40
0.7500000000000011
 40
0.8750000000000011
 40
0.8750000000000011
 40
0.9375000000000006
 40
0.9375000000000006
 40
1.0
 40
1.0
 40
1.0
 40
1.0
 10
566.3010648201748
 20
332.9131290316437
 30
0.0
 10
566.269953068499
 20
333.3841855775094
 30
0.0
 10
566.235046538534
 20
333.9108263947829
 30
0.0
 10
566.1577223071114
 20
335.0708886212421
 30
0.0
 10
566.1147814031564
 20
335.7120318809762
 30
0.0
 10
566.0248538741062
 20
337.0458760618326
 30
0.0
 10
565.9775738755894
 20
337.7430643355588
 30
0.0
 10
565.9029248740717
 20
338.8357207459263
 30
0.0
 10
565.877694060082
 20
339.2037336462748
 30
0.0
 10
565.8395447516667
 20
339.758097018305
 30
0.0
 10
565.8267657247964
 20
339.9434521921536
 30
0.0
 10
565.8010803932309
 20
340.3153021329705
 30
0.0
 10
565.7880349257034
 20
340.5037688530127
 30
0.0
 10
565.7752573483234
 20
340.6880808992252
 30
0.0
  0
SPLINE
  5
141
330
1F
100
AcDbEntity
  8
0
  6
Continuous
 62
     7
370
    15
100
AcDbSpline
210
0.0
220
0.0
230
1.0
 70
     8
 71
     3
 72
    16
 73
    12
 74
     0
 42
0.00000001
 43
0.00000001
 40
0.0
 40
0.0
 40
0.0
 40
0.0
 40
0.2499999999999999
 40
0.2499999999999999
 40
0.3750000000000002
 40
0.3750000000000002
 40
0.5000000000000006
 40
0.5000000000000006
 40
0.7500000000000002
 40
0.7500000000000002
 40
1.0
 40
1.0
 40
1.0
 40
1.0
 10
583.1282902529226
 20
305.7007974951082
 30
0.0
 10
583.366845664378
 20
306.4274795936537
 30
0.0
 10
583.5825706155119
 20
307.1472108986243
 30
0.0
 10
583.8742793438367
 20
308.2154939753187
 30
0.0
 10
583.9661929152126
 20
308.5696780364205
 30
0.0
 10
584.1396844090409
 20
309.2737377629358
 30
0.0
 10
584.2202364436948
 20
309.6195728523334
 30
0.0
 10
584.4424801587686
 20
310.6262101844875
 30
0.0
 10
584.5661303606239
 20
311.2617212165038
 30
0.0
 10
584.7739841391199
 20
312.4549976039183
 30
0.0
 10
584.8553213364013
 20
312.9960784657515
 30
0.0
 10
584.9201308630709
 20
313.4757493626898
 30
0.0
  0
LINE
  5
142
330
1F
100
AcDbEntity
  8
0
  6
Continuous
 62
     7
370
    15
100
AcDbLine
 10
583.1282907135
 20
305.7007981932
 30
0.0
 11
565.7752589292
 21
305.7007981932
 31
0.0
  0
SPLINE
  5
143
330
1F
100
AcDbEntity
  8
0
  6
Continuous
 62
     7
370
    15
100
AcDbSpline
210
0.0
220
0.0
230
1.0
 70
     8
 71
     3
 72
    16
 73
    12
 74
     0
 42
0.00000001
 43
0.00000001
 40
0.0
 40
0.0
 40
0.0
 40
0.0
 40
0.2499999999999999
 40
0.2499999999999999
 40
0.3750000000000002
 40
0.3750000000000002
 40
0.5000000000000006
 40
0.5000000000000006
 40
0.7500000000000002
 40
0.7500000000000002
 40
1.0
 40
1.0
 40
1.0
 40
1.0
 10
444.5775775156726
 20
340.6880808992253
 30
0.0
 10
444.3390221042173
 20
339.9613988006798
 30
0.0
 10
444.1232971530833
 20
339.2416674957093
 30
0.0
 10
443.8315884247585
 20
338.1733844190148
 30
0.0
 10
443.7396748533828
 20
337.819200357913
 30
0.0
 10
443.5661833595543
 20
337.1151406313978
 30
0.0
 10
443.4856313249005
 20
336.7693055420002
 30
0.0
 10
443.2633876098266
 20
335.762668209846
 30
0.0
 10
443.1397374079714
 20
335.1271571778297
 30
0.0
 10
442.9318836294755
 20
333.9338807904152
 30
0.0
 10
442.850546432194
 20
333.392799928582
 30
0.0
 10
442.7857369055244
 20
332.9131290316437
 30
0.0
  0
LINE
  5
144
330
1F
100
AcDbEntity
  8
0
  6
Continuous
 62
     7
370
    15
100
AcDbLine
 10
444.5775770551
 20
340.6880802011
 30
0.0
 11
461.9306088394
 21
340.6880802011
 31
0.0
  0
SPLINE
  5
145
330
1F
100
AcDbEntity
  8
0
  6
Continuous
 62
     7
370
    15
100
AcDbSpline
210
0.0
220
0.0
230
1.0
 70
     8
 71
     3
 72
    10
 73
     6
 74
     0
 42
0.00000001
 43
0.00000001
 40
0.0
 40
0.0
 40
0.0
 40
0.0
 40
0.5
 40
0.5
 40
1.0
 40
1.0
 40
1.0
 40
1.0
 10
440.4177672928557
 20
335.4451047989684
 30
0.0
 10
440.5756036719951
 20
336.3912363132097
 30
0.0
 10
440.760584826957
 20
337.3843791844732
 30
0.0
 10
441.1773999998087
 20
339.3843330253544
 30
0.0
 10
441.4099623417786
 20
340.3972512311194
 30
0.0
 10
441.6688851558983
 20
341.4225934969324
 30
0.0
  0
LWPOLYLINE
  5
146
330
1F
100
AcDbEntity
  8
0
  6
Continuous
 62
     7
370
    15
100
AcDbPolyline
 90
        9
 70
   128
 43
0.0
 10
441.6688852913
 20
341.4225938266
 10
441.7247720963
 20
341.4084805643
 10
441.8902941949
 20
341.3666828072
 10
442.159088791
 20
341.2988061553
 10
442.5208219296
 20
341.2074601745
 10
442.9615982777
 20
341.0961540884
 10
443.4644677645
 20
340.9691663927
 10
444.0101184851
 20
340.8313772178
 10
444.5775770551
 20
340.6880802011
  0
SPLINE
  5
147
330
1F
100
AcDbEntity
  8
0
  6
Continuous
 62
     7
370
    15
100
AcDbSpline
210
0.0
220
0.0
230
1.0
 70
     8
 71
     3
 72
    10
 73
     6
 74
     0
 42
0.00000001
 43
0.00000001
 40
0.0
 40
0.0
 40
0.0
 40
0.0
 40
0.5
 40
0.5
 40
1.0
 40
1.0
 40
1.0
 40
1.0
 10
587.2881004757396
 20
310.9437735953652
 30
0.0
 10
587.1302640966002
 20
309.9976420811239
 30
0.0
 10
586.9452829416384
 20
309.0044992098603
 30
0.0
 10
586.5284677687866
 20
307.0045453689792
 30
0.0
 10
586.2959054268167
 20
305.9916271632142
 30
0.0
 10
586.036982612697
 20
304.9662848974011
 30
0.0
  0
LWPOLYLINE
  5
148
330
1F
100
AcDbEntity
  8
0
  6
Continuous
 62
     7
370
    15
100
AcDbPolyline
 90
        9
 70
   128
 43
0.0
 10
586.0369824773
 20
304.9662845677
 10
585.9810956723
 20
304.98039783
 10
585.8155735737
 20
305.0221955871
 10
585.5467789775
 20
305.090072239
 10
585.185045839
 20
305.1814182198
 10
584.7442694909
 20
305.292724306
 10
584.2414000041
 20
305.4197120017
 10
583.6957492835
 20
305.5575011766
 10
583.1282907135
 20
305.7007981932
  0
LINE
  5
149
330
1F
100
AcDbEntity
  8
0
  6
Continuous
 62
     7
370
    15
100
AcDbLine
 10
565.7752589292
 20
340.6880802011
 30
0.0
 11
583.1282907135
 21
340.6880802011
 31
0.0
  0
SPLINE
  5
14A
330
1F
100
AcDbEntity
  8
0
  6
Continuous
 62
     7
370
    15
100
AcDbSpline
210
0.0
220
0.0
230
1.0
 70
     8
 71
     3
 72
    16
 73
    12
 74
     0
 42
0.00000001
 43
0.00000001
 40
0.0
 40
0.0
 40
0.0
 40
0.0
 40
0.2499999999999998
 40
0.2499999999999998
 40
0.4999999999999997
 40
0.4999999999999997
 40
0.6249999999999996
 40
0.6249999999999996
 40
0.7499999999999996
 40
0.7499999999999996
 40
1.0
 40
1.0
 40
1.0
 40
1.0
 10
584.9201308630708
 20
332.9131290316437
 30
0.0
 10
584.8553187637854
 20
333.392818969131
 30
0.0
 10
584.7739156441867
 20
333.9342931627426
 30
0.0
 10
584.5661186511261
 20
335.1272052470592
 30
0.0
 10
584.4425335824262
 20
335.7623601333072
 30
0.0
 10
584.2205015203806
 20
336.7681378795398
 30
0.0
 10
584.1401805154562
 20
337.1130660291794
 30
0.0
 10
583.9665419480325
 20
337.8178449352358
 30
0.0
 10
583.8745593831793
 20
338.1723323421775
 30
0.0
 10
583.5826696880611
 20
339.2413576445109
 30
0.0
 10
583.3668578611868
 20
339.9613616470368
 30
0.0
 10
583.1282902529226
 20
340.6880808992253
 30
0.0
  0
SPLINE
  5
14B
330
1F
100
AcDbEntity
  8
0
  6
Continuous
 62
     7
370
    15
100
AcDbSpline
210
0.0
220
0.0
230
1.0
 70
     8
 71
     3
 72
    10
 73
     6
 74
     0
 42
0.00000001
 43
0.00000001
 40
0.0
 40
0.0
 40
0.0
 40
0.0
 40
0.5
 40
0.5
 40
1.0
 40
1.0
 40
1.0
 40
1.0
 10
586.036982612697
 20
341.4225934969324
 30
0.0
 10
586.2958280297885
 20
340.3975577257189
 30
0.0
 10
586.5284096686535
 20
339.3846151694215
 30
0.0
 10
586.9453614802864
 20
337.383998972587
 30
0.0
 10
587.1303146745842
 20
336.3909331294638
 30
0.0
 10
587.2881004757396
 20
335.4451047989684
 30
0.0
  0
LWPOLYLINE
  5
14C
330
1F
100
AcDbEntity
  8
0
  6
Continuous
 62
     7
370
    15
100
AcDbPolyline
 90
        9
 70
   128
 43
0.0
 10
586.0369824773
 20
341.4225938266
 10
585.9810956723
 20
341.4084805643
 10
585.8155735737
 20
341.3666828072
 10
585.5467789775
 20
341.2988061553
 10
585.185045839
 20
341.2074601745
 10
584.7442694909
 20
341.0961540884
 10
584.2414000041
 20
340.9691663927
 10
583.6957492835
 20
340.8313772178
 10
583.1282907135
 20
340.6880802011
  0
LINE
  5
14D
330
1F
100
AcDbEntity
  8
0
  6
Continuous
 62
     7
370
    15
100
AcDbLine
 10
461.9306088394
 20
305.7007981932
 30
0.0
 11
444.5775770551
 21
305.7007981932
 31
0.0
  0
SPLINE
  5
14E
330
1F
100
AcDbEntity
  8
0
  6
Continuous
 62
     7
370
    15
100
AcDbSpline
210
0.0
220
0.0
230
1.0
 70
     8
 71
     3
 72
    16
 73
    12
 74
     0
 42
0.00000001
 43
0.00000001
 40
0.0
 40
0.0
 40
0.0
 40
0.0
 40
0.2500000000000004
 40
0.2500000000000004
 40
0.5000000000000008
 40
0.5000000000000008
 40
0.6250000000000006
 40
0.6250000000000006
 40
0.7500000000000002
 40
0.7500000000000002
 40
1.0
 40
1.0
 40
1.0
 40
1.0
 10
442.7857369055244
 20
313.4757493626898
 30
0.0
 10
442.8505490048099
 20
312.9960594252025
 30
0.0
 10
442.9319521244086
 20
312.4545852315909
 30
0.0
 10
443.1397491174693
 20
311.2616731472744
 30
0.0
 10
443.2633341861691
 20
310.6265182610263
 30
0.0
 10
443.4853662482147
 20
309.6207405147937
 30
0.0
 10
443.5656872531391
 20
309.2758123651541
 30
0.0
 10
443.7393258205627
 20
308.5710334590977
 30
0.0
 10
443.831308385416
 20
308.216546052156
 30
0.0
 10
444.1231980805342
 20
307.1475207498227
 30
0.0
 10
444.3390099074085
 20
306.4275167472967
 30
0.0
 10
444.5775775156726
 20
305.7007974951082
 30
0.0
  0
SPLINE
  5
14F
330
1F
100
AcDbEntity
  8
0
  6
Continuous
 62
     7
370
    15
100
AcDbSpline
210
0.0
220
0.0
230
1.0
 70
     8
 71
     3
 72
    10
 73
     6
 74
     0
 42
0.00000001
 43
0.00000001
 40
0.0
 40
0.0
 40
0.0
 40
0.0
 40
0.4999999999999996
 40
0.4999999999999996
 40
1.0
 40
1.0
 40
1.0
 40
1.0
 10
441.6688851558982
 20
304.9662848974011
 30
0.0
 10
441.4100397388067
 20
305.9913206686147
 30
0.0
 10
441.1774580999418
 20
307.004263224912
 30
0.0
 10
440.760506288309
 20
309.0048794217466
 30
0.0
 10
440.5755530940111
 20
309.9979452648697
 30
0.0
 10
440.4177672928557
 20
310.9437735953652
 30
0.0
  0
LWPOLYLINE
  5
150
330
1F
100
AcDbEntity
  8
0
  6
Continuous
 62
     7
370
    15
100
AcDbPolyline
 90
        9
 70
   128
 43
0.0
 10
441.6688852913
 20
304.9662845677
 10
441.7247720963
 20
304.98039783
 10
441.8902941949
 20
305.0221955871
 10
442.159088791
 20
305.090072239
 10
442.5208219296
 20
305.1814182198
 10
442.9615982777
 20
305.292724306
 10
443.4644677645
 20
305.4197120017
 10
444.0101184851
 20
305.5575011766
 10
444.5775770551
 20
305.7007981932
  0
ARC
  5
151
330
1F
100
AcDbEntity
  8
0
  6
Continuous
 62
     7
370
    15
100
AcDbCircle
 10
513.8529338843
 20
323.1944391972
 30
0.0
 40
74.45
100
AcDbArc
 50
14.1722326151
 51
165.8277673849
  0
ARC
  5
152
330
1F
100
AcDbEntity
  8
0
  6
Continuous
 62
     7
370
    15
100
AcDbCircle
 10
513.8529338843
 20
323.1944391972
 30
0.0
 40
71.44999999999997
100
AcDbArc
 50
14.1722326151
 51
165.8277673849
  0
ARC
  5
153
330
1F
100
AcDbEntity
  8
0
  6
Continuous
 62
     7
370
    15
100
AcDbCircle
 10
513.8529338843
 20
323.1944391972
 30
0.0
 40
74.44999999999999
100
AcDbArc
 50
194.1722326151
 51
345.8277673849
  0
ARC
  5
154
330
1F
100
AcDbEntity
  8
0
  6
Continuous
 62
     7
370
    15
100
AcDbCircle
 10
513.8529338843
 20
323.1944391972
 30
0.0
 40
71.44999999999996
100
AcDbArc
 50
194.1722326151
 51
345.8277673849
  0
LINE
  5
155
330
1F
100
AcDbEntity
  8
0
  6
Continuous
 62
     7
370
    15
100
AcDbLine
 10
614.8029365546
 20
377.1944405979
 30
0.0
 11
622.8029304153
 21
377.1944405979
 31
0.0
  0
LINE
  5
156
330
1F
100
AcDbEntity
  8
0
  6
Continuous
 62
     7
370
    15
100
AcDbLine
 10
620.8029338128
 20
375.1944402701
 30
0.0
 11
616.8029331571
 21
375.1944402701
 31
0.0
  0
CIRCLE
  5
157
330
1F
100
AcDbEntity
  8
0
  6
Continuous
 62
     7
370
    15
100
AcDbCircle
 10
579.6138645346
 20
388.9553698475
 30
0.0
 40
5.499999999999886
  0
CIRCLE
  5
158
330
1F
100
AcDbEntity
  8
0
  6
Continuous
 62
     7
370
    15
100
AcDbCircle
 10
448.0920032339
 20
388.9553698475
 30
0.0
 40
5.500000000000057
  0
CIRCLE
  5
159
330
1F
100
AcDbEntity
  8
0
  6
Continuous
 62
     7
370
    15
100
AcDbCircle
 10
448.0920032339
 20
257.4335085468
 30
0.0
 40
5.5
  0
CIRCLE
  5
15A
330
1F
100
AcDbEntity
  8
0
  6
Continuous
 62
     7
370
    15
100
AcDbCircle
 10
579.6138645346
 20
257.4335085468
 30
0.0
 40
5.499999999999886
  0
CIRCLE
  5
15B
330
1F
100
AcDbEntity
  8
0
  6
Continuous
 62
     7
370
    15
100
AcDbCircle
 10
513.8529338843
 20
323.1944391972
 30
0.0
 40
75.49999999999966
  0
CIRCLE
  5
15C
330
1F
100
AcDbEntity
  8
0
  6
Continuous
 62
     7
370
    15
100
AcDbCircle
 10
513.8529338843
 20
323.1944391972
 30
0.0
 40
101.9999999999999
  0
CIRCLE
  5
15D
330
1F
100
AcDbEntity
  8
0
  6
Continuous
 62
     7
370
    15
100
AcDbCircle
 10
513.8529338843
 20
323.1944391972
 30
0.0
 40
75.0
  0
ARC
  5
15E
330
1F
100
AcDbEntity
  8
0
  6
Continuous
 62
     7
370
    15
100
AcDbCircle
 10
541.8529338843
 20
213.2023940303
 30
0.0
 40
8.000000000000114
100
AcDbArc
 50
104.2820863182
 51
180.0
  0
LINE
  5
15F
330
1F
100
AcDbEntity
  8
0
  6
Continuous
 62
     7
370
    15
100
AcDbLine
 10
493.8529343313
 20
213.1944397932
 30
0.0
 11
533.8529334373
 21
213.1944397932
 31
0.0
  0
LINE
  5
160
330
1F
100
AcDbEntity
  8
0
  6
Continuous
 62
     7
370
    15
100
AcDbLine
 10
493.8529343313
 20
213.2023970133
 30
0.0
 11
493.8529343313
 21
213.1944397932
 31
0.0
  0
LINE
  5
161
330
1F
100
AcDbEntity
  8
0
  6
Continuous
 62
     7
370
    15
100
AcDbLine
 10
403.8529344803
 20
344.194438914
 30
0.0
 11
403.8529344803
 21
302.1944394803
 31
0.0
  0
LINE
  5
162
330
1F
100
AcDbEntity
  8
0
  6
Continuous
 62
     7
370
    15
100
AcDbLine
 10
533.8529334373
 20
433.1944386011
 30
0.0
 11
493.8529343313
 21
433.1944386011
 31
0.0
  0
ARC
  5
163
330
1F
100
AcDbEntity
  8
0
  6
Continuous
 62
     7
370
    15
100
AcDbCircle
 10
541.8529338843
 20
433.1864843641
 30
0.0
 40
8.000000000000114
100
AcDbArc
 50
180.0
 51
255.7179136818
  0
ARC
  5
164
330
1F
100
AcDbEntity
  8
0
  6
Continuous
 62
     7
370
    15
100
AcDbCircle
 10
513.8529338843
 20
323.1944391972
 30
0.0
 40
105.5000000000001
100
AcDbArc
 50
20.6355827602
 51
75.7179136818
  0
LINE
  5
165
330
1F
100
AcDbEntity
  8
0
  6
Continuous
 62
     7
370
    15
100
AcDbLine
 10
623.8529332883
 20
355.1944407171
 30
0.0
 11
620.0708695656
 21
355.1944407171
 31
0.0
  0
LINE
  5
166
330
1F
100
AcDbEntity
  8
0
  6
Continuous
 62
     7
370
    15
100
AcDbLine
 10
620.0708695656
 20
291.1944376772
 30
0.0
 11
623.8529332883
 21
291.1944376772
 31
0.0
  0
CIRCLE
  5
167
330
1F
100
AcDbEntity
  8
0
  6
Continuous
 62
     7
370
    15
100
AcDbCircle
 10
579.6138645346
 20
388.9553698475
 30
0.0
 40
4.0
  0
CIRCLE
  5
168
330
1F
100
AcDbEntity
  8
0
  6
Continuous
 62
     7
370
    15
100
AcDbCircle
 10
579.6138645346
 20
257.4335085468
 30
0.0
 40
4.0
  0
CIRCLE
  5
169
330
1F
100
AcDbEntity
  8
0
  6
Continuous
 62
     7
370
    15
100
AcDbCircle
 10
448.0920032339
 20
388.9553698475
 30
0.0
 40
4.0
  0
LINE
  5
16A
330
1F
100
AcDbEntity
  8
0
  6
Continuous
 62
     7
370
    15
100
AcDbLine
 10
533.8529334373
 20
213.1944397932
 30
0.0
 11
533.8529334373
 21
213.2023970133
 31
0.0
  0
ARC
  5
16B
330
1F
100
AcDbEntity
  8
0
  6
Continuous
 62
     7
370
    15
100
AcDbCircle
 10
404.1203042794
 20
294.1944391972
 30
0.0
 40
8.0
100
AcDbArc
 50
14.8036061155
 51
90.0
  0
ARC
  5
16C
330
1F
100
AcDbEntity
  8
0
  6
Continuous
 62
     7
370
    15
100
AcDbCircle
 10
620.0708702228
 20
363.1944391972
 30
0.0
 40
8.0
100
AcDbArc
 50
200.6355827602
 51
270.0
  0
CIRCLE
  5
16D
330
1F
100
AcDbEntity
  8
0
  6
Continuous
 62
     7
370
    15
100
AcDbCircle
 10
448.0920032339
 20
257.4335085468
 30
0.0
 40
4.0
  0
ARC
  5
16E
330
1F
100
AcDbEntity
  8
0
  6
Continuous
 62
     7
370
    15
100
AcDbCircle
 10
620.0708702228
 20
283.1944391972
 30
0.0
 40
8.000000000000016
100
AcDbArc
 50
90.0
 51
159.3644172398
  0
ARC
  5
16F
330
1F
100
AcDbEntity
  8
0
  6
Continuous
 62
     7
370
    15
100
AcDbCircle
 10
404.1203042794
 20
352.1944391972
 30
0.0
 40
8.0
100
AcDbArc
 50
270.0
 51
345.1963938845
  0
ARC
  5
170
330
1F
100
AcDbEntity
  8
0
  6
Continuous
 62
     7
370
    15
100
AcDbCircle
 10
485.8529338843
 20
433.1864843641
 30
0.0
 40
8.000000000000043
100
AcDbArc
 50
284.2820863182
 51
0.0
  0
LINE
  5
171
330
1F
100
AcDbEntity
  8
0
  6
Continuous
 62
     7
370
    15
100
AcDbLine
 10
533.8529334373
 20
433.186481381
 30
0.0
 11
533.8529334373
 21
433.1944386011
 31
0.0
  0
LINE
  5
172
330
1F
100
AcDbEntity
  8
0
  6
Continuous
 62
     7
370
    15
100
AcDbLine
 10
493.8529343313
 20
433.1944386011
 30
0.0
 11
493.8529343313
 21
433.186481381
 31
0.0
  0
ARC
  5
173
330
1F
100
AcDbEntity
  8
0
  6
Continuous
 62
     7
370
    15
100
AcDbCircle
 10
485.8529338843
 20
213.2023940303
 30
0.0
 40
8.000000000000014
100
AcDbArc
 50
0.0
 51
75.7179136818
  0
LINE
  5
174
330
1F
100
AcDbEntity
  8
0
  6
Continuous
 62
     7
370
    15
100
AcDbLine
 10
404.1203060156
 20
344.194438914
 30
0.0
 11
403.8529344803
 21
344.194438914
 31
0.0
  0
ARC
  5
175
330
1F
100
AcDbEntity
  8
0
  6
Continuous
 62
     7
370
    15
100
AcDbCircle
 10
513.8529338843
 20
323.1944391972
 30
0.0
 40
105.5
100
AcDbArc
 50
194.8036061155
 51
255.7179136818
  0
LINE
  5
176
330
1F
100
AcDbEntity
  8
0
  6
Continuous
 62
     7
370
    15
100
AcDbLine
 10
403.8529344803
 20
302.1944394803
 30
0.0
 11
404.1203060156
 21
302.1944394803
 31
0.0
  0
ARC
  5
177
330
1F
100
AcDbEntity
  8
0
  6
Continuous
 62
     7
370
    15
100
AcDbCircle
 10
513.8529338843
 20
323.1944391972
 30
0.0
 40
105.5000000000001
100
AcDbArc
 50
284.2820863182
 51
339.3644172398
  0
ARC
  5
178
330
1F
100
AcDbEntity
  8
0
  6
Continuous
 62
     7
370
    15
100
AcDbCircle
 10
513.8529338843
 20
323.1944391972
 30
0.0
 40
105.5
100
AcDbArc
 50
104.2820863182
 51
165.1963938845
  0
SPLINE
  5
179
330
1F
100
AcDbEntity
  8
0
  6
Continuous
 62
     7
370
    15
100
AcDbSpline
210
0.0
220
0.0
230
1.0
 70
     8
 71
     3
 72
    11
 73
     7
 74
     0
 42
0.00000001
 43
0.00000001
 40
0.0
 40
0.0
 40
0.0
 40
0.0
 40
0.2615934614810496
 40
0.5645315335859288
 40
0.8758102365789128
 40
1.0
 40
1.0
 40
1.0
 40
1.0
 10
681.1056085831273
 20
404.720212007149
 30
0.0
 10
681.0975324265038
 20
404.7339477224637
 30
0.0
 10
681.0801036839875
 20
404.7635900705085
 30
0.0
 10
680.7798114523606
 20
405.2719482801833
 30
0.0
 10
680.3865598918054
 20
405.9338144226001
 30
0.0
 10
680.0790554845047
 20
406.4466184565446
 30
0.0
 10
679.9913593536961
 20
406.5928632861217
 30
0.0
  0
LINE
  5
17A
330
1F
100
AcDbEntity
  8
0
  6
Continuous
 62
     7
370
    15
100
AcDbLine
 10
679.9913593537
 20
364.3581295854
 30
0.0
 11
679.9913593537
 21
364.2943637913
 31
0.0
  0
SPLINE
  5
17B
330
1F
100
AcDbEntity
  8
0
  6
Continuous
 62
     7
370
    15
100
AcDbSpline
210
0.0
220
0.0
230
1.0
 70
    24
 71
     1
 72
     4
 73
     2
 74
     0
 42
0.00000001
 43
0.00000001
 40
0.0
 40
0.0
 40
1.0
 40
1.0
 10
671.7930235869038
 20
370.6724891906817
 30
0.0
 10
671.6148355013478
 20
370.6201041585048
 30
0.0
  0
SPLINE
  5
17C
330
1F
100
AcDbEntity
  8
0
  6
Continuous
 62
     7
370
    15
100
AcDbSpline
210
0.0
220
0.0
230
1.0
 70
     8
 71
     3
 72
    14
 73
    10
 74
     0
 42
0.00000001
 43
0.00000001
 40
0.0
 40
0.0
 40
0.0
 40
0.0
 40
0.0692247672967744
 40
0.237814187443778
 40
0.411026081708149
 40
0.5838516931764013
 40
0.7621205233269138
 40
0.9350916845261483
 40
0.9999999999999999
 40
0.9999999999999999
 40
0.9999999999999999
 40
0.9999999999999999
 10
679.2754032618153
 20
364.1549448019107
 30
0.0
 10
679.3619685084658
 20
364.402847169931
 30
0.0
 10
679.6593540338627
 20
365.2544888946825
 30
0.0
 10
680.0548337697877
 20
366.6127947389821
 30
0.0
 10
680.3516100404657
 20
368.0791009996323
 30
0.0
 10
680.4317602793868
 20
369.2788200012133
 30
0.0
 10
680.2685315135584
 20
370.1122502568725
 30
0.0
 10
680.0004734286409
 20
370.5555368992079
 30
0.0
 10
679.7259646127753
 20
370.5950243982165
 30
0.0
 10
679.6510615355122
 20
370.6057990437587
 30
0.0
  0
LWPOLYLINE
  5
17D
330
1F
100
AcDbEntity
  8
0
  6
Continuous
 62
     7
370
    15
100
AcDbPolyline
 90
        3
 70
   128
 43
0.0
 10
679.9913593537
 20
406.5928632861
 10
679.9533613927
 20
406.696433807
 10
679.9253025061
 20
406.7477906591
  0
LWPOLYLINE
  5
17E
330
1F
100
AcDbEntity
  8
0
  6
Continuous
 62
     7
370
    15
100
AcDbPolyline
 90
       20
 70
   128
 43
0.0
 10
653.1607755429
 20
531.0614059216
 10
652.8413393504
 20
531.0666660315
 10
652.1165766722
 20
531.0784975535
 10
650.9987511641
 20
531.0963789469
 10
649.5709964043
 20
531.1185518747
 10
647.8422828919
 20
531.1442265755
 10
645.7917937047
 20
531.1755786186
 10
643.5228981978
 20
531.196782971
 10
641.0673805482
 20
531.1934749132
 10
638.5315307385
 20
531.1861286408
 10
636.1250081069
 20
531.1902413612
 10
633.7737538821
 20
531.1970362907
 10
631.4198621518
 20
531.1827162748
 10
629.2744153148
 20
531.1515430456
 10
627.4058693058
 20
531.1241696125
 10
625.8519911176
 20
531.1002383476
 10
624.6585720188
 20
531.0812393671
 10
623.858498872
 20
531.0682157522
 10
623.44500655
 20
531.0614059216
 10
623.44500655
 20
531.0614059216
  0
LINE
  5
17F
330
1F
100
AcDbEntity
  8
0
  6
Continuous
 62
     7
370
    15
100
AcDbLine
 10
622.8029304153
 20
393.1944394952
 30
0.0
 11
614.8029365546
 21
393.1944394952
 31
0.0
  0
LINE
  5
180
330
1F
100
AcDbEntity
  8
0
  6
Continuous
 62
     7
370
    15
100
AcDbLine
 10
628.8029351241
 20
399.1944367534
 30
0.0
 11
628.8029351241
 21
407.1944380647
 31
0.0
  0
ARC
  5
181
330
1F
100
AcDbEntity
  8
0
  6
Continuous
 62
     7
370
    15
100
AcDbCircle
 10
257.4114685743
 20
391.5644948637
 30
0.0
 40
0.7582312661603032
100
AcDbArc
 50
14.673813115
 51
76.9792346962
  0
ARC
  5
182
330
1F
100
AcDbEntity
  8
0
  6
Continuous
 62
     7
370
    15
100
AcDbCircle
 10
252.7113839605
 20
371.0647304939
 30
0.0
 40
0.7582986287694041
100
AcDbArc
 50
323.2482558552
 51
25.5474640721
  0
ARC
  5
183
330
1F
100
AcDbEntity
  8
0
  6
Continuous
 62
     7
370
    15
100
AcDbCircle
 10
252.6764969791
 20
371.2873327715
 30
0.0
 40
0.9363694763734984
100
AcDbArc
 50
251.4391379563
 51
313.5508040817
  0
ARC
  5
184
330
1F
100
AcDbEntity
  8
0
  6
Continuous
 62
     7
370
    15
100
AcDbCircle
 10
257.2156408107
 20
391.6759480955
 30
0.0
 40
0.9363534563907797
100
AcDbArc
 50
302.8671576749
 51
4.9799313528
  0
ARC
  5
185
330
1F
100
AcDbEntity
  8
0
  6
Continuous
 62
     7
370
    15
100
AcDbCircle
 10
244.1052585061
 20
407.9368825487
 30
0.0
 40
0.936366666545105
100
AcDbArc
 50
354.296333325
 51
56.408024849
  0
ARC
  5
186
330
1F
100
AcDbEntity
  8
0
  6
Continuous
 62
     7
370
    15
100
AcDbCircle
 10
244.3145273187
 20
408.0203273679
 30
0.0
 40
0.7583885999815577
100
AcDbArc
 50
66.1095052128
 51
128.4004638643
  0
ARC
  5
187
330
1F
100
AcDbEntity
  8
0
  6
Continuous
 62
     7
370
    15
100
AcDbCircle
 10
233.7536723112
 20
361.957953253
 30
0.0
 40
0.7582530416287109
100
AcDbArc
 50
271.8177780233
 51
334.121257646
  0
ARC
  5
188
330
1F
100
AcDbEntity
  8
0
  6
Continuous
 62
     7
370
    15
100
AcDbCircle
 10
233.9059404134
 20
362.1240741859
 30
0.0
 40
0.9363804285904247
100
AcDbArc
 50
200.0108970619
 51
262.1218092867
  0
ARC
  5
189
330
1F
100
AcDbEntity
  8
0
  6
Continuous
 62
     7
370
    15
100
AcDbCircle
 10
223.2177609568
 20
407.825278866
 30
0.0
 40
0.936398371699315
100
AcDbArc
 50
45.7259947613
 51
107.8355221875
  0
ARC
  5
18A
330
1F
100
AcDbEntity
  8
0
  6
Continuous
 62
     7
370
    15
100
AcDbCircle
 10
223.2828937059
 20
408.0410231521
 30
0.0
 40
0.7582716357808865
100
AcDbArc
 50
117.5328041325
 51
179.8348948428
  0
ARC
  5
18B
330
1F
100
AcDbEntity
  8
0
  6
Continuous
 62
     7
370
    15
100
AcDbCircle
 10
215.0385521281
 20
371.0862818328
 30
0.0
 40
0.9363749894651987
100
AcDbArc
 50
148.5822770894
 51
210.6934959072
  0
ARC
  5
18C
330
1F
100
AcDbEntity
  8
0
  6
Continuous
 62
     7
370
    15
100
AcDbCircle
 10
214.8137347375
 20
371.1017293957
 30
0.0
 40
0.7582300680921349
100
AcDbArc
 50
220.388048635
 51
282.693528163
  0
ARC
  5
18D
330
1F
100
AcDbEntity
  8
0
  6
Continuous
 62
     7
370
    15
100
AcDbCircle
 10
210.2818707188
 20
391.4252345711
 30
0.0
 40
0.9363814162442899
100
AcDbArc
 50
97.1536732499
 51
159.2642703769
  0
ARC
  5
18E
330
1F
100
AcDbEntity
  8
0
  6
Continuous
 62
     7
370
    15
100
AcDbCircle
 10
210.1537568919
 20
391.6106388613
 30
0.0
 40
0.7582131503748405
100
AcDbArc
 50
168.9590901247
 51
231.2656798337
  0
LWPOLYLINE
  5
18F
330
1F
100
AcDbEntity
  8
0
  6
Continuous
 62
     7
370
    15
100
AcDbPolyline
 90
       20
 70
   128
 43
0.0
 10
218.7857245718
 20
531.1863223559
 10
218.8350632479
 20
519.5001015907
 10
218.8848973875
 20
507.9925308472
 10
218.9316563
 20
497.3894307858
 10
218.9749478986
 20
487.6907716042
 10
219.0144806792
 20
478.8965682036
 10
219.0494583612
 20
471.1397836453
 10
219.0805133124
 20
464.2554322725
 10
219.1076157307
 20
458.2435289866
 10
219.1307991435
 20
453.1040737873
 10
219.1504770582
 20
448.7675378567
 10
219.1668692668
 20
445.184173668
 10
219.1826356267
 20
441.5963316804
 10
219.1980238696
 20
437.8998453265
 10
219.2129194428
 20
434.0947146064
 10
219.2242098664
 20
431.0287485367
 10
219.2356055294
 20
427.7204225308
 10
219.2484363605
 20
423.661390925
 10
219.2624713917
 20
418.8194001561
 10
219.2773557891
 20
413.1944427734
  0
LWPOLYLINE
  5
190
330
1F
100
AcDbEntity
  8
0
  6
Continuous
 62
     7
370
    15
100
AcDbPolyline
 90
       20
 70
   128
 43
0.0
 10
248.2773549547
 20
413.1944427734
 10
248.2931175892
 20
419.1351408607
 10
248.3079014038
 20
424.1950983649
 10
248.3212817152
 20
428.3743078357
 10
248.3332017129
 20
431.7781726366
 10
248.3452874859
 20
435.0105548745
 10
248.3577709337
 20
438.1674850827
 10
248.3729114448
 20
441.7912910229
 10
248.3884105151
 20
445.3102970964
 10
248.4045512666
 20
448.8370517737
 10
248.4239116003
 20
453.1040737873
 10
248.4475532239
 20
458.3450505978
 10
248.4752572765
 20
464.4904980904
 10
248.5070600798
 20
471.5403864628
 10
248.5429243808
 20
479.4947306162
 10
248.5827328329
 20
488.3535454517
 10
248.6254740198
 20
497.9345152622
 10
248.6715428223
 20
508.3879480606
 10
248.7205620547
 20
519.7138140446
 10
248.7690876861
 20
531.2101791149
  0
ARC
  5
191
330
1F
100
AcDbEntity
  8
0
  6
Continuous
 62
     7
370
    15
100
AcDbCircle
 10
246.7690520742
 20
531.19444047
 30
0.0
 40
1.999992170721373
100
AcDbArc
 50
359.9356263046
 51
90.0003232088
  0
ARC
  5
192
330
1F
100
AcDbEntity
  8
0
  6
Continuous
 62
     7
370
    15
100
AcDbCircle
 10
220.7856644661
 20
531.1944391972
 30
0.0
 40
1.999999999999997
100
AcDbArc
 50
90.0000189072
 51
180.1699205162
  0
LINE
  5
193
330
1F
100
AcDbEntity
  8
0
  6
Continuous
 62
     7
370
    15
100
AcDbLine
 10
258.5773560842
 20
425.1944372898
 30
0.0
 11
254.7773550888
 21
425.1944372898
 31
0.0
  0
LINE
  5
194
330
1F
100
AcDbEntity
  8
0
  6
Continuous
 62
     7
370
    15
100
AcDbLine
 10
254.7773550888
 20
221.1944411045
 30
0.0
 11
258.5773560842
 21
221.1944411045
 31
0.0
  0
LINE
  5
195
330
1F
100
AcDbEntity
  8
0
  6
Continuous
 62
     7
370
    15
100
AcDbLine
 10
212.777355655
 20
425.1944372898
 30
0.0
 11
208.9773546596
 21
425.1944372898
 31
0.0
  0
LINE
  5
196
330
1F
100
AcDbEntity
  8
0
  6
Continuous
 62
     7
370
    15
100
AcDbLine
 10
208.9773546596
 20
221.1944411045
 30
0.0
 11
212.777355655
 21
221.1944411045
 31
0.0
  0
LINE
  5
197
330
1F
100
AcDbEntity
  8
0
  6
Continuous
 62
     7
370
    15
100
AcDbLine
 10
254.7773550888
 20
404.1944394356
 30
0.0
 11
254.5773554285
 21
404.1944394356
 31
0.0
  0
LINE
  5
198
330
1F
100
AcDbEntity
  8
0
  6
Continuous
 62
     7
370
    15
100
AcDbLine
 10
212.9773553153
 20
404.1944394356
 30
0.0
 11
212.777355655
 21
404.1944394356
 31
0.0
  0
LINE
  5
199
330
1F
100
AcDbEntity
  8
0
  6
Continuous
 62
     7
370
    15
100
AcDbLine
 10
212.777355655
 20
242.1944389587
 30
0.0
 11
212.9773553153
 21
242.1944389587
 31
0.0
  0
LINE
  5
19A
330
1F
100
AcDbEntity
  8
0
  6
Continuous
 62
     7
370
    15
100
AcDbLine
 10
254.5773554285
 20
242.1944389587
 30
0.0
 11
254.7773550888
 21
242.1944389587
 31
0.0
  0
SPLINE
  5
19B
330
1F
100
AcDbEntity
  8
0
  6
Continuous
 62
     7
370
    15
100
AcDbSpline
210
0.0
220
0.0
230
1.0
 70
    24
 71
     3
 72
    19
 73
    15
 74
     0
 42
0.00000001
 43
0.00000001
 40
0.0
 40
0.0
 40
0.0
 40
0.0
 40
0.0390832383026004
 40
0.0780297673005087
 40
0.138808988080986
 40
0.2381075449572626
 40
0.4910420665483883
 40
0.6249649829188457
 40
0.7616682751638376
 40
0.8316203309316518
 40
0.9020118587535031
 40
0.9480830953731127
 40
0.9875353891607576
 40
1.0
 40
1.0
 40
1.0
 40
1.0
 10
226.7773551558336
 20
304.9472166693051
 30
0.0
 10
226.7773551558336
 20
304.9348236354597
 30
0.0
 10
226.7773551558336
 20
304.9100809173767
 30
0.0
 10
226.7773551558336
 20
304.6985705543482
 30
0.0
 10
226.7773551558336
 20
304.2561494727757
 30
0.0
 10
226.7773551558336
 20
303.1051071876982
 30
0.0
 10
226.7773551558336
 20
301.6246534126408
 30
0.0
 10
226.7773551558336
 20
300.0586035845514
 30
0.0
 10
226.7773551558336
 20
299.0440389742572
 30
0.0
 10
226.7773551558336
 20
298.2733043384871
 30
0.0
 10
226.7773551558336
 20
297.812256381381
 30
0.0
 10
226.7773551558336
 20
297.5370129677092
 30
0.0
 10
226.7773551558336
 20
297.4483450900287
 30
0.0
 10
226.7773551558336
 20
297.4429558530273
 30
0.0
 10
226.7773551558336
 20
297.4416619634469
 30
0.0
  0
SPLINE
  5
19C
330
1F
100
AcDbEntity
  8
0
  6
Continuous
 62
     7
370
    15
100
AcDbSpline
210
0.0
220
0.0
230
1.0
 70
     8
 71
     3
 72
    18
 73
    14
 74
     0
 42
0.00000001
 43
0.00000001
 40
0.0
 40
0.0
 40
0.0
 40
0.0
 40
0.0344336820135696
 40
0.0724914376297771
 40
0.130634495345536
 40
0.2236185753877317
 40
0.410435602881658
 40
0.5001955542131911
 40
0.7376503226618256
 40
0.856870286982824
 40
0.9094909896064634
 40
0.962570277977967
 40
1.0
 40
1.0
 40
1.0
 40
1.0
 10
226.7773551558336
 20
297.4416619634469
 30
0.0
 10
226.7690461474522
 20
297.4368649320952
 30
0.0
 10
226.7515536247934
 20
297.426765991793
 30
0.0
 10
226.5916906813494
 20
297.3344683491013
 30
0.0
 10
226.2403605691312
 20
297.1316277598104
 30
0.0
 10
225.4390166512376
 20
296.6689728955571
 30
0.0
 10
224.4771244433116
 20
296.1136221120869
 30
0.0
 10
223.1453973430339
 20
295.3447516692324
 30
0.0
 10
221.9764242703565
 20
294.6698447313915
 30
0.0
 10
220.9643464107155
 20
294.0855191266172
 30
0.0
 10
220.5192307061655
 20
293.8285334604143
 30
0.0
 10
220.311539557277
 20
293.7086202534458
 30
0.0
 10
220.2873560404848
 20
293.6946597827501
 30
0.0
 10
220.2773550217232
 20
293.6888864731629
 30
0.0
  0
SPLINE
  5
19D
330
1F
100
AcDbEntity
  8
0
  6
Continuous
 62
     7
370
    15
100
AcDbSpline
210
0.0
220
0.0
230
1.0
 70
     8
 71
     3
 72
    19
 73
    15
 74
     0
 42
0.00000001
 43
0.00000001
 40
0.0
 40
0.0
 40
0.0
 40
0.0
 40
0.0390832281892506
 40
0.0780296889031233
 40
0.1388089767184927
 40
0.2381075759102961
 40
0.4910421690211013
 40
0.6249649566681903
 40
0.7616681333288898
 40
0.8316204259453805
 40
0.9020119704446361
 40
0.9480830501551338
 40
0.9875354060717156
 40
1.0
 40
1.0
 40
1.0
 40
1.0
 10
220.2773550217232
 20
293.6888864731629
 30
0.0
 10
220.2666225604464
 20
293.6950831803756
 30
0.0
 10
220.2451951949654
 20
293.707454910103
 30
0.0
 10
220.0620219878906
 20
293.8132066757552
 30
0.0
 10
219.6788737210654
 20
294.0344199402323
 30
0.0
 10
218.6820423241086
 20
294.6099411794774
 30
0.0
 10
217.3999312134786
 20
295.3501681305078
 30
0.0
 10
216.0436922094731
 20
296.1331917651283
 30
0.0
 10
215.1650540679418
 20
296.64047510579
 30
0.0
 10
214.4975779282157
 20
297.0258421896766
 30
0.0
 10
214.0982958631356
 20
297.2563669030535
 30
0.0
 10
213.8599343832208
 20
297.3939870195279
 30
0.0
 10
213.7831383945869
 20
297.4383222026892
 30
0.0
 10
213.7784753549565
 20
297.4410153687984
 30
0.0
 10
213.7773558189353
 20
297.4416619634469
 30
0.0
  0
SPLINE
  5
19E
330
1F
100
AcDbEntity
  8
0
  6
Continuous
 62
     7
370
    15
100
AcDbSpline
210
0.0
220
0.0
230
1.0
 70
    24
 71
     3
 72
    19
 73
    15
 74
     0
 42
0.00000001
 43
0.00000001
 40
0.0
 40
0.0
 40
0.0
 40
0.0
 40
0.0390832383026004
 40
0.0780297673005087
 40
0.138808988080986
 40
0.2381075449572626
 40
0.4910420665483883
 40
0.6249649829188457
 40
0.7616682751638376
 40
0.8316203309316518
 40
0.9020118587535031
 40
0.9480830953731127
 40
0.9875353891607576
 40
1.0
 40
1.0
 40
1.0
 40
1.0
 10
213.7773558189353
 20
297.4416619634469
 30
0.0
 10
213.7773558189353
 20
297.4540549972921
 30
0.0
 10
213.7773558189353
 20
297.4787977153753
 30
0.0
 10
213.7773558189353
 20
297.6903080784038
 30
0.0
 10
213.7773558189353
 20
298.1327291599762
 30
0.0
 10
213.7773558189353
 20
299.2837714450538
 30
0.0
 10
213.7773558189353
 20
300.7642252201111
 30
0.0
 10
213.7773558189353
 20
302.3302750482006
 30
0.0
 10
213.7773558189353
 20
303.3448396584948
 30
0.0
 10
213.7773558189353
 20
304.1155742942649
 30
0.0
 10
213.7773558189353
 20
304.576622251371
 30
0.0
 10
213.7773558189353
 20
304.8518656650428
 30
0.0
 10
213.7773558189353
 20
304.9405335427233
 30
0.0
 10
213.7773558189353
 20
304.9459227797247
 30
0.0
 10
213.7773558189353
 20
304.9472166693051
 30
0.0
  0
SPLINE
  5
19F
330
1F
100
AcDbEntity
  8
0
  6
Continuous
 62
     7
370
    15
100
AcDbSpline
210
0.0
220
0.0
230
1.0
 70
     8
 71
     3
 72
    18
 73
    14
 74
     0
 42
0.00000001
 43
0.00000001
 40
0.0
 40
0.0
 40
0.0
 40
0.0
 40
0.0344336689164809
 40
0.0724914448143899
 40
0.1306345655743031
 40
0.2236186076913401
 40
0.4104355368515253
 40
0.5001955036376659
 40
0.7376503653876568
 40
0.8568702024391198
 40
0.9094910117870862
 40
0.9625702750152486
 40
1.0
 40
1.0
 40
1.0
 40
1.0
 10
213.7773558189353
 20
304.9472166693051
 30
0.0
 10
213.7856644158763
 20
304.9520137043261
 30
0.0
 10
213.8031560807377
 20
304.9621126571951
 30
0.0
 10
213.9630200915599
 20
305.0544103461418
 30
0.0
 10
214.3143509243476
 20
305.2572505533383
 30
0.0
 10
215.1156935932959
 20
305.7199063413737
 30
0.0
 10
216.0775877883512
 20
306.275253264967
 30
0.0
 10
217.4093117364223
 20
307.0441289108336
 30
0.0
 10
218.5782865720412
 20
307.7190341541914
 30
0.0
 10
219.5903639301494
 20
308.3033579900949
 30
0.0
 10
220.035480012136
 20
308.5603457728035
 30
0.0
 10
220.2431718102461
 20
308.680256494109
 30
0.0
 10
220.2673543880393
 20
308.6942189559998
 30
0.0
 10
220.2773550217232
 20
308.6999930909117
 30
0.0
  0
SPLINE
  5
1A0
330
1F
100
AcDbEntity
  8
0
  6
Continuous
 62
     7
370
    15
100
AcDbSpline
210
0.0
220
0.0
230
1.0
 70
     8
 71
     3
 72
    19
 73
    15
 74
     0
 42
0.00000001
 43
0.00000001
 40
0.0
 40
0.0
 40
0.0
 40
0.0
 40
0.0390832438517477
 40
0.0780297535336295
 40
0.1388089401177278
 40
0.2381075737637892
 40
0.4910421303766088
 40
0.6249649185773509
 40
0.7616681836146089
 40
0.8316203942290826
 40
0.9020119390193454
 40
0.9480830698622514
 40
0.9875354010027046
 40
1.0
 40
1.0
 40
1.0
 40
1.0
 10
220.2773550217232
 20
308.6999930909117
 30
0.0
 10
220.2880878879759
 20
308.6937965782042
 30
0.0
 10
220.3095160711529
 20
308.6814252315174
 30
0.0
 10
220.4926886458668
 20
308.5756700535308
 30
0.0
 10
220.8758363413628
 20
308.3544592252969
 30
0.0
 10
221.8726694374273
 20
307.7789389410431
 30
0.0
 10
223.1547787107612
 20
307.0387102840912
 30
0.0
 10
224.5110179790263
 20
306.2556865701475
 30
0.0
 10
225.3896566480147
 20
305.7484040729596
 30
0.0
 10
226.0571324182706
 20
305.3630362319442
 30
0.0
 10
226.4564135071639
 20
305.1325116143558
 30
0.0
 10
226.6947775260408
 20
304.9948917113321
 30
0.0
 10
226.7715706824407
 20
304.9505564197676
 30
0.0
 10
226.77623525169
 20
304.9478632623703
 30
0.0
 10
226.7773551558336
 20
304.9472166693051
 30
0.0
  0
CIRCLE
  5
1A1
330
1F
100
AcDbEntity
  8
0
  6
Continuous
 62
     7
370
    15
100
AcDbCircle
 10
220.2773553719
 20
301.1944391972
 30
0.0
 40
5.505553499465115
  0
SPLINE
  5
1A2
330
1F
100
AcDbEntity
  8
0
  6
Continuous
 62
     7
370
    15
100
AcDbSpline
210
0.0
220
0.0
230
1.0
 70
     8
 71
     3
 72
    11
 73
     7
 74
     0
 42
0.00000001
 43
0.00000001
 40
0.0
 40
0.0
 40
0.0
 40
0.0
 40
0.2999201551485162
 40
0.5572999301244693
 40
0.8169227518616313
 40
1.0
 40
1.0
 40
1.0
 40
1.0
 10
246.277355558165
 20
352.1226427054246
 30
0.0
 10
246.428810892552
 20
352.2100856244102
 30
0.0
 10
246.7102392854823
 20
352.3725686446543
 30
0.0
 10
247.0341339862486
 20
352.5595677762204
 30
0.0
 10
247.2433956432399
 20
352.6803877334623
 30
0.0
 10
247.2674203703141
 20
352.694256525153
 30
0.0
 10
247.2773557220777
 20
352.6999919211705
 30
0.0
  0
SPLINE
  5
1A3
330
1F
100
AcDbEntity
  8
0
  6
Continuous
 62
     7
370
    15
100
AcDbSpline
210
0.0
220
0.0
230
1.0
 70
     8
 71
     3
 72
    19
 73
    15
 74
     0
 42
0.00000001
 43
0.00000001
 40
0.0
 40
0.0
 40
0.0
 40
0.0
 40
0.0390832281892506
 40
0.0780296889031233
 40
0.1388089767184927
 40
0.2381075759102961
 40
0.4910421690211013
 40
0.6249649566681903
 40
0.7616681333288898
 40
0.8316204259453805
 40
0.9020119704446361
 40
0.9480830501551338
 40
0.9875354060717156
 40
1.0
 40
1.0
 40
1.0
 40
1.0
 10
247.2773557220777
 20
352.6999919211705
 30
0.0
 10
247.2880881833545
 20
352.6937952139578
 30
0.0
 10
247.3095155488355
 20
352.6814234842304
 30
0.0
 10
247.4926887559104
 20
352.5756717185782
 30
0.0
 10
247.8758370227355
 20
352.3544584541011
 30
0.0
 10
248.8726684196923
 20
351.778937214856
 30
0.0
 10
250.1547795303223
 20
351.0387102638255
 30
0.0
 10
251.5110185343278
 20
350.2556866292051
 30
0.0
 10
252.3896566758591
 20
349.7484032885434
 30
0.0
 10
253.0571328155852
 20
349.3630362046569
 30
0.0
 10
253.4564148806653
 20
349.1325114912799
 30
0.0
 10
253.6947763605801
 20
348.9948913748054
 30
0.0
 10
253.771572349214
 20
348.9505561916442
 30
0.0
 10
253.7762353888444
 20
348.947863025535
 30
0.0
 10
253.7773549248656
 20
348.9472164308866
 30
0.0
  0
SPLINE
  5
1A4
330
1F
100
AcDbEntity
  8
0
  6
Continuous
 62
     7
370
    15
100
AcDbSpline
210
0.0
220
0.0
230
1.0
 70
    24
 71
     3
 72
    19
 73
    15
 74
     0
 42
0.00000001
 43
0.00000001
 40
0.0
 40
0.0
 40
0.0
 40
0.0
 40
0.0390832383026004
 40
0.0780297673005087
 40
0.138808988080986
 40
0.2381075449572626
 40
0.4910420665483883
 40
0.6249649829188457
 40
0.7616682751638376
 40
0.8316203309316518
 40
0.9020118587535031
 40
0.9480830953731127
 40
0.9875353891607576
 40
1.0
 40
1.0
 40
1.0
 40
1.0
 10
253.7773549248656
 20
348.9472164308866
 30
0.0
 10
253.7773549248656
 20
348.9348233970412
 30
0.0
 10
253.7773549248656
 20
348.9100806789581
 30
0.0
 10
253.7773549248656
 20
348.6985703159296
 30
0.0
 10
253.7773549248656
 20
348.2561492343572
 30
0.0
 10
253.7773549248656
 20
347.1051069492796
 30
0.0
 10
253.7773549248656
 20
345.6246531742223
 30
0.0
 10
253.7773549248656
 20
344.0586033461328
 30
0.0
 10
253.7773549248656
 20
343.0440387358386
 30
0.0
 10
253.7773549248656
 20
342.2733041000685
 30
0.0
 10
253.7773549248656
 20
341.8122561429624
 30
0.0
 10
253.7773549248656
 20
341.5370127292906
 30
0.0
 10
253.7773549248656
 20
341.4483448516101
 30
0.0
 10
253.7773549248656
 20
341.4429556146087
 30
0.0
 10
253.7773549248656
 20
341.4416617250283
 30
0.0
  0
SPLINE
  5
1A5
330
1F
100
AcDbEntity
  8
0
  6
Continuous
 62
     7
370
    15
100
AcDbSpline
210
0.0
220
0.0
230
1.0
 70
     8
 71
     3
 72
    18
 73
    14
 74
     0
 42
0.00000001
 43
0.00000001
 40
0.0
 40
0.0
 40
0.0
 40
0.0
 40
0.0344336689164809
 40
0.0724914448143899
 40
0.1306345655743031
 40
0.2236186076913401
 40
0.4104355368515253
 40
0.5001955036376659
 40
0.7376503653876568
 40
0.8568702024391198
 40
0.9094910117870862
 40
0.9625702750152486
 40
1.0
 40
1.0
 40
1.0
 40
1.0
 10
253.7773549248656
 20
341.4416617250283
 30
0.0
 10
253.7690463279246
 20
341.4368646900073
 30
0.0
 10
253.7515546630632
 20
341.4267657371383
 30
0.0
 10
253.591690652241
 20
341.3344680481916
 30
0.0
 10
253.2403598194533
 20
341.1316278409951
 30
0.0
 10
252.439017150505
 20
340.6689720529597
 30
0.0
 10
251.4771229554497
 20
340.1136251293664
 30
0.0
 10
250.1453990073786
 20
339.3447494834998
 30
0.0
 10
248.9764241717598
 20
338.669844240142
 30
0.0
 10
247.9643468136515
 20
338.0855204042385
 30
0.0
 10
247.5192307316649
 20
337.8285326215299
 30
0.0
 10
247.3115389335548
 20
337.7086219002244
 30
0.0
 10
247.2873563557617
 20
337.6946594383336
 30
0.0
 10
247.2773557220777
 20
337.6888853034218
 30
0.0
  0
SPLINE
  5
1A6
330
1F
100
AcDbEntity
  8
0
  6
Continuous
 62
     7
370
    15
100
AcDbSpline
210
0.0
220
0.0
230
1.0
 70
     8
 71
     3
 72
    11
 73
     7
 74
     0
 42
0.00000001
 43
0.00000001
 40
0.0
 40
0.0
 40
0.0
 40
0.0
 40
0.1905152070745422
 40
0.3803638896716129
 40
0.6766381539526198
 40
0.9999999999999999
 40
0.9999999999999999
 40
0.9999999999999999
 40
0.9999999999999999
 10
247.2773557220777
 20
337.6888853034218
 30
0.0
 10
247.266668663464
 20
337.6950553670619
 30
0.0
 10
247.2453319353052
 20
337.7073739081471
 30
0.0
 10
247.0613476108616
 20
337.8135977857597
 30
0.0
 10
246.7466560405251
 20
337.9952851650892
 30
0.0
 10
246.4382825986753
 20
338.1733249549787
 30
0.0
 10
246.277355558165
 20
338.2662363818129
 30
0.0
  0
SPLINE
  5
1A7
330
1F
100
AcDbEntity
  8
0
  6
Continuous
 62
     7
370
    15
100
AcDbSpline
210
0.0
220
0.0
230
1.0
 70
     8
 71
     3
 72
    14
 73
    10
 74
     0
 42
0.00000001
 43
0.00000001
 40
0.0
 40
0.0
 40
0.0
 40
0.0
 40
0.1575839895624381
 40
0.3151114587898928
 40
0.4729863876660276
 40
0.6308559498580241
 40
0.784361663980855
 40
0.9379123528715234
 40
1.0
 40
1.0
 40
1.0
 40
1.0
 10
241.7471464415271
 20
406.5928632861217
 30
0.0
 10
240.969100734767
 20
406.2395641464327
 30
0.0
 10
239.4132883813476
 20
405.5330925841519
 30
0.0
 10
236.862592661596
 20
404.8975775697321
 30
0.0
 10
234.2320219045328
 20
404.6318644451622
 30
0.0
 10
231.6055343293885
 20
404.7572834689545
 30
0.0
 10
229.0725853422562
 20
405.2705157532228
 30
0.0
 10
227.1554225273118
 20
405.9390702544448
 30
0.0
 10
226.1088877323211
 20
406.4467031372376
 30
0.0
 10
225.8075643022735
 20
406.5928632861217
 30
0.0
  0
ARC
  5
1A8
330
1F
100
AcDbEntity
  8
0
  6
Continuous
 62
     7
370
    15
100
AcDbCircle
 10
233.7773553719
 20
386.1944391972
 30
0.0
 40
21.90007581424706
100
AcDbArc
 50
59.9123247387
 51
68.6591038327
  0
SPLINE
  5
1A9
330
1F
100
AcDbEntity
  8
0
  6
Continuous
 62
     7
370
    15
100
AcDbSpline
210
0.0
220
0.0
230
1.0
 70
     8
 71
     3
 72
    14
 73
    10
 74
     0
 42
0.00000001
 43
0.00000001
 40
0.0
 40
0.0
 40
0.0
 40
0.0
 40
0.1575840198299455
 40
0.3151116070368226
 40
0.4729863857642592
 40
0.6308560555277986
 40
0.7843618572767252
 40
0.9379125400831833
 40
1.0
 40
1.0
 40
1.0
 40
1.0
 10
254.6945698251206
 20
392.6816160327037
 30
0.0
 10
253.9332458361353
 20
393.0696384569567
 30
0.0
 10
252.4108704969116
 20
393.845544350236
 30
0.0
 10
250.3236767735335
 20
395.4435264167147
 30
0.0
 10
248.4757922906603
 20
397.3345121901413
 30
0.0
 10
246.9362616970834
 20
399.4661821645028
 30
0.0
 10
245.7582610175631
 20
401.7665194147924
 30
0.0
 10
245.085616853649
 20
403.6822507102891
 30
0.0
 10
244.8300005582867
 20
404.8169679863817
 30
0.0
 10
244.7564024170119
 20
405.1436806565364
 30
0.0
  0
ARC
  5
1AA
330
1F
100
AcDbEntity
  8
0
  6
Continuous
 62
     7
370
    15
100
AcDbCircle
 10
233.7773553719
 20
386.1944391972
 30
0.0
 40
21.90007581424709
100
AcDbArc
 50
8.4837533101
 51
17.2305324042
  0
SPLINE
  5
1AB
330
1F
100
AcDbEntity
  8
0
  6
Continuous
 62
     7
370
    15
100
AcDbSpline
210
0.0
220
0.0
230
1.0
 70
     8
 71
     3
 72
    14
 73
    10
 74
     0
 42
0.00000001
 43
0.00000001
 40
0.0
 40
0.0
 40
0.0
 40
0.0
 40
0.1575838565980358
 40
0.3151113298603443
 40
0.4729863064621247
 40
0.6308559195139813
 40
0.7843617631301113
 40
0.9379122054815406
 40
1.0
 40
1.0
 40
1.0
 40
1.0
 10
251.8909033079821
 20
373.8853918856223
 30
0.0
 10
251.7195932660872
 20
374.7225459483581
 30
0.0
 10
251.3770344768473
 20
376.3965545409995
 30
0.0
 10
251.3250414303285
 20
379.0247136711878
 30
0.0
 10
251.6513408251213
 20
381.6484580743622
 30
0.0
 10
252.3580647798197
 20
384.181187220088
 30
0.0
 10
253.4220676883929
 20
386.5364217012205
 30
0.0
 10
254.500460124076
 20
388.2567554416558
 30
0.0
 10
255.2282465978333
 20
389.164087963106
 30
0.0
 10
255.4377950419862
 20
389.4253323322375
 30
0.0
  0
ARC
  5
1AC
330
1F
100
AcDbEntity
  8
0
  6
Continuous
 62
     7
370
    15
100
AcDbCircle
 10
233.7773553719
 20
386.1944391972
 30
0.0
 40
21.90007581424711
100
AcDbArc
 50
317.0551818815
 51
325.8019609756
  0
SPLINE
  5
1AD
330
1F
100
AcDbEntity
  8
0
  6
Continuous
 62
     7
370
    15
100
AcDbSpline
210
0.0
220
0.0
230
1.0
 70
     8
 71
     3
 72
    14
 73
    10
 74
     0
 42
0.00000001
 43
0.00000001
 40
0.0
 40
0.0
 40
0.0
 40
0.0
 40
0.1575840496719295
 40
0.3151114511940764
 40
0.472986404612245
 40
0.6308559173735081
 40
0.7843616450530936
 40
0.9379122282134457
 40
1.0
 40
1.0
 40
1.0
 40
1.0
 10
235.4473664582897
 20
364.3581295853694
 30
0.0
 10
235.9950706356732
 20
365.0140232277275
 30
0.0
 10
237.090282102314
 20
366.3255747324815
 30
0.0
 10
239.1126432290097
 20
368.0048558018893
 30
0.0
 10
241.3674129953887
 20
369.3856224117381
 30
0.0
 10
243.7882141322975
 20
370.4122160554775
 30
0.0
 10
246.2930063405216
 20
371.0488073581488
 30
0.0
 10
248.3103845414334
 20
371.2782978038013
 30
0.0
 10
249.473534021229
 20
371.2750046899631
 30
0.0
 10
249.8084343661744
 20
371.274056518658
 30
0.0
  0
ARC
  5
1AE
330
1F
100
AcDbEntity
  8
0
  6
Continuous
 62
     7
370
    15
100
AcDbCircle
 10
233.7773553719
 20
386.1944391972
 30
0.0
 40
21.90007581424717
100
AcDbArc
 50
265.626610453
 51
274.373389547
  0
SPLINE
  5
1AF
330
1F
100
AcDbEntity
  8
0
  6
Continuous
 62
     7
370
    15
100
AcDbSpline
210
0.0
220
0.0
230
1.0
 70
     8
 71
     3
 72
    14
 73
    10
 74
     0
 42
0.00000001
 43
0.00000001
 40
0.0
 40
0.0
 40
0.0
 40
0.0
 40
0.1575839707205444
 40
0.3151114256560936
 40
0.4729863368774326
 40
0.630855849297625
 40
0.7843616147782884
 40
0.9379121894722523
 40
0.9999999999999999
 40
0.9999999999999999
 40
0.9999999999999999
 40
0.9999999999999999
 10
217.7462763776261
 20
371.274056518658
 30
0.0
 10
218.6005622103187
 20
371.2547872332488
 30
0.0
 10
220.3088274953389
 20
371.2162555731511
 30
0.0
 10
222.882663568714
 20
370.6821243737469
 30
0.0
 10
225.3680162861741
 20
369.780168025006
 30
0.0
 10
227.6799845346952
 20
368.5275803130141
 30
0.0
 10
229.7394033878587
 20
366.9661619149991
 30
0.0
 10
231.1766421002878
 20
365.5319976347422
 30
0.0
 10
231.8992787093489
 20
364.6205567461828
 30
0.0
 10
232.1073442855109
 20
364.3581295853694
 30
0.0
  0
ARC
  5
1B0
330
1F
100
AcDbEntity
  8
0
  6
Continuous
 62
     7
370
    15
100
AcDbCircle
 10
233.7773553719
 20
386.1944391972
 30
0.0
 40
21.90007581424712
100
AcDbArc
 50
214.1980390244
 51
222.9448181185
  0
SPLINE
  5
1B1
330
1F
100
AcDbEntity
  8
0
  6
Continuous
 62
     7
370
    15
100
AcDbSpline
210
0.0
220
0.0
230
1.0
 70
     8
 71
     3
 72
    14
 73
    10
 74
     0
 42
0.00000001
 43
0.00000001
 40
0.0
 40
0.0
 40
0.0
 40
0.0
 40
0.1575838729478261
 40
0.3151114770653424
 40
0.472986390394961
 40
0.6308558517556957
 40
0.784361732766761
 40
0.9379122330564561
 40
1.0
 40
1.0
 40
1.0
 40
1.0
 10
212.1169157018144
 20
389.4253323322375
 30
0.0
 10
212.6344883137612
 20
388.7454112073555
 30
0.0
 10
213.6694487268305
 20
387.385811738567
 30
0.0
 10
214.8566098126683
 20
385.0404813063173
 30
0.0
 10
215.7010239242864
 20
382.5349937489208
 30
0.0
 10
216.1631976653268
 20
379.9464486252468
 30
0.0
 10
216.2264603005912
 20
377.3628025085246
 30
0.0
 10
216.001288872884
 20
375.3449379651693
 30
0.0
 10
215.7392539774954
 20
374.2116845110108
 30
0.0
 10
215.6638074358184
 20
373.8853918856223
 30
0.0
  0
ARC
  5
1B2
330
1F
100
AcDbEntity
  8
0
  6
Continuous
 62
     7
370
    15
100
AcDbCircle
 10
233.7773553719
 20
386.1944391972
 30
0.0
 40
21.90007581424711
100
AcDbArc
 50
162.7694675958
 51
171.5162466899
  0
SPLINE
  5
1B3
330
1F
100
AcDbEntity
  8
0
  6
Continuous
 62
     7
370
    15
100
AcDbSpline
210
0.0
220
0.0
230
1.0
 70
     8
 71
     3
 72
    14
 73
    10
 74
     0
 42
0.00000001
 43
0.00000001
 40
0.0
 40
0.0
 40
0.0
 40
0.0
 40
0.1575837626739429
 40
0.3151114913564611
 40
0.4729863663336266
 40
0.630855829780329
 40
0.7843617205427525
 40
0.9379123559027851
 40
1.0
 40
1.0
 40
1.0
 40
1.0
 10
222.7983083267886
 20
405.1436806565364
 30
0.0
 10
222.589424556729
 20
404.3151031991194
 30
0.0
 10
222.1717312919739
 20
402.6582429117356
 30
0.0
 10
221.0782655446649
 20
400.2677911372155
 30
0.0
 10
219.6458764623565
 20
398.0454567899684
 30
0.0
 10
217.9102303873736
 20
396.0701841434659
 30
0.0
 10
215.9297005813322
 20
394.4098423625441
 30
0.0
 10
214.2116785648722
 20
393.327768156435
 30
0.0
 10
213.1622869599526
 20
392.8260680254361
 30
0.0
 10
212.8601409186799
 20
392.6816160327037
 30
0.0
  0
ARC
  5
1B4
330
1F
100
AcDbEntity
  8
0
  6
Continuous
 62
     7
370
    15
100
AcDbCircle
 10
233.7773553719
 20
386.1944391972
 30
0.0
 40
21.9000758142471
100
AcDbArc
 50
111.3408961673
 51
120.0876752613
  0
LWPOLYLINE
  5
1B5
330
1F
100
AcDbEntity
  8
0
  6
Continuous
 62
     7
370
    15
100
AcDbPolyline
 90
        9
 70
   128
 43
0.0
 10
255.437795042
 20
389.4253323322
 10
255.5245253881
 20
389.3398816234
 10
255.6016016443
 20
389.2557422167
 10
255.6668631424
 20
389.1752759462
 10
255.7184826275
 20
389.100740338
 10
255.7550146868
 20
389.034229005
 10
255.7754311403
 20
388.9775971418
 10
255.7791638811
 20
388.9324391728
 10
255.7661067386
 20
388.9000142461
  0
SPLINE
  5
1B6
330
1F
100
AcDbEntity
  8
0
  6
Continuous
 62
     7
370
    15
100
AcDbSpline
210
0.0
220
0.0
230
1.0
 70
     8
 71
     3
 72
    14
 73
    10
 74
     0
 42
0.00000001
 43
0.00000001
 40
0.0
 40
0.0
 40
0.0
 40
0.0
 40
0.0621970757646808
 40
0.2157644103086344
 40
0.3692822297597053
 40
0.5269933273065809
 40
0.6847105225378176
 40
0.8423237569584
 40
1.0
 40
1.0
 40
1.0
 40
1.0
 10
255.7661067386348
 20
388.9000142460902
 30
0.0
 10
255.5681255275643
 20
388.6531983971506
 30
0.0
 10
254.881319938497
 20
387.7969832866082
 30
0.0
 10
253.8623382760876
 20
386.1718448057527
 30
0.0
 10
252.8563380930547
 20
383.9459015227437
 30
0.0
 10
252.1883220530598
 20
381.5513713893005
 30
0.0
 10
251.8797236261484
 20
379.0708286358454
 30
0.0
 10
251.9294358814789
 20
376.5866547283449
 30
0.0
 10
252.2528775446796
 20
375.0064826001513
 30
0.0
 10
252.414630695172
 20
374.216238642319
 30
0.0
  0
LWPOLYLINE
  5
1B7
330
1F
100
AcDbEntity
  8
0
  6
Continuous
 62
     7
370
    15
100
AcDbPolyline
 90
        9
 70
   128
 43
0.0
 10
252.4146306952
 20
374.2162386423
 10
252.4123266031
 20
374.1813587493
 10
252.3893695017
 20
374.1422916299
 10
252.3464020034
 20
374.1001287943
 10
252.2846311023
 20
374.0560511595
 10
252.2057834705
 20
374.0112955218
 10
252.1120719304
 20
373.9671173042
 10
252.0061228116
 20
373.9247533029
 10
251.890903308
 20
373.8853918856
  0
LWPOLYLINE
  5
1B8
330
1F
100
AcDbEntity
  8
0
  6
Continuous
 62
     7
370
    15
100
AcDbPolyline
 90
        9
 70
   128
 43
0.0
 10
244.756402417
 20
405.1436806565
 10
244.8772899498
 20
405.1582092887
 10
244.9911292334
 20
405.1660100466
 10
245.0947286253
 20
405.1668668634
 10
245.185185193
 20
405.1607573873
 10
245.2599638765
 20
405.1478455311
 10
245.3169692
 20
405.1284963733
 10
245.3546039452
 20
405.1032612568
 10
245.3718129237
 20
405.0728330856
  0
SPLINE
  5
1B9
330
1F
100
AcDbEntity
  8
0
  6
Continuous
 62
     7
370
    15
100
AcDbSpline
210
0.0
220
0.0
230
1.0
 70
     8
 71
     3
 72
    14
 73
    10
 74
     0
 42
0.00000001
 43
0.00000001
 40
0.0
 40
0.0
 40
0.0
 40
0.0
 40
0.0621967701117848
 40
0.2157646044330681
 40
0.3692819407040871
 40
0.5269934200419646
 40
0.6847104791322951
 40
0.8423237134148245
 40
1.0
 40
1.0
 40
1.0
 40
1.0
 10
245.3718129237373
 20
405.0728330856402
 30
0.0
 10
245.4413415713529
 20
404.764159642363
 30
0.0
 10
245.6825409314257
 20
403.693351571976
 30
0.0
 10
246.3178040940167
 20
401.8834243450099
 30
0.0
 10
247.4308855459058
 20
399.7090477788912
 30
0.0
 10
248.8864996381625
 20
397.693805360247
 30
0.0
 10
250.6334619598079
 20
395.9059426836062
 30
0.0
 10
252.606661224502
 20
394.3959524038987
 30
0.0
 10
254.0437518700138
 20
393.6636074969936
 30
0.0
 10
254.7624408890683
 20
393.2973618155559
 30
0.0
  0
LWPOLYLINE
  5
1BA
330
1F
100
AcDbEntity
  8
0
  6
Continuous
 62
     7
370
    15
100
AcDbPolyline
 90
        9
 70
   128
 43
0.0
 10
254.7624408891
 20
393.2973618156
 10
254.7882739146
 20
393.2738105303
 10
254.8045050045
 20
393.2315061337
 10
254.8106796731
 20
393.1716258174
 10
254.8066265573
 20
393.0958459622
 10
254.7924574156
 20
393.006297434
 10
254.7685689916
 20
392.9054910785
 10
254.7356318374
 20
392.7962432152
 10
254.6945698251
 20
392.6816160327
  0
LWPOLYLINE
  5
1BB
330
1F
100
AcDbEntity
  8
0
  6
Continuous
 62
     7
370
    15
100
AcDbPolyline
 90
        9
 70
   128
 43
0.0
 10
225.8075643023
 20
406.5928632861
 10
225.8715787594
 20
406.696433807
 10
225.9364565526
 20
406.7903036719
 10
226.0003806715
 20
406.8718353754
 10
226.0615583201
 20
406.9387415892
 10
226.1182753992
 20
406.9891596681
 10
226.1689426069
 20
407.0216665512
 10
226.2121396763
 20
407.0353532678
 10
226.2466563535
 20
407.0298398381
  0
SPLINE
  5
1BC
330
1F
100
AcDbEntity
  8
0
  6
Continuous
 62
     7
370
    15
100
AcDbSpline
210
0.0
220
0.0
230
1.0
 70
     8
 71
     3
 72
    14
 73
    10
 74
     0
 42
0.00000001
 43
0.00000001
 40
0.0
 40
0.0
 40
0.0
 40
0.0
 40
0.0621969711398675
 40
0.2157645902309676
 40
0.3692821624447969
 40
0.5269933564110436
 40
0.6847106460069092
 40
0.8423237790992293
 40
1.0
 40
1.0
 40
1.0
 40
1.0
 10
226.2466563535113
 20
407.0298398381312
 30
0.0
 10
226.5313381999756
 20
406.8917436951576
 30
0.0
 10
227.5189146176509
 20
406.4126808540722
 30
0.0
 10
229.3300544643282
 20
405.7808794452935
 30
0.0
 10
231.7240440856185
 20
405.2954151647792
 30
0.0
 10
234.2071866590242
 20
405.1769806176641
 30
0.0
 10
236.6942066498195
 20
405.4280989837232
 30
0.0
 10
239.1050355262795
 20
406.0293434824688
 30
0.0
 10
240.5736168170513
 20
406.6962965682617
 30
0.0
 10
241.3080543902893
 20
407.0298398381312
 30
0.0
  0
LWPOLYLINE
  5
1BD
330
1F
100
AcDbEntity
  8
0
  6
Continuous
 62
     7
370
    15
100
AcDbPolyline
 90
        9
 70
   128
 43
0.0
 10
241.3080543903
 20
407.0298398381
 10
241.3425710675
 20
407.0353532678
 10
241.3857681369
 20
407.0216665512
 10
241.4364353446
 20
406.9891596681
 10
241.4931524237
 20
406.9387415892
 10
241.5543300723
 20
406.8718353754
 10
241.6182541912
 20
406.7903036719
 10
241.6831319844
 20
406.696433807
 10
241.7471464415
 20
406.5928632861
  0
LWPOLYLINE
  5
1BE
330
1F
100
AcDbEntity
  8
0
  6
Continuous
 62
     7
370
    15
100
AcDbPolyline
 90
        9
 70
   128
 43
0.0
 10
249.8084343662
 20
371.2740565187
 10
249.7956975986
 20
371.1529659575
 10
249.7779708048
 20
371.0402461237
 10
249.7557531734
 20
370.939052338
 10
249.7296649655
 20
370.852226997
 10
249.7004382004
 20
370.7821952647
 10
249.6688943048
 20
370.7309240943
 10
249.6359143098
 20
370.6998477226
 10
249.6024220874
 20
370.6898415929
  0
SPLINE
  5
1BF
330
1F
100
AcDbEntity
  8
0
  6
Continuous
 62
     7
370
    15
100
AcDbSpline
210
0.0
220
0.0
230
1.0
 70
     8
 71
     3
 72
    14
 73
    10
 74
     0
 42
0.00000001
 43
0.00000001
 40
0.0
 40
0.0
 40
0.0
 40
0.0
 40
0.0621969646669801
 40
0.2157645205653729
 40
0.369282166810565
 40
0.5269933531373953
 40
0.6847105632096911
 40
0.8423237835350287
 40
1.0
 40
1.0
 40
1.0
 40
1.0
 10
249.6024220873792
 20
370.689841592892
 30
0.0
 10
249.286014994474
 20
370.6907424969693
 30
0.0
 10
248.1883822551643
 20
370.6938677802908
 30
0.0
 10
246.2824734725497
 20
370.4772775054402
 30
0.0
 10
243.914929025333
 20
369.8759491903075
 30
0.0
 10
241.6263089232642
 20
368.9052599440792
 30
0.0
 10
239.4945322445787
 20
367.5999409453773
 30
0.0
 10
237.5833246085068
 20
366.0122138974843
 30
0.0
 10
236.5495578178837
 20
364.7741169594062
 30
0.0
 10
236.0325711471219
 20
364.1549448019107
 30
0.0
  0
LWPOLYLINE
  5
1C0
330
1F
100
AcDbEntity
  8
0
  6
Continuous
 62
     7
370
    15
100
AcDbPolyline
 90
        9
 70
   128
 43
0.0
 10
236.0325711471
 20
364.1549448019
 10
236.0038656899
 20
364.1349995977
 10
235.9590073739
 20
364.128588373
 10
235.8992534847
 20
364.1358936673
 10
235.8262787731
 20
364.1567068642
 10
235.7421279577
 20
364.1904468185
 10
235.6491597294
 20
364.2361710316
 10
235.5499793467
 20
364.2925905531
 10
235.4473664583
 20
364.3581295854
  0
LWPOLYLINE
  5
1C1
330
1F
100
AcDbEntity
  8
0
  6
Continuous
 62
     7
370
    15
100
AcDbPolyline
 90
        9
 70
   128
 43
0.0
 10
232.1073442855
 20
364.3581295854
 10
232.0047313971
 20
364.2925905531
 10
231.9055510144
 20
364.2361710316
 10
231.8125827861
 20
364.1904468185
 10
231.7284319707
 20
364.1567068642
 10
231.6554572591
 20
364.1358936673
 10
231.5957033699
 20
364.128588373
 10
231.5508450539
 20
364.1349995977
 10
231.5221395967
 20
364.1549448019
  0
SPLINE
  5
1C2
330
1F
100
AcDbEntity
  8
0
  6
Continuous
 62
     7
370
    15
100
AcDbSpline
210
0.0
220
0.0
230
1.0
 70
     8
 71
     3
 72
    14
 73
    10
 74
     0
 42
0.00000001
 43
0.00000001
 40
0.0
 40
0.0
 40
0.0
 40
0.0
 40
0.0621970376280478
 40
0.2157645765970566
 40
0.3692821375201467
 40
0.5269933780050712
 40
0.6847106086469631
 40
0.8423238041797692
 40
1.0
 40
1.0
 40
1.0
 40
1.0
 10
231.5221395966787
 20
364.1549448019107
 30
0.0
 10
231.3255677034586
 20
364.4028843562938
 30
0.0
 10
230.6436501567557
 20
365.2629988410555
 30
0.0
 10
229.2859960737756
 20
366.6180542268432
 30
0.0
 10
227.3397203760257
 20
368.094154390833
 30
0.0
 10
225.1538730264509
 20
369.2782541219923
 30
0.0
 10
222.8041921395697
 20
370.1310908607643
 30
0.0
 10
220.3712388975757
 20
370.6354026758983
 30
0.0
 10
218.7587128070307
 20
370.6716928700907
 30
0.0
 10
217.9522886564214
 20
370.689841592892
 30
0.0
  0
LWPOLYLINE
  5
1C3
330
1F
100
AcDbEntity
  8
0
  6
Continuous
 62
     7
370
    15
100
AcDbPolyline
 90
        9
 70
   128
 43
0.0
 10
217.9522886564
 20
370.6898415929
 10
217.918796434
 20
370.6998477226
 10
217.885816439
 20
370.7309240943
 10
217.8542725434
 20
370.7821952647
 10
217.8250457783
 20
370.852226997
 10
217.7989575704
 20
370.939052338
 10
217.776739939
 20
371.0402461237
 10
217.7590131452
 20
371.1529659575
 10
217.7462763776
 20
371.2740565187
  0
LWPOLYLINE
  5
1C4
330
1F
100
AcDbEntity
  8
0
  6
Continuous
 62
     7
370
    15
100
AcDbPolyline
 90
        9
 70
   128
 43
0.0
 10
215.6638074358
 20
373.8853918856
 10
215.5485879322
 20
373.9247533029
 10
215.4426388134
 20
373.9671173042
 10
215.3489272733
 20
374.0112955218
 10
215.2700796415
 20
374.0560511595
 10
215.2083087404
 20
374.1001287943
 10
215.1653412421
 20
374.1422916299
 10
215.1423841407
 20
374.1813587493
 10
215.1400800486
 20
374.2162386423
  0
SPLINE
  5
1C5
330
1F
100
AcDbEntity
  8
0
  6
Continuous
 62
     7
370
    15
100
AcDbSpline
210
0.0
220
0.0
230
1.0
 70
     8
 71
     3
 72
    14
 73
    10
 74
     0
 42
0.00000001
 43
0.00000001
 40
0.0
 40
0.0
 40
0.0
 40
0.0
 40
0.0621969344585248
 40
0.2157646114917305
 40
0.3692821008822938
 40
0.526993242363154
 40
0.6847106102863741
 40
0.8423239159814846
 40
1.0
 40
1.0
 40
1.0
 40
1.0
 10
215.1400800486285
 20
374.216238642319
 30
0.0
 10
215.2113665314542
 20
374.5245118739487
 30
0.0
 10
215.458663289814
 20
375.5939287935277
 30
0.0
 10
215.6716012600369
 20
377.5002488575237
 30
0.0
 10
215.6121836717362
 20
379.9422412824172
 30
0.0
 10
215.1750935064892
 20
382.3894787796038
 30
0.0
 10
214.3768678813708
 20
384.7582690362971
 30
0.0
 10
213.2542344878929
 20
386.9748632340063
 30
0.0
 10
212.2772123454555
 20
388.2582120647716
 30
0.0
 10
211.7886040051658
 20
388.9000142460902
 30
0.0
  0
LWPOLYLINE
  5
1C6
330
1F
100
AcDbEntity
  8
0
  6
Continuous
 62
     7
370
    15
100
AcDbPolyline
 90
        9
 70
   128
 43
0.0
 10
211.7886040052
 20
388.9000142461
 10
211.7755468627
 20
388.9324391728
 10
211.7792796035
 20
388.9775971418
 10
211.799696057
 20
389.034229005
 10
211.8362281163
 20
389.100740338
 10
211.8878476014
 20
389.1752759462
 10
211.9531090995
 20
389.2557422167
 10
212.0301853557
 20
389.3398816234
 10
212.1169157018
 20
389.4253323322
  0
LWPOLYLINE
  5
1C7
330
1F
100
AcDbEntity
  8
0
  6
Continuous
 62
     7
370
    15
100
AcDbPolyline
 90
        9
 70
   128
 43
0.0
 10
212.8601409187
 20
392.6816160327
 10
212.8190789064
 20
392.7962432152
 10
212.7861417522
 20
392.9054910785
 10
212.7622533282
 20
393.006297434
 10
212.7480841865
 20
393.0958459622
 10
212.7440310707
 20
393.1716258174
 10
212.7502057393
 20
393.2315061337
 10
212.7664368292
 20
393.2738105303
 10
212.7922698547
 20
393.2973618156
  0
SPLINE
  5
1C8
330
1F
100
AcDbEntity
  8
0
  6
Continuous
 62
     7
370
    15
100
AcDbSpline
210
0.0
220
0.0
230
1.0
 70
     8
 71
     3
 72
    14
 73
    10
 74
     0
 42
0.00000001
 43
0.00000001
 40
0.0
 40
0.0
 40
0.0
 40
0.0
 40
0.0621969532021963
 40
0.2157645551301671
 40
0.3692823191559593
 40
0.5269934810698765
 40
0.6847108232325276
 40
0.8423237630791635
 40
1.0
 40
1.0
 40
1.0
 40
1.0
 10
212.7922698547322
 20
393.2973618155559
 30
0.0
 10
213.0777337615841
 20
393.4338335057799
 30
0.0
 10
214.0680233127039
 20
393.9072610936768
 30
0.0
 10
215.6912138739376
 20
394.9293444815532
 30
0.0
 10
217.5633884661564
 20
396.4983647684068
 30
0.0
 10
219.2041999213133
 20
398.3659193831717
 30
0.0
 10
220.5585033015319
 20
400.4669153615677
 30
0.0
 10
221.5915574525388
 20
402.7266460422881
 30
0.0
 10
221.985757984481
 20
404.2906660742655
 30
0.0
 10
222.1828978200633
 20
405.0728330856402
 30
0.0
  0
LWPOLYLINE
  5
1C9
330
1F
100
AcDbEntity
  8
0
  6
Continuous
 62
     7
370
    15
100
AcDbPolyline
 90
        9
 70
   128
 43
0.0
 10
222.1828978201
 20
405.0728330856
 10
222.2001067986
 20
405.1032612568
 10
222.2377415438
 20
405.1284963733
 10
222.2947468673
 20
405.1478455311
 10
222.3695255508
 20
405.1607573873
 10
222.4599821185
 20
405.1668668634
 10
222.5635815104
 20
405.1660100466
 10
222.677420794
 20
405.1582092887
 10
222.7983083268
 20
405.1436806565
  0
SPLINE
  5
1CA
330
1F
100
AcDbEntity
  8
0
  6
Continuous
 62
     7
370
    15
100
AcDbSpline
210
0.0
220
0.0
230
1.0
 70
     8
 71
     3
 72
     9
 73
     5
 74
     0
 42
0.00000001
 43
0.00000001
 40
0.0
 40
0.0
 40
0.0
 40
0.0
 40
0.0183886148809425
 40
1.0
 40
1.0
 40
1.0
 40
1.0
 10
258.0852284719426
 20
391.742552304848
 30
0.0
 10
258.0860187967025
 20
391.7427319488306
 30
0.0
 10
258.1289978228601
 20
391.7525012535796
 30
0.0
 10
258.1394375511676
 20
391.7549063406634
 30
0.0
 10
258.1496853073318
 20
391.7572672015269
 30
0.0
  0
SPLINE
  5
1CB
330
1F
100
AcDbEntity
  8
0
  6
Continuous
 62
     7
370
    15
100
AcDbSpline
210
0.0
220
0.0
230
1.0
 70
     8
 71
     3
 72
    11
 73
     7
 74
     0
 42
0.00000001
 43
0.00000001
 40
0.0
 40
0.0
 40
0.0
 40
0.0
 40
0.1990396622898001
 40
0.4636330676832778
 40
0.7350860651002972
 40
1.0
 40
1.0
 40
1.0
 40
1.0
 10
258.0852284719426
 20
391.742552304848
 30
0.0
 10
257.9969144533371
 20
391.7600074688584
 30
0.0
 10
257.7912001806415
 20
391.8006666578059
 30
0.0
 10
257.0501827463401
 20
391.964838910233
 30
0.0
 10
255.966565250987
 20
392.2470259580284
 30
0.0
 10
255.11510814973
 20
392.5379348698793
 30
0.0
 10
254.6945698251206
 20
392.6816160327037
 30
0.0
  0
SPLINE
  5
1CC
330
1F
100
AcDbEntity
  8
0
  6
Continuous
 62
     7
370
    15
100
AcDbSpline
210
0.0
220
0.0
230
1.0
 70
     8
 71
     3
 72
    12
 73
     8
 74
     0
 42
0.00000001
 43
0.00000001
 40
0.0
 40
0.0
 40
0.0
 40
0.0
 40
0.2503033423269062
 40
0.5037288579427355
 40
0.7501632936170992
 40
0.9974735775763117
 40
1.0
 40
1.0
 40
1.0
 40
1.0
 10
254.7624408890683
 20
393.2973618155559
 30
0.0
 10
255.1080703476401
 20
393.1478643242294
 30
0.0
 10
255.8036404939242
 20
392.8470045759292
 30
0.0
 10
256.7110863429938
 20
392.544854210348
 30
0.0
 10
257.3155412692071
 20
392.3703285308299
 30
0.0
 10
257.6080638745437
 20
392.2966098552448
 30
0.0
 10
257.5825536223887
 20
392.3031424353903
 30
0.0
 10
257.5822956551988
 20
392.3032084947665
 30
0.0
  0
SPLINE
  5
1CD
330
1F
100
AcDbEntity
  8
0
  6
Continuous
 62
     7
370
    15
100
AcDbSpline
210
0.0
220
0.0
230
1.0
 70
     8
 71
     3
 72
     9
 73
     5
 74
     0
 42
0.00000001
 43
0.00000001
 40
0.0
 40
0.0
 40
0.0
 40
0.0
 40
0.0183886319021402
 40
1.0
 40
1.0
 40
1.0
 40
1.0
 10
253.2707564224679
 20
370.6489714330276
 30
0.0
 10
253.2713901791843
 20
370.6484661750492
 30
0.0
 10
253.3058547722982
 20
370.6209895263783
 30
0.0
 10
253.3142277136191
 20
370.6143070072897
 30
0.0
 10
253.3224466880042
 20
370.6077473705848
 30
0.0
  0
SPLINE
  5
1CE
330
1F
100
AcDbEntity
  8
0
  6
Continuous
 62
     7
370
    15
100
AcDbSpline
210
0.0
220
0.0
230
1.0
 70
     8
 71
     3
 72
    11
 73
     7
 74
     0
 42
0.00000001
 43
0.00000001
 40
0.0
 40
0.0
 40
0.0
 40
0.0
 40
0.1990396077780131
 40
0.4636330074904576
 40
0.7350857248053284
 40
1.0
 40
1.0
 40
1.0
 40
1.0
 10
253.2707564224679
 20
370.6489714330276
 30
0.0
 10
253.229341783916
 20
370.7289017038826
 30
0.0
 10
253.1328725753988
 20
370.9150873192974
 30
0.0
 10
252.7992051144375
 20
371.5967956923943
 30
0.0
 10
252.3442007521974
 20
372.6199406274348
 30
0.0
 10
252.0407694894616
 20
373.4670168201257
 30
0.0
 10
251.8909033079821
 20
373.8853918856223
 30
0.0
  0
SPLINE
  5
1CF
330
1F
100
AcDbEntity
  8
0
  6
Continuous
 62
     7
370
    15
100
AcDbSpline
210
0.0
220
0.0
230
1.0
 70
     8
 71
     3
 72
    12
 73
     8
 74
     0
 42
0.00000001
 43
0.00000001
 40
0.0
 40
0.0
 40
0.0
 40
0.0
 40
0.2503033621797477
 40
0.5037289613425062
 40
0.7501631183972389
 40
0.9974735917968138
 40
1.0
 40
1.0
 40
1.0
 40
1.0
 10
252.414630695172
 20
374.216238642319
 30
0.0
 10
252.5132463481948
 20
373.8528046611831
 30
0.0
 10
252.7117077673171
 20
373.1214032919011
 30
0.0
 10
253.0412486472903
 20
372.2235457234747
 30
0.0
 10
253.2817072317917
 20
371.6421481260061
 30
0.0
 10
253.4063776846407
 20
371.36749804224
 30
0.0
 10
253.3956306589033
 20
371.3914994566354
 30
0.0
 10
253.3955219824989
 20
371.3917421644767
 30
0.0
  0
SPLINE
  5
1D0
330
1F
100
AcDbEntity
  8
0
  6
Continuous
 62
     7
370
    15
100
AcDbSpline
210
0.0
220
0.0
230
1.0
 70
     8
 71
     3
 72
    11
 73
     7
 74
     0
 42
0.00000001
 43
0.00000001
 40
0.0
 40
0.0
 40
0.0
 40
0.0
 40
0.3340934274755584
 40
0.6236910350420468
 40
0.9185145795600465
 40
1.0
 40
1.0
 40
1.0
 40
1.0
 10
249.8084343661744
 20
371.274056518658
 30
0.0
 10
250.3626400008421
 20
371.2046368610481
 30
0.0
 10
251.3972400782031
 20
371.0750431170642
 30
0.0
 10
252.5647461356501
 20
370.8256277088643
 30
0.0
 10
253.1029263441737
 20
370.6924524573323
 30
0.0
 10
253.24088339447
 20
370.6567108672793
 30
0.0
 10
253.2707564224679
 20
370.6489714330276
 30
0.0
  0
SPLINE
  5
1D1
330
1F
100
AcDbEntity
  8
0
  6
Continuous
 62
     7
370
    15
100
AcDbSpline
210
0.0
220
0.0
230
1.0
 70
     8
 71
     3
 72
    12
 73
     8
 74
     0
 42
0.00000001
 43
0.00000001
 40
0.0
 40
0.0
 40
0.0
 40
0.0
 40
0.1292998034593594
 40
0.3290635877467717
 40
0.5434980160077799
 40
0.7541534252080097
 40
1.0
 40
1.0
 40
1.0
 40
1.0
 10
252.4234149296958
 20
370.3914458399852
 30
0.0
 10
252.4925325992118
 20
370.3778748235339
 30
0.0
 10
252.6684347096491
 20
370.3433370497451
 30
0.0
 10
252.5051412340848
 20
370.3770669821125
 30
0.0
 10
251.9501843997268
 20
370.4807227191714
 30
0.0
 10
250.9530053845882
 20
370.6270209807346
 30
0.0
 10
250.0751735060834
 20
370.6678521801822
 30
0.0
 10
249.6024220873792
 20
370.689841592892
 30
0.0
  0
SPLINE
  5
1D2
330
1F
100
AcDbEntity
  8
0
  6
Continuous
 62
     7
370
    15
100
AcDbSpline
210
0.0
220
0.0
230
1.0
 70
     8
 71
     3
 72
    11
 73
     7
 74
     0
 42
0.00000001
 43
0.00000001
 40
0.0
 40
0.0
 40
0.0
 40
0.0
 40
0.3340939462831564
 40
0.6236909845298972
 40
0.9185144926915633
 40
1.0
 40
1.0
 40
1.0
 40
1.0
 10
255.4377950419862
 20
389.4253323322375
 30
0.0
 10
255.8376104029042
 20
389.8153480303565
 30
0.0
 10
256.5839909909254
 20
390.5434344786389
 30
0.0
 10
257.5069211687132
 20
391.3007145847419
 30
0.0
 10
257.9465899768297
 20
391.6384446662678
 30
0.0
 10
258.0605514005828
 20
391.7240215812978
 30
0.0
 10
258.0852284719426
 20
391.742552304848
 30
0.0
  0
SPLINE
  5
1D3
330
1F
100
AcDbEntity
  8
0
  6
Continuous
 62
     7
370
    15
100
AcDbSpline
210
0.0
220
0.0
230
1.0
 70
     8
 71
     3
 72
    12
 73
     8
 74
     0
 42
0.00000001
 43
0.00000001
 40
0.0
 40
0.0
 40
0.0
 40
0.0
 40
0.1292997790656878
 40
0.3290634773867447
 40
0.5434979469198757
 40
0.7541532792672643
 40
1.0
 40
1.0
 40
1.0
 40
1.0
 10
257.7582597424466
 20
390.9195090180476
 30
0.0
 10
257.8119642127422
 20
390.9650855037855
 30
0.0
 10
257.9486402370507
 20
391.0810760877782
 30
0.0
 10
257.8204601165152
 20
390.974443622966
 30
0.0
 10
257.3934043951359
 20
390.6051895287148
 30
0.0
 10
256.657297308225
 20
389.9167757230417
 30
0.0
 10
256.0780547155527
 20
389.2559164476687
 30
0.0
 10
255.7661067386348
 20
388.9000142460902
 30
0.0
  0
SPLINE
  5
1D4
330
1F
100
AcDbEntity
  8
0
  6
Continuous
 62
     7
370
    15
100
AcDbSpline
210
0.0
220
0.0
230
1.0
 70
     8
 71
     3
 72
    11
 73
     7
 74
     0
 42
0.00000001
 43
0.00000001
 40
0.0
 40
0.0
 40
0.0
 40
0.0
 40
0.3340933285012819
 40
0.6236907968783947
 40
0.9185146633775105
 40
1.0
 40
1.0
 40
1.0
 40
1.0
 10
244.7564024170119
 20
405.1436806565364
 30
0.0
 10
244.700758471728
 20
405.6994386191748
 30
0.0
 10
244.5968814600818
 20
406.736936518772
 30
0.0
 10
244.5802512374108
 20
407.9306678506911
 30
0.0
 10
244.5903270438909
 20
408.4849968634307
 30
0.0
 10
244.594477920336
 20
408.6274453428824
 30
0.0
 10
244.5953767438609
 20
408.6582908874591
 30
0.0
  0
SPLINE
  5
1D5
330
1F
100
AcDbEntity
  8
0
  6
Continuous
 62
     7
370
    15
100
AcDbSpline
210
0.0
220
0.0
230
1.0
 70
     8
 71
     3
 72
    10
 73
     6
 74
     0
 42
0.00000001
 43
0.00000001
 40
0.0
 40
0.0
 40
0.0
 40
0.0
 40
0.0182034745505425
 40
0.9949073699260489
 40
1.0
 40
1.0
 40
1.0
 40
1.0
 10
244.5953767438609
 20
408.6582908874591
 30
0.0
 10
244.5957266754133
 20
408.6590186822233
 30
0.0
 10
244.6148521165184
 20
408.6987961638624
 30
0.0
 10
244.633492635118
 20
408.7376838333387
 30
0.0
 10
244.6241082935857
 20
408.7179531727224
 30
0.0
 10
244.624059616514
 20
408.7178508287509
 30
0.0
  0
SPLINE
  5
1D6
330
1F
100
AcDbEntity
  8
0
  6
Continuous
 62
     7
370
    15
100
AcDbSpline
210
0.0
220
0.0
230
1.0
 70
     8
 71
     3
 72
    12
 73
     8
 74
     0
 42
0.00000001
 43
0.00000001
 40
0.0
 40
0.0
 40
0.0
 40
0.0
 40
0.1588944502548224
 40
0.3518681995968377
 40
0.5590145121760237
 40
0.7625089825746777
 40
1.0
 40
1.0
 40
1.0
 40
1.0
 10
245.0364315574248
 20
407.8437934166034
 30
0.0
 10
245.0336284847647
 20
407.9359217593266
 30
0.0
 10
245.0274211431699
 20
408.1399379098835
 30
0.0
 10
245.0307457034828
 20
407.9754954814677
 30
0.0
 10
245.0532815525563
 20
407.4074291031354
 30
0.0
 10
245.1325190927754
 20
406.403786159509
 30
0.0
 10
245.2880515334178
 20
405.5387142137454
 30
0.0
 10
245.3718129237373
 20
405.0728330856402
 30
0.0
  0
SPLINE
  5
1D7
330
1F
100
AcDbEntity
  8
0
  6
Continuous
 62
     7
370
    15
100
AcDbSpline
210
0.0
220
0.0
230
1.0
 70
     8
 71
     3
 72
    11
 73
     7
 74
     0
 42
0.00000001
 43
0.00000001
 40
0.0
 40
0.0
 40
0.0
 40
0.0
 40
0.199039651695249
 40
0.4636327629016173
 40
0.7350856146028598
 40
0.9999999999999999
 40
0.9999999999999999
 40
0.9999999999999999
 40
0.9999999999999999
 10
244.5953767438609
 20
408.6582908874591
 30
0.0
 10
244.5266658224969
 20
408.6001282070716
 30
0.0
 10
244.3666141240428
 20
408.4646470404992
 30
0.0
 10
243.7762465604494
 20
407.9876558344375
 30
0.0
 10
242.8800006969803
 20
407.3163876307599
 30
0.0
 10
242.1216831592085
 20
406.8320700789628
 30
0.0
 10
241.7471464415271
 20
406.5928632861217
 30
0.0
  0
SPLINE
  5
1D8
330
1F
100
AcDbEntity
  8
0
  6
Continuous
 62
     7
370
    15
100
AcDbSpline
210
0.0
220
0.0
230
1.0
 70
     8
 71
     3
 72
    12
 73
     8
 74
     0
 42
0.00000001
 43
0.00000001
 40
0.0
 40
0.0
 40
0.0
 40
0.0
 40
0.2503027790420134
 40
0.50372902129548
 40
0.7501630464158637
 40
0.9974735840230378
 40
1.0
 40
1.0
 40
1.0
 40
1.0
 10
241.3080543902893
 20
407.0298398381312
 30
0.0
 10
241.6404314656851
 20
407.2068528933689
 30
0.0
 10
242.3093332634639
 20
407.5630879036738
 30
0.0
 10
243.1113493064431
 20
408.08416890192
 30
0.0
 10
243.6246625564356
 20
408.4479517691148
 30
0.0
 10
243.864692762079
 20
408.6306414405935
 30
0.0
 10
243.8436766701833
 20
408.61480552322
 30
0.0
 10
243.8434641500194
 20
408.6146453863223
 30
0.0
  0
SPLINE
  5
1D9
330
1F
100
AcDbEntity
  8
0
  6
Continuous
 62
     7
370
    15
100
AcDbSpline
210
0.0
220
0.0
230
1.0
 70
    24
 71
     3
 72
     9
 73
     5
 74
     0
 42
0.00000001
 43
0.00000001
 40
0.0
 40
0.0
 40
0.0
 40
0.0
 40
0.0183888765880062
 40
1.0
 40
1.0
 40
1.0
 40
1.0
 10
233.7773553719003
 20
361.2614447718699
 30
0.0
 10
233.7773553719002
 20
361.2606338613836
 30
0.0
 10
233.7773553718933
 20
361.2165359806664
 30
0.0
 10
233.7773553718967
 20
361.2058337491524
 30
0.0
 10
233.7773553719001
 20
361.1953283196528
 30
0.0
  0
SPLINE
  5
1DA
330
1F
100
AcDbEntity
  8
0
  6
Continuous
 62
     7
370
    15
100
AcDbSpline
210
0.0
220
0.0
230
1.0
 70
     8
 71
     3
 72
    11
 73
     7
 74
     0
 42
0.00000001
 43
0.00000001
 40
0.0
 40
0.0
 40
0.0
 40
0.0
 40
0.1990397782262952
 40
0.4636331534789223
 40
0.7350861892379937
 40
0.9999999999999999
 40
0.9999999999999999
 40
0.9999999999999999
 40
0.9999999999999999
 10
233.7773553719003
 20
361.2614447718699
 30
0.0
 10
233.8140259827181
 20
361.3436602689782
 30
0.0
 10
233.8994446416664
 20
361.5351688735839
 30
0.0
 10
234.2243867696977
 20
362.2210764890686
 30
0.0
 10
234.7406239819831
 20
363.2147341286262
 30
0.0
 10
235.213708200195
 20
363.9801081706495
 30
0.0
 10
235.4473664582897
 20
364.3581295853694
 30
0.0
  0
SPLINE
  5
1DB
330
1F
100
AcDbEntity
  8
0
  6
Continuous
 62
     7
370
    15
100
AcDbSpline
210
0.0
220
0.0
230
1.0
 70
     8
 71
     3
 72
    12
 73
     8
 74
     0
 42
0.00000001
 43
0.00000001
 40
0.0
 40
0.0
 40
0.0
 40
0.0
 40
0.2503032980415052
 40
0.5037287080664581
 40
0.7501631261841805
 40
0.997473591982434
 40
1.0
 40
1.0
 40
1.0
 40
1.0
 10
236.0325711471219
 20
364.1549448019107
 30
0.0
 10
235.8099138748806
 20
363.8512459071346
 30
0.0
 10
235.3618220560141
 20
363.2400599854797
 30
0.0
 10
234.8653131761909
 20
362.4226126989268
 30
0.0
 10
234.5606701906866
 20
361.8721208789435
 30
0.0
 10
234.4237000041995
 20
361.6033958736476
 30
0.0
 10
234.4357463126175
 20
361.6267711328525
 30
0.0
 10
234.4358681276631
 20
361.627007508858
 30
0.0
  0
SPLINE
  5
1DC
330
1F
100
AcDbEntity
  8
0
  6
Continuous
 62
     7
370
    15
100
AcDbSpline
210
0.0
220
0.0
230
1.0
 70
     8
 71
     3
 72
    11
 73
     7
 74
     0
 42
0.00000001
 43
0.00000001
 40
0.0
 40
0.0
 40
0.0
 40
0.0
 40
0.3340936401283451
 40
0.6236909407553517
 40
0.9185145596411671
 40
1.0
 40
1.0
 40
1.0
 40
1.0
 10
232.1073442855109
 20
364.3581295853694
 30
0.0
 10
232.3986123885784
 20
363.8815517149448
 30
0.0
 10
232.9423559843692
 20
362.9918691090919
 30
0.0
 10
233.4752809454864
 20
361.9235698688759
 30
0.0
 10
233.7067127328598
 20
361.4197710687466
 30
0.0
 10
233.7647812877746
 20
361.289626167742
 30
0.0
 10
233.7773553719003
 20
361.2614447718699
 30
0.0
  0
SPLINE
  5
1DD
330
1F
100
AcDbEntity
  8
0
  6
Continuous
 62
     7
370
    15
100
AcDbSpline
210
0.0
220
0.0
230
1.0
 70
     8
 71
     3
 72
    12
 73
     8
 74
     0
 42
0.00000001
 43
0.00000001
 40
0.0
 40
0.0
 40
0.0
 40
0.0
 40
0.1292997001010499
 40
0.3290634375035567
 40
0.5434980482610003
 40
0.754153309511383
 40
1.0
 40
1.0
 40
1.0
 40
1.0
 10
233.0477066262816
 20
361.763356859072
 30
0.0
 10
233.0801900852443
 20
361.7008586280435
 30
0.0
 10
233.1628594082197
 20
361.5418027081607
 30
0.0
 10
233.0874188497808
 20
361.6904918692587
 30
0.0
 10
232.8224525187152
 20
362.1890106014522
 30
0.0
 10
232.3150997342086
 20
363.0598475882066
 30
0.0
 10
231.7997034926988
 20
363.771622318509
 30
0.0
 10
231.5221395966787
 20
364.1549448019107
 30
0.0
  0
SPLINE
  5
1DE
330
1F
100
AcDbEntity
  8
0
  6
Continuous
 62
     7
370
    15
100
AcDbSpline
210
0.0
220
0.0
230
1.0
 70
     8
 71
     3
 72
    11
 73
     7
 74
     0
 42
0.00000001
 43
0.00000001
 40
0.0
 40
0.0
 40
0.0
 40
0.0
 40
0.1990397328262945
 40
0.4636330471912104
 40
0.7350857352835567
 40
1.0
 40
1.0
 40
1.0
 40
1.0
 10
222.9593339999396
 20
408.6582908874591
 30
0.0
 10
222.961966984216
 20
408.5683062699493
 30
0.0
 10
222.9681001240966
 20
408.3587006709867
 30
0.0
 10
222.9729414468309
 20
407.5997317820305
 30
0.0
 10
222.9389588551649
 20
406.4804910352798
 30
0.0
 10
222.844809268645
 20
405.5856480093266
 30
0.0
 10
222.7983083267886
 20
405.1436806565364
 30
0.0
  0
SPLINE
  5
1DF
330
1F
100
AcDbEntity
  8
0
  6
Continuous
 62
     7
370
    15
100
AcDbSpline
210
0.0
220
0.0
230
1.0
 70
     8
 71
     3
 72
    11
 73
     7
 74
     0
 42
0.00000001
 43
0.00000001
 40
0.0
 40
0.0
 40
0.0
 40
0.0
 40
0.3340937349259013
 40
0.6236912338092571
 40
0.9185144978813125
 40
1.0
 40
1.0
 40
1.0
 40
1.0
 10
225.8075643022735
 20
406.5928632861217
 30
0.0
 10
225.3383614906306
 20
406.8958688976595
 30
0.0
 10
224.462446590385
 20
407.4615243528659
 30
0.0
 10
223.5187799671823
 20
408.1928079009217
 30
0.0
 10
223.0916761161859
 20
408.5462884924789
 30
0.0
 10
222.9828903538311
 20
408.6383549205298
 30
0.0
 10
222.9593339999396
 20
408.6582908874591
 30
0.0
  0
SPLINE
  5
1E0
330
1F
100
AcDbEntity
  8
0
  6
Continuous
 62
     7
370
    15
100
AcDbSpline
210
0.0
220
0.0
230
1.0
 70
     8
 71
     3
 72
    10
 73
     6
 74
     0
 42
0.00000001
 43
0.00000001
 40
0.0
 40
0.0
 40
0.0
 40
0.0
 40
0.0050926300739512
 40
0.9817965254494576
 40
1.0
 40
1.0
 40
1.0
 40
1.0
 10
222.9306511272866
 20
408.7178508287509
 30
0.0
 10
222.9306024502149
 20
408.7179531727223
 30
0.0
 10
222.9212181086827
 20
408.7376838333399
 30
0.0
 10
222.9398586272821
 20
408.6987961638627
 30
0.0
 10
222.9589840683873
 20
408.6590186822233
 30
0.0
 10
222.9593339999396
 20
408.6582908874591
 30
0.0
  0
SPLINE
  5
1E1
330
1F
100
AcDbEntity
  8
0
  6
Continuous
 62
     7
370
    15
100
AcDbSpline
210
0.0
220
0.0
230
1.0
 70
     8
 71
     3
 72
    12
 73
     8
 74
     0
 42
0.00000001
 43
0.00000001
 40
0.0
 40
0.0
 40
0.0
 40
0.0
 40
0.1588945963248978
 40
0.3518684728212517
 40
0.5590144397271931
 40
0.762509655212132
 40
1.0
 40
1.0
 40
1.0
 40
1.0
 10
223.8711286028106
 20
408.4952870851596
 30
0.0
 10
223.7973526245367
 20
408.5505392495854
 30
0.0
 10
223.6339773971435
 20
408.6728939121494
 30
0.0
 10
223.7646182634339
 20
408.5729571978301
 30
0.0
 10
224.2227931437776
 20
408.2363999423506
 30
0.0
 10
225.0568814370064
 20
407.6725839743338
 30
0.0
 10
225.8301934356197
 20
407.2548228115554
 30
0.0
 10
226.2466563535113
 20
407.0298398381312
 30
0.0
  0
SPLINE
  5
1E2
330
1F
100
AcDbEntity
  8
0
  6
Continuous
 62
     7
370
    15
100
AcDbSpline
210
0.0
220
0.0
230
1.0
 70
     8
 71
     3
 72
    12
 73
     8
 74
     0
 42
0.00000001
 43
0.00000001
 40
0.0
 40
0.0
 40
0.0
 40
0.0
 40
0.2503032702264162
 40
0.5037287791582459
 40
0.7501631511107407
 40
0.9974735514874783
 40
1.0
 40
1.0
 40
1.0
 40
1.0
 10
222.1828978200633
 20
405.0728330856402
 30
0.0
 10
222.2517359167414
 20
405.4430626262908
 30
0.0
 10
222.3902707843357
 20
406.1881398853756
 30
0.0
 10
222.4829268322918
 20
407.1400784738562
 30
0.0
 10
222.5185639694124
 20
407.7681764657986
 30
0.0
 10
222.5253437468953
 20
408.0698631513879
 30
0.0
 10
222.5246545396756
 20
408.043475053112
 30
0.0
 10
222.524647570141
 20
408.04320820628
 30
0.0
  0
SPLINE
  5
1E3
330
1F
100
AcDbEntity
  8
0
  6
Continuous
 62
     7
370
    15
100
AcDbSpline
210
0.0
220
0.0
230
1.0
 70
     8
 71
     3
 72
    11
 73
     7
 74
     0
 42
0.00000001
 43
0.00000001
 40
0.0
 40
0.0
 40
0.0
 40
0.0
 40
0.1990397805681786
 40
0.4636330061219266
 40
0.7350860208223999
 40
0.9999999999999999
 40
0.9999999999999999
 40
0.9999999999999999
 40
0.9999999999999999
 10
214.2839543213327
 20
370.6489714330276
 30
0.0
 10
214.3710971163184
 20
370.6715617068574
 30
0.0
 10
214.5740830515208
 20
370.7241823263885
 30
0.0
 10
215.312943593302
 20
370.8977903203685
 30
0.0
 10
216.411686617794
 20
371.1137109433687
 30
0.0
 10
217.3050435320507
 20
371.2210441724002
 30
0.0
 10
217.7462763776261
 20
371.274056518658
 30
0.0
  0
SPLINE
  5
1E4
330
1F
100
AcDbEntity
  8
0
  6
Continuous
 62
     7
370
    15
100
AcDbSpline
210
0.0
220
0.0
230
1.0
 70
     8
 71
     3
 72
    11
 73
     7
 74
     0
 42
0.00000001
 43
0.00000001
 40
0.0
 40
0.0
 40
0.0
 40
0.0
 40
0.3340937095961562
 40
0.6236909551962513
 40
0.9185145920042721
 40
1.0
 40
1.0
 40
1.0
 40
1.0
 10
215.6638074358184
 20
373.8853918856223
 30
0.0
 10
215.4728064728258
 20
373.3605274382817
 30
0.0
 10
215.1162431205968
 20
372.3807029186698
 30
0.0
 10
214.6132851048758
 20
371.2979723432695
 30
0.0
 10
214.363695962058
 20
370.8029155109128
 30
0.0
 10
214.2981479842069
 20
370.6763728047966
 30
0.0
 10
214.2839543213327
 20
370.6489714330276
 30
0.0
  0
SPLINE
  5
1E5
330
1F
100
AcDbEntity
  8
0
  6
Continuous
 62
     7
370
    15
100
AcDbSpline
210
0.0
220
0.0
230
1.0
 70
     8
 71
     3
 72
    10
 73
     6
 74
     0
 42
0.00000001
 43
0.00000001
 40
0.0
 40
0.0
 40
0.0
 40
0.0
 40
0.0182030861656541
 40
0.9949080468343537
 40
1.0
 40
1.0
 40
1.0
 40
1.0
 10
214.2839543213327
 20
370.6489714330276
 30
0.0
 10
214.283323376817
 20
370.6484683960235
 30
0.0
 10
214.2488384674998
 20
370.6209744008549
 30
0.0
 10
214.2153362813803
 20
370.5944459603065
 30
0.0
 10
214.232182274332
 20
370.6076824466791
 30
0.0
 10
214.2322696437318
 20
370.6077510958751
 30
0.0
  0
SPLINE
  5
1E6
330
1F
100
AcDbEntity
  8
0
  6
Continuous
 62
     7
370
    15
100
AcDbSpline
210
0.0
220
0.0
230
1.0
 70
     8
 71
     3
 72
    12
 73
     8
 74
     0
 42
0.00000001
 43
0.00000001
 40
0.0
 40
0.0
 40
0.0
 40
0.0
 40
0.158894514195821
 40
0.3518683894160666
 40
0.5590143726210555
 40
0.7625094588311946
 40
1.0
 40
1.0
 40
1.0
 40
1.0
 10
214.2399754067142
 20
371.574177080973
 30
0.0
 10
214.2025283001009
 20
371.4899559682804
 30
0.0
 10
214.1196025102523
 20
371.3034501758815
 30
0.0
 10
214.1879555303965
 20
371.4530547068255
 30
0.0
 10
214.4141242447795
 20
371.9746327352115
 30
0.0
 10
214.7782023639158
 20
372.9132682497442
 30
0.0
 10
215.0134101209827
 20
373.7601531407134
 30
0.0
 10
215.1400800486285
 20
374.216238642319
 30
0.0
  0
SPLINE
  5
1E7
330
1F
100
AcDbEntity
  8
0
  6
Continuous
 62
     7
370
    15
100
AcDbSpline
210
0.0
220
0.0
230
1.0
 70
     8
 71
     3
 72
    12
 73
     8
 74
     0
 42
0.00000001
 43
0.00000001
 40
0.0
 40
0.0
 40
0.0
 40
0.0
 40
0.2503031860202478
 40
0.5037287457408942
 40
0.750163140926731
 40
0.9974735770586983
 40
1.0
 40
1.0
 40
1.0
 40
1.0
 10
217.9522886564214
 20
370.689841592892
 30
0.0
 10
217.576023394827
 20
370.6745687603697
 30
0.0
 10
216.8187992008309
 20
370.6438325764135
 30
0.0
 10
215.8701188891014
 20
370.5223467263074
 30
0.0
 10
215.249806443882
 20
370.4173002460831
 30
0.0
 10
214.9542568809529
 20
370.3568427860091
 30
0.0
 10
214.980080329062
 20
370.3619974487916
 30
0.0
 10
214.9803414632756
 20
370.36204957424
 30
0.0
  0
SPLINE
  5
1E8
330
1F
100
AcDbEntity
  8
0
  6
Continuous
 62
     7
370
    15
100
AcDbSpline
210
0.0
220
0.0
230
1.0
 70
     8
 71
     3
 72
    11
 73
     7
 74
     0
 42
0.00000001
 43
0.00000001
 40
0.0
 40
0.0
 40
0.0
 40
0.0
 40
0.3340936934125171
 40
0.6236909971417606
 40
0.9185144974536761
 40
1.0
 40
1.0
 40
1.0
 40
1.0
 10
212.8601409186799
 20
392.6816160327037
 30
0.0
 10
212.3306988554529
 20
392.5036979902007
 30
0.0
 10
211.3423286621399
 20
392.1715579841899
 30
0.0
 10
210.182224040133
 20
391.8897178672178
 30
0.0
 10
209.6395612508761
 20
391.7761967890506
 30
0.0
 10
209.4997556170254
 20
391.7485408819733
 30
0.0
 10
209.4694822718579
 20
391.742552304848
 30
0.0
  0
SPLINE
  5
1E9
330
1F
100
AcDbEntity
  8
0
  6
Continuous
 62
     7
370
    15
100
AcDbSpline
210
0.0
220
0.0
230
1.0
 70
     8
 71
     3
 72
    10
 73
     6
 74
     0
 42
0.00000001
 43
0.00000001
 40
0.0
 40
0.0
 40
0.0
 40
0.0
 40
0.0182030598394264
 40
0.9949077686527777
 40
1.0
 40
1.0
 40
1.0
 40
1.0
 10
209.4694822718579
 20
391.742552304848
 30
0.0
 10
209.4686954594846
 20
391.7427311446388
 30
0.0
 10
209.425691384918
 20
391.7525058253116
 30
0.0
 10
209.3838655501251
 20
391.7620976276693
 30
0.0
 10
209.4049218130615
 20
391.7572847138177
 30
0.0
 10
209.4050310244043
 20
391.7572597509463
 30
0.0
  0
SPLINE
  5
1EA
330
1F
100
AcDbEntity
  8
0
  6
Continuous
 62
     7
370
    15
100
AcDbSpline
210
0.0
220
0.0
230
1.0
 70
     8
 71
     3
 72
    12
 73
     8
 74
     0
 42
0.00000001
 43
0.00000001
 40
0.0
 40
0.0
 40
0.0
 40
0.0
 40
0.1588944345947302
 40
0.351868304763763
 40
0.5590142812260684
 40
0.76250936974439
 40
1.0
 40
1.0
 40
1.0
 40
1.0
 10
210.1654167910297
 20
392.353790486439
 30
0.0
 10
210.076223054425
 20
392.3305590419571
 30
0.0
 10
209.8787054448581
 20
392.2791135082737
 30
0.0
 10
210.0382857868962
 20
392.318943615856
 30
0.0
 10
210.5870847555843
 20
392.4673219360163
 30
0.0
 10
211.5479400429344
 20
392.7678980138261
 30
0.0
 10
212.3567105730087
 20
393.1120308277474
 30
0.0
 10
212.7922698547322
 20
393.2973618155559
 30
0.0
  0
SPLINE
  5
1EB
330
1F
100
AcDbEntity
  8
0
  6
Continuous
 62
     7
370
    15
100
AcDbSpline
210
0.0
220
0.0
230
1.0
 70
     8
 71
     3
 72
    11
 73
     7
 74
     0
 42
0.00000001
 43
0.00000001
 40
0.0
 40
0.0
 40
0.0
 40
0.0
 40
0.1990395767931109
 40
0.4636331989219459
 40
0.7350852594683046
 40
1.0
 40
1.0
 40
1.0
 40
1.0
 10
209.4694822718579
 20
391.742552304848
 30
0.0
 10
209.5414769832177
 20
391.6885084940219
 30
0.0
 10
209.7091779945993
 20
391.5626214453307
 30
0.0
 10
210.3055778552463
 20
391.0931837958668
 30
0.0
 10
211.1594527478632
 20
390.3687917653569
 30
0.0
 10
211.8003652300475
 20
389.7372530466782
 30
0.0
 10
212.1169157018144
 20
389.4253323322375
 30
0.0
  0
SPLINE
  5
1EC
330
1F
100
AcDbEntity
  8
0
  6
Continuous
 62
     7
370
    15
100
AcDbSpline
210
0.0
220
0.0
230
1.0
 70
     8
 71
     3
 72
    12
 73
     8
 74
     0
 42
0.00000001
 43
0.00000001
 40
0.0
 40
0.0
 40
0.0
 40
0.0
 40
0.2503029372421258
 40
0.5037288417639547
 40
0.7501632626953719
 40
0.997473619717089
 40
1.0
 40
1.0
 40
1.0
 40
1.0
 10
211.7886040051658
 20
388.9000142460902
 30
0.0
 10
211.542066216961
 20
389.1846691206108
 30
0.0
 10
211.0459146500965
 20
389.7575304374798
 30
0.0
 10
210.359443106008
 20
390.4234730652235
 30
0.0
 10
209.8905432926833
 20
390.8430367218975
 30
0.0
 10
209.6590364845445
 20
391.036215217163
 30
0.0
 10
209.6791450234111
 20
391.019375522114
 30
0.0
 10
209.6793483634669
 20
391.0192052370151
 30
0.0
  0
LINE
  5
1ED
330
1F
100
AcDbEntity
  8
0
  6
Continuous
 62
     7
370
    15
100
AcDbLine
 10
253.7773549249
 20
293.1944398677
 30
0.0
 11
253.7773549249
 21
341.2902230865
 31
0.0
  0
LINE
  5
1EE
330
1F
100
AcDbEntity
  8
0
  6
Continuous
 62
     7
370
    15
100
AcDbLine
 10
253.7773549249
 20
349.0986550695
 30
0.0
 11
253.7773549249
 21
385.850700224
 31
0.0
  0
ARC
  5
1EF
330
1F
100
AcDbEntity
  8
0
  6
Continuous
 62
     7
370
    15
100
AcDbCircle
 10
251.7773553719
 20
293.1944391972
 30
0.0
 40
2.0
100
AcDbArc
 50
270.0
 51
0.0
  0
ARC
  5
1F0
330
1F
100
AcDbEntity
  8
0
  6
Continuous
 62
     7
370
    15
100
AcDbCircle
 10
172.7527701623
 20
293.1944391972
 30
0.0
 40
2.000000000000004
100
AcDbArc
 50
206.178968704
 51
270.0
  0
ARC
  5
1F1
330
1F
100
AcDbEntity
  8
0
  6
Continuous
 62
     7
370
    15
100
AcDbCircle
 10
233.7773553719
 20
323.1944391972
 30
0.0
 40
70.00000000000004
100
AcDbArc
 50
108.6993114069
 51
206.178968704
  0
CIRCLE
  5
1F2
330
1F
100
AcDbEntity
  8
0
  6
Continuous
 62
     7
370
    15
100
AcDbCircle
 10
170.7773553719
 20
323.1944391972
 30
0.0
 40
2.0
  0
LINE
  5
1F3
330
1F
100
AcDbEntity
  8
0
  6
Continuous
 62
     7
370
    15
100
AcDbLine
 10
172.7527714958
 20
291.1944376772
 30
0.0
 11
251.777354597
 21
291.1944376772
 31
0.0
  0
CIRCLE
  5
1F4
330
1F
100
AcDbEntity
  8
0
  6
Continuous
 62
     7
370
    15
100
AcDbCircle
 10
170.7773553719
 20
323.1944391972
 30
0.0
 40
0.5
  0
LWPOLYLINE
  5
1F5
330
1F
100
AcDbEntity
  8
0
  6
Continuous
 62
     7
370
    15
100
AcDbPolyline
 90
        2
 70
   128
 43
0.0
 10
248.2773549547
 20
413.1944427734
 10
248.2773549547
 20
413.1944427734
  0
LINE
  5
1F6
330
1F
100
AcDbEntity
  8
0
  6
Continuous
 62
     7
370
    15
100
AcDbLine
 10
245.2773553943
 20
413.1944427734
 30
0.0
 11
248.2773549547
 21
413.1944427734
 31
0.0
  0
LINE
  5
1F7
330
1F
100
AcDbEntity
  8
0
  6
Continuous
 62
     7
370
    15
100
AcDbLine
 10
222.2773553495
 20
413.1944427734
 30
0.0
 11
245.2773553943
 21
413.1944427734
 31
0.0
  0
LINE
  5
1F8
330
1F
100
AcDbEntity
  8
0
  6
Continuous
 62
     7
370
    15
100
AcDbLine
 10
219.2773557891
 20
413.1944427734
 30
0.0
 11
222.2773553495
 21
413.1944427734
 31
0.0
  0
LWPOLYLINE
  5
1F9
330
1F
100
AcDbEntity
  8
0
  6
Continuous
 62
     7
370
    15
100
AcDbPolyline
 90
        2
 70
   128
 43
0.0
 10
219.2773557891
 20
413.1944427734
 10
219.2773557891
 20
413.1944427734
  0
SPLINE
  5
1FA
330
1F
100
AcDbEntity
  8
0
  6
Continuous
 62
     7
370
    15
100
AcDbSpline
210
0.0
220
0.0
230
1.0
 70
    24
 71
     3
 72
    26
 73
    22
 74
     0
 42
0.00000001
 43
0.00000001
 40
0.0
 40
0.0
 40
0.0
 40
0.0
 40
0.0538045416217798
 40
0.1091603895855995
 40
0.1621620557653095
 40
0.216790792702014
 40
0.2685924857392595
 40
0.3217927958373811
 40
0.3754332049678044
 40
0.4306165563516495
 40
0.4974532570415438
 40
0.5513662597843464
 40
0.6068396637013164
 40
0.6607518547379654
 40
0.7162334580597568
 40
0.770075667033798
 40
0.825499040410522
 40
0.8790347139254038
 40
0.9343567445283172
 40
0.9851316259984361
 40
1.0
 40
1.0
 40
1.0
 40
1.0
 10
220.7871628617128
 20
533.1944326406558
 30
0.0
 10
220.8329401141676
 20
533.1944326406558
 30
0.0
 10
220.9258144805594
 20
533.1944326406558
 30
0.0
 10
221.5132439766307
 20
533.1944326406557
 30
0.0
 10
222.4718332753682
 20
533.1944326406557
 30
0.0
 10
223.7235436003963
 20
533.1944326406558
 30
0.0
 10
225.2472273653918
 20
533.1944326406558
 30
0.0
 10
226.9883637262391
 20
533.1944326406557
 30
0.0
 10
228.9533978834151
 20
533.1944326406558
 30
0.0
 10
231.229447515574
 20
533.1944326406558
 30
0.0
 10
233.6037097610972
 20
533.1944326406558
 30
0.0
 10
235.9785813995457
 20
533.1944326406558
 30
0.0
 10
238.1188060147805
 20
533.1944326406559
 30
0.0
 10
240.1549494588652
 20
533.1944326406557
 30
0.0
 10
241.9907775829036
 20
533.1944326406558
 30
0.0
 10
243.6090285916032
 20
533.1944326406558
 30
0.0
 10
244.9254107838633
 20
533.1944326406557
 30
0.0
 10
245.9497206391855
 20
533.1944326406559
 30
0.0
 10
246.5326503954498
 20
533.1944326406557
 30
0.0
 10
246.7893245475853
 20
533.1944326406559
 30
0.0
 10
246.744941207908
 20
533.1944326406558
 30
0.0
 10
246.7348882620414
 20
533.1944326406558
 30
0.0
  0
ARC
  5
1FB
330
1F
100
AcDbEntity
  8
0
  6
Continuous
 62
     7
370
    15
100
AcDbCircle
 10
233.7773553719
 20
323.1944391972
 30
0.0
 40
12.50000000000006
100
AcDbArc
 50
180.0
 51
0.0
  0
LINE
  5
1FC
330
1F
100
AcDbEntity
  8
0
  6
Continuous
 62
     7
370
    15
100
AcDbLine
 10
221.2773551856
 20
413.1944427734
 30
0.0
 11
221.2773551856
 21
402.2071386224
 31
0.0
  0
LINE
  5
1FD
330
1F
100
AcDbEntity
  8
0
  6
Continuous
 62
     7
370
    15
100
AcDbLine
 10
221.2773551856
 20
370.3781838065
 30
0.0
 11
221.2773551856
 21
323.1944391972
 31
0.0
  0
LINE
  5
1FE
330
1F
100
AcDbEntity
  8
0
  6
Continuous
 62
     7
370
    15
100
AcDbLine
 10
246.2773555582
 20
323.1944391972
 30
0.0
 11
246.2773555582
 21
370.4203540927
 31
0.0
  0
LINE
  5
1FF
330
1F
100
AcDbEntity
  8
0
  6
Continuous
 62
     7
370
    15
100
AcDbLine
 10
246.2773555582
 20
402.1668980366
 30
0.0
 11
246.2773555582
 21
413.1944427734
 31
0.0
  0
LINE
  5
200
330
1F
100
AcDbEntity
  8
0
  6
Continuous
 62
     7
370
    15
100
AcDbLine
 10
254.7773550888
 20
425.1944372898
 30
0.0
 11
254.7773550888
 21
393.3408285028
 31
0.0
  0
LINE
  5
201
330
1F
100
AcDbEntity
  8
0
  6
Continuous
 62
     7
370
    15
100
AcDbLine
 10
254.7773550888
 20
387.61089989
 30
0.0
 11
254.7773550888
 21
221.1944411045
 31
0.0
  0
LINE
  5
202
330
1F
100
AcDbEntity
  8
0
  6
Continuous
 62
     7
370
    15
100
AcDbLine
 10
258.5773560842
 20
425.1944372898
 30
0.0
 11
258.5773560842
 21
221.1944411045
 31
0.0
  0
LINE
  5
203
330
1F
100
AcDbEntity
  8
0
  6
Continuous
 62
     7
370
    15
100
AcDbLine
 10
212.777355655
 20
425.1944372898
 30
0.0
 11
212.777355655
 21
393.3409700638
 31
0.0
  0
LINE
  5
204
330
1F
100
AcDbEntity
  8
0
  6
Continuous
 62
     7
370
    15
100
AcDbLine
 10
212.777355655
 20
291.1944376772
 30
0.0
 11
212.777355655
 21
221.1944411045
 31
0.0
  0
LINE
  5
205
330
1F
100
AcDbEntity
  8
0
  6
Continuous
 62
     7
370
    15
100
AcDbLine
 10
208.9773546596
 20
425.1944372898
 30
0.0
 11
208.9773546596
 21
388.6540482288
 31
0.0
  0
LINE
  5
206
330
1F
100
AcDbEntity
  8
0
  6
Continuous
 62
     7
370
    15
100
AcDbLine
 10
208.9773546596
 20
291.1944376772
 30
0.0
 11
208.9773546596
 21
221.1944411045
 31
0.0
  0
LINE
  5
207
330
1F
100
AcDbEntity
  8
0
  6
Continuous
 62
     7
370
    15
100
AcDbLine
 10
251.777354597
 20
291.1944376772
 30
0.0
 11
254.5773554285
 21
291.1944376772
 31
0.0
  0
LINE
  5
208
330
1F
100
AcDbEntity
  8
0
  6
Continuous
 62
     7
370
    15
100
AcDbLine
 10
253.7773549249
 20
355.1944407171
 30
0.0
 11
254.5773554285
 21
355.1944407171
 31
0.0
  0
LINE
  5
209
330
1F
100
AcDbEntity
  8
0
  6
Continuous
 62
     7
370
    15
100
AcDbLine
 10
254.5773554285
 20
291.1944376772
 30
0.0
 11
254.5773554285
 21
355.1944407171
 31
0.0
  0
LINE
  5
20A
330
1F
100
AcDbEntity
  8
0
  6
Continuous
 62
     7
370
    15
100
AcDbLine
 10
254.5773554285
 20
360.3750566488
 30
0.0
 11
254.5773554285
 21
355.1944407171
 31
0.0
  0
LINE
  5
20B
330
1F
100
AcDbEntity
  8
0
  6
Continuous
 62
     7
370
    15
100
AcDbLine
 10
254.5773554285
 20
286.0138217455
 30
0.0
 11
212.9773553153
 21
286.0138217455
 31
0.0
  0
LINE
  5
20C
330
1F
100
AcDbEntity
  8
0
  6
Continuous
 62
     7
370
    15
100
AcDbLine
 10
212.9773553153
 20
286.0138217455
 30
0.0
 11
212.9773553153
 21
291.1944376772
 31
0.0
  0
LINE
  5
20D
330
1F
100
AcDbEntity
  8
0
  6
Continuous
 62
     7
370
    15
100
AcDbLine
 10
254.5773554285
 20
291.1944376772
 30
0.0
 11
254.5773554285
 21
286.0138217455
 31
0.0
  0
LINE
  5
20E
330
1F
100
AcDbEntity
  8
0
  6
Continuous
 62
     7
370
    15
100
AcDbLine
 10
212.9773553153
 20
220.9551359063
 30
0.0
 11
254.5773554285
 21
220.9551359063
 31
0.0
  0
LINE
  5
20F
330
1F
100
AcDbEntity
  8
0
  6
Continuous
 62
     7
370
    15
100
AcDbLine
 10
212.9773553153
 20
220.9551359063
 30
0.0
 11
212.9773553153
 21
286.0138217455
 31
0.0
  0
LINE
  5
210
330
1F
100
AcDbEntity
  8
0
  6
Continuous
 62
     7
370
    15
100
AcDbLine
 10
254.5773554285
 20
220.9551359063
 30
0.0
 11
254.5773554285
 21
286.0138217455
 31
0.0
  0
LINE
  5
211
330
1F
100
AcDbEntity
  8
0
  6
Continuous
 62
     7
370
    15
100
AcDbLine
 10
212.9773553153
 20
393.360080803
 30
0.0
 11
212.9773553153
 21
425.433742488
 31
0.0
  0
LINE
  5
212
330
1F
100
AcDbEntity
  8
0
  6
Continuous
 62
     7
370
    15
100
AcDbLine
 10
254.5773554285
 20
360.3750566488
 30
0.0
 11
254.5773554285
 21
387.2707436329
 31
0.0
  0
LINE
  5
213
330
1F
100
AcDbEntity
  8
0
  6
Continuous
 62
     7
370
    15
100
AcDbLine
 10
254.5773554285
 20
393.3609301692
 30
0.0
 11
254.5773554285
 21
425.433742488
 31
0.0
  0
LINE
  5
214
330
1F
100
AcDbEntity
  8
0
  6
Continuous
 62
     7
370
    15
100
AcDbLine
 10
254.5773554285
 20
213.2023970133
 30
0.0
 11
212.9773553153
 21
213.2023970133
 31
0.0
  0
LINE
  5
215
330
1F
100
AcDbEntity
  8
0
  6
Continuous
 62
     7
370
    15
100
AcDbLine
 10
212.9773553153
 20
213.2023970133
 30
0.0
 11
212.9773553153
 21
220.9551359063
 31
0.0
  0
LINE
  5
216
330
1F
100
AcDbEntity
  8
0
  6
Continuous
 62
     7
370
    15
100
AcDbLine
 10
254.5773554285
 20
220.9551359063
 30
0.0
 11
254.5773554285
 21
213.2023970133
 31
0.0
  0
LINE
  5
217
330
1F
100
AcDbEntity
  8
0
  6
Continuous
 62
     7
370
    15
100
AcDbLine
 10
212.9773553153
 20
425.433742488
 30
0.0
 11
212.9773553153
 21
433.186481381
 31
0.0
  0
LINE
  5
218
330
1F
100
AcDbEntity
  8
0
  6
Continuous
 62
     7
370
    15
100
AcDbLine
 10
254.5773554285
 20
433.186481381
 30
0.0
 11
254.5773554285
 21
425.433742488
 31
0.0
  0
LINE
  5
219
330
1F
100
AcDbEntity
  8
0
  6
Continuous
 62
     7
370
    15
100
AcDbLine
 10
212.9773553153
 20
213.1944397932
 30
0.0
 11
254.5773554285
 21
213.1944397932
 31
0.0
  0
LINE
  5
21A
330
1F
100
AcDbEntity
  8
0
  6
Continuous
 62
     7
370
    15
100
AcDbLine
 10
212.9773553153
 20
213.1944397932
 30
0.0
 11
212.9773553153
 21
213.2023970133
 31
0.0
  0
LINE
  5
21B
330
1F
100
AcDbEntity
  8
0
  6
Continuous
 62
     7
370
    15
100
AcDbLine
 10
254.5773554285
 20
213.1944397932
 30
0.0
 11
254.5773554285
 21
213.2023970133
 31
0.0
  0
LINE
  5
21C
330
1F
100
AcDbEntity
  8
0
  6
Continuous
 62
     7
370
    15
100
AcDbLine
 10
212.9773553153
 20
433.1944386011
 30
0.0
 11
219.2162349512
 21
433.1944386011
 31
0.0
  0
LINE
  5
21D
330
1F
100
AcDbEntity
  8
0
  6
Continuous
 62
     7
370
    15
100
AcDbLine
 10
248.338497213
 20
433.1944386011
 30
0.0
 11
254.5773554285
 21
433.1944386011
 31
0.0
  0
LINE
  5
21E
330
1F
100
AcDbEntity
  8
0
  6
Continuous
 62
     7
370
    15
100
AcDbLine
 10
212.9773553153
 20
433.186481381
 30
0.0
 11
212.9773553153
 21
433.1944386011
 31
0.0
  0
LINE
  5
21F
330
1F
100
AcDbEntity
  8
0
  6
Continuous
 62
     7
370
    15
100
AcDbLine
 10
254.5773554285
 20
433.186481381
 30
0.0
 11
254.5773554285
 21
433.1944386011
 31
0.0
  0
ARC
  5
220
330
1F
100
AcDbEntity
  8
0
  6
Continuous
 62
     7
370
    15
100
AcDbCircle
 10
247.2773553719
 20
345.1944391972
 30
0.0
 40
5.505553499465115
100
AcDbArc
 50
259.5350043722
 51
300.0
  0
ARC
  5
221
330
1F
100
AcDbEntity
  8
0
  6
Continuous
 62
     7
370
    15
100
AcDbCircle
 10
247.2773553719
 20
345.1944391972
 30
0.0
 40
5.50555349946518
100
AcDbArc
 50
300.0
 51
100.4649956278
  0
SPLINE
  5
222
330
1F
100
AcDbEntity
  8
0
  6
Continuous
 62
     7
370
    15
100
AcDbSpline
210
0.0
220
0.0
230
1.0
 70
     8
 71
     3
 72
    27
 73
    23
 74
     0
 42
0.00000001
 43
0.00000001
 40
0.0
 40
0.0
 40
0.0
 40
0.0
 40
0.0133479704776851
 40
0.0649888781154304
 40
0.1186107082427223
 40
0.174022844824991
 40
0.2275684563503084
 40
0.2826887033568217
 40
0.3362548251203797
 40
0.3913822539749676
 40
0.4449337193610816
 40
0.5000345045324753
 40
0.5664048944048642
 40
0.6197043445212481
 40
0.6745343160423084
 40
0.7260358800821621
 40
0.7789245198689718
 40
0.8318977779262158
 40
0.8864300293006937
 40
0.9399848609716803
 40
0.9951553057117914
 40
1.0
 40
1.0
 40
1.0
 40
1.0
 10
248.7333360751351
 20
531.1866948848804
 30
0.0
 10
248.7438980253042
 20
531.1865270246138
 30
0.0
 10
248.7953222694129
 20
531.185709743034
 30
0.0
 10
248.504962825799
 20
531.1898880280337
 30
0.0
 10
247.8292786416939
 20
531.2042798737704
 30
0.0
 10
246.6613499082903
 20
531.1680992613515
 30
0.0
 10
245.1272756227498
 20
531.1405914461126
 30
0.0
 10
243.2819427012696
 20
531.1136893690534
 30
0.0
 10
241.1486847733195
 20
531.0912938149831
 30
0.0
 10
238.8256929964261
 20
531.0744184050928
 30
0.0
 10
236.338142770317
 20
531.0638196786642
 30
0.0
 10
233.6017268682999
 20
531.05993265917
 30
0.0
 10
230.8658398460773
 20
531.0646027951525
 30
0.0
 10
228.2419037089646
 20
531.077390853583
 30
0.0
 10
225.9922878688406
 20
531.0951369519544
 30
0.0
 10
223.9626249053946
 20
531.1177479226678
 30
0.0
 10
222.21436595086
 20
531.144079400087
 30
0.0
 10
220.753584821887
 20
531.1718973330136
 30
0.0
 10
219.6359285146912
 20
531.2050893044579
 30
0.0
 10
218.9975101978469
 20
531.1882498675495
 30
0.0
 10
218.7318131470487
 20
531.1852259160506
 30
0.0
 10
218.7965173123837
 20
531.1862818218293
 30
0.0
 10
218.8017405261477
 20
531.1863670593341
 30
0.0
  0
LINE
  5
223
330
1F
100
AcDbEntity
  8
0
  6
Continuous
 62
     7
370
    15
100
AcDbLine
 10
253.7773549249
 20
360.3750566488
 30
0.0
 11
254.5773554285
 21
360.3750566488
 31
0.0
  0
LINE
  5
224
330
1F
100
AcDbEntity
  8
0
  6
Continuous
 62
     7
370
    15
100
AcDbLine
 10
254.5773554285
 20
425.433742488
 30
0.0
 11
248.3118669753
 21
425.433742488
 31
0.0
  0
LINE
  5
225
330
1F
100
AcDbEntity
  8
0
  6
Continuous
 62
     7
370
    15
100
AcDbLine
 10
219.2428335239
 20
425.433742488
 30
0.0
 11
212.9773553153
 21
425.433742488
 31
0.0
  0
LINE
  5
226
330
1F
100
AcDbEntity
  8
0
  6
Continuous
 62
     7
370
    15
100
AcDbLine
 10
212.9773553153
 20
433.186481381
 30
0.0
 11
219.2162638222
 21
433.186481381
 31
0.0
  0
LINE
  5
227
330
1F
100
AcDbEntity
  8
0
  6
Continuous
 62
     7
370
    15
100
AcDbLine
 10
248.3384674107
 20
433.186481381
 30
0.0
 11
254.5773554285
 21
433.186481381
 31
0.0
  0
ARC
  5
228
330
1F
100
AcDbEntity
  8
0
  6
Continuous
 62
     7
370
    15
100
AcDbCircle
 10
622.9115980952
 20
124.8015153414
 30
0.0
 40
10.11710270995755
100
AcDbArc
 50
162.5219155003
 51
197.5628810327
  0
LINE
  5
229
330
1F
100
AcDbEntity
  8
0
  6
Continuous
 62
     7
370
    15
100
AcDbLine
 10
626.9438364512
 20
127.3938908874
 30
0.0
 11
626.8442892439
 21
127.8400959148
 31
0.0
  0
LINE
  5
22A
330
1F
100
AcDbEntity
  8
0
  6
Continuous
 62
     7
370
    15
100
AcDbLine
 10
626.8530734784
 20
127.803695172
 30
0.0
 11
626.8529319173
 21
127.803695172
 31
0.0
  0
LINE
  5
22B
330
1F
100
AcDbEntity
  8
0
  6
Continuous
 62
     7
370
    15
100
AcDbLine
 10
623.8529332883
 20
127.803695172
 30
0.0
 11
613.2527911073
 21
127.803695172
 31
0.0
  0
LINE
  5
22C
330
1F
100
AcDbEntity
  8
0
  6
Continuous
 62
     7
370
    15
100
AcDbLine
 10
613.2527911073
 20
121.8036955855
 30
0.0
 11
618.8029372102
 21
121.8036955855
 31
0.0
  0
ARC
  5
22D
330
1F
100
AcDbEntity
  8
0
  6
Continuous
 62
     7
370
    15
100
AcDbCircle
 10
630.1529338843
 20
98.798141896
 30
0.0
 40
2.000000000000051
100
AcDbArc
 50
330.1295066699
 51
0.0
  0
LINE
  5
22E
330
1F
100
AcDbEntity
  8
0
  6
Continuous
 62
     7
370
    15
100
AcDbLine
 10
626.8529319173
 20
97.8036958425
 30
0.0
 11
627.2529312379
 21
97.8036958425
 31
0.0
  0
ARC
  5
22F
330
1F
100
AcDbEntity
  8
0
  6
Continuous
 62
     7
370
    15
100
AcDbCircle
 10
630.1529338843
 20
136.809248895
 30
0.0
 40
2.000000000000099
100
AcDbArc
 50
0.0
 51
29.857029534
  0
LINE
  5
230
330
1F
100
AcDbEntity
  8
0
  6
Continuous
 62
     7
370
    15
100
AcDbLine
 10
627.2529312379
 20
137.8036949485
 30
0.0
 11
626.8529319173
 21
137.8036949485
 31
0.0
  0
ARC
  5
231
330
1F
100
AcDbEntity
  8
0
  6
Continuous
 62
     7
370
    15
100
AcDbCircle
 10
619.8213958547
 20
117.8036953955
 30
0.0
 40
64.03153802959949
100
AcDbArc
 50
342.1852003238
 51
17.7795642574
  0
LINE
  5
232
330
1F
100
AcDbEntity
  8
0
  6
Continuous
 62
     7
370
    15
100
AcDbLine
 10
670.8529391295
 20
128.303695254
 30
0.0
 11
651.8529304272
 21
128.303695254
 31
0.0
  0
LINE
  5
233
330
1F
100
AcDbEntity
  8
0
  6
Continuous
 62
     7
370
    15
100
AcDbLine
 10
651.8529304272
 20
107.3036955371
 30
0.0
 11
670.8529391295
 21
107.3036955371
 31
0.0
  0
LINE
  5
234
330
1F
100
AcDbEntity
  8
0
  6
Continuous
 62
     7
370
    15
100
AcDbLine
 10
623.8529332883
 20
47.8036950975
 30
0.0
 11
626.8529319173
 21
47.8036950975
 31
0.0
  0
LINE
  5
235
330
1F
100
AcDbEntity
  8
0
  6
Continuous
 62
     7
370
    15
100
AcDbLine
 10
623.8529332883
 20
121.8036955855
 30
0.0
 11
618.8029372102
 21
121.8036955855
 31
0.0
  0
LINE
  5
236
330
1F
100
AcDbEntity
  8
0
  6
Continuous
 62
     7
370
    15
100
AcDbLine
 10
618.8029372102
 20
113.8036952055
 30
0.0
 11
624.0036138302
 21
113.8036952055
 31
0.0
  0
LINE
  5
237
330
1F
100
AcDbEntity
  8
0
  6
Continuous
 62
     7
370
    15
100
AcDbLine
 10
395.4029330021
 20
98.4036948233
 30
0.0
 11
398.9029326445
 21
98.4036948233
 31
0.0
  0
LINE
  5
238
330
1F
100
AcDbEntity
  8
0
  6
Continuous
 62
     7
370
    15
100
AcDbLine
 10
398.9029326445
 20
137.2036959677
 30
0.0
 11
395.4029330021
 21
137.2036959677
 31
0.0
  0
LINE
  5
239
330
1F
100
AcDbEntity
  8
0
  6
Continuous
 62
     7
370
    15
100
AcDbLine
 10
395.4029330021
 20
137.2036959677
 30
0.0
 11
391.4029323465
 21
133.2036953121
 31
0.0
  0
LINE
  5
23A
330
1F
100
AcDbEntity
  8
0
  6
Continuous
 62
     7
370
    15
100
AcDbLine
 10
391.4029323465
 20
102.403695479
 30
0.0
 11
395.4029330021
 21
98.4036948233
 31
0.0
  0
LINE
  5
23B
330
1F
100
AcDbEntity
  8
0
  6
Continuous
 62
     7
370
    15
100
AcDbLine
 10
398.9029326445
 20
101.9036944657
 30
0.0
 11
400.9029366976
 21
103.9036957248
 31
0.0
  0
LINE
  5
23C
330
1F
100
AcDbEntity
  8
0
  6
Continuous
 62
     7
370
    15
100
AcDbLine
 10
400.9029366976
 20
131.7036950662
 30
0.0
 11
398.9029326445
 21
133.7036963253
 31
0.0
  0
LINE
  5
23D
330
1F
100
AcDbEntity
  8
0
  6
Continuous
 62
     7
370
    15
100
AcDbLine
 10
403.8529344803
 20
125.8036957755
 30
0.0
 11
400.9029366976
 21
125.8036957755
 31
0.0
  0
LINE
  5
23E
330
1F
100
AcDbEntity
  8
0
  6
Continuous
 62
     7
370
    15
100
AcDbLine
 10
400.9029366976
 20
109.8036950155
 30
0.0
 11
403.8529344803
 21
109.8036950155
 31
0.0
  0
LINE
  5
23F
330
1F
100
AcDbEntity
  8
0
  6
Continuous
 62
     7
370
    15
100
AcDbLine
 10
411.8529357916
 20
142.6036961078
 30
0.0
 11
411.8529357916
 21
138.8036951124
 31
0.0
  0
LINE
  5
240
330
1F
100
AcDbEntity
  8
0
  6
Continuous
 62
     7
370
    15
100
AcDbLine
 10
615.8529319769
 20
138.8036951124
 30
0.0
 11
615.8529319769
 21
142.6036961078
 31
0.0
  0
LINE
  5
241
330
1F
100
AcDbEntity
  8
0
  6
Continuous
 62
     7
370
    15
100
AcDbLine
 10
411.8529357916
 20
96.8036956786
 30
0.0
 11
411.8529357916
 21
93.0036946832
 31
0.0
  0
LINE
  5
242
330
1F
100
AcDbEntity
  8
0
  6
Continuous
 62
     7
370
    15
100
AcDbLine
 10
615.8529319769
 20
93.0036946832
 30
0.0
 11
615.8529319769
 21
96.8036956786
 31
0.0
  0
LINE
  5
243
330
1F
100
AcDbEntity
  8
0
  6
Continuous
 62
     7
370
    15
100
AcDbLine
 10
432.8529336459
 20
97.0036953389
 30
0.0
 11
432.8529336459
 21
96.8036956786
 31
0.0
  0
LINE
  5
244
330
1F
100
AcDbEntity
  8
0
  6
Continuous
 62
     7
370
    15
100
AcDbLine
 10
432.8529336459
 20
138.8036951124
 30
0.0
 11
432.8529336459
 21
138.6036954521
 31
0.0
  0
LINE
  5
245
330
1F
100
AcDbEntity
  8
0
  6
Continuous
 62
     7
370
    15
100
AcDbLine
 10
594.8529341227
 20
138.6036954521
 30
0.0
 11
594.8529341227
 21
138.8036951124
 31
0.0
  0
LINE
  5
246
330
1F
100
AcDbEntity
  8
0
  6
Continuous
 62
     7
370
    15
100
AcDbLine
 10
594.8529341227
 20
96.8036956786
 30
0.0
 11
594.8529341227
 21
97.0036953389
 31
0.0
  0
LWPOLYLINE
  5
247
330
1F
100
AcDbEntity
  8
0
  6
Continuous
 62
     7
370
    15
100
AcDbPolyline
 90
       12
 70
   128
 43
0.0
 10
613.2527911073
 20
121.8425433784
 10
613.2527911073
 20
121.873540122
 10
613.2527836568
 20
122.2517432346
 10
613.252761305
 20
122.9176598302
 10
613.2528283602
 20
123.7962122708
 10
613.2527762062
 20
124.7883511408
 10
613.2528358108
 20
125.7822194769
 10
613.2527538544
 20
126.6657670661
 10
613.2527911073
 20
127.3393805771
 10
613.2527911073
 20
127.7271143793
 10
613.2527911073
 20
127.8033161237
 10
613.2527911073
 20
127.8033161237
  0
SPLINE
  5
248
330
1F
100
AcDbEntity
  8
0
  6
Continuous
 62
     7
370
    15
100
AcDbSpline
210
0.0
220
0.0
230
1.0
 70
     8
 71
     3
 72
    10
 73
     6
 74
     0
 42
0.00000001
 43
0.00000001
 40
0.0
 40
0.0
 40
0.0
 40
0.0
 40
0.0482134720790875
 40
0.6336073366987516
 40
1.0
 40
1.0
 40
1.0
 40
1.0
 10
626.8530809289563
 20
127.2839007600389
 30
0.0
 10
626.8530783189757
 20
127.302642506658
 30
0.0
 10
626.8530440193747
 20
127.5489410545191
 30
0.0
 10
626.8530932892868
 20
127.7344829468909
 30
0.0
 10
626.85307898489
 20
127.7841836938038
 30
0.0
 10
626.8530734783757
 20
127.8033161237083
 30
0.0
  0
LINE
  5
249
330
1F
100
AcDbEntity
  8
0
  6
Continuous
 62
     7
370
    15
100
AcDbLine
 10
627.2529312379
 20
107.5536951124
 30
0.0
 11
627.2529312379
 21
107.8022455498
 31
0.0
  0
SPLINE
  5
24A
330
1F
100
AcDbEntity
  8
0
  6
Continuous
 62
     7
370
    15
100
AcDbSpline
210
0.0
220
0.0
230
1.0
 70
     8
 71
     3
 72
    10
 73
     6
 74
     0
 42
0.00000001
 43
0.00000001
 40
0.0
 40
0.0
 40
0.0
 40
0.0
 40
0.3305288220607359
 40
0.6599012768487684
 40
1.0
 40
1.0
 40
1.0
 40
1.0
 10
630.1529356247532
 20
104.3036950453365
 30
0.0
 10
630.2701762760659
 20
104.3148000577239
 30
0.0
 10
630.5042474079488
 20
104.3369712312033
 30
0.0
 10
630.8264013850285
 20
104.4873893013202
 30
0.0
 10
630.9814590681501
 20
104.6444925123177
 30
0.0
 10
631.0602300769436
 20
104.7243026717747
 30
0.0
  0
LINE
  5
24B
330
1F
100
AcDbEntity
  8
0
  6
Continuous
 62
     7
370
    15
100
AcDbLine
 10
630.1529356248
 20
104.3036950453
 30
0.0
 11
627.2529312379
 21
104.3036950453
 31
0.0
  0
LINE
  5
24C
330
1F
100
AcDbEntity
  8
0
  6
Continuous
 62
     7
370
    15
100
AcDbLine
 10
627.2529312379
 20
104.3036950453
 30
0.0
 11
627.2529312379
 21
107.5536951124
 31
0.0
  0
SPLINE
  5
24D
330
1F
100
AcDbEntity
  8
0
  6
Continuous
 62
     7
370
    15
100
AcDbSpline
210
0.0
220
0.0
230
1.0
 70
    24
 71
     3
 72
    14
 73
    10
 74
     0
 42
0.00000001
 43
0.00000001
 40
0.0
 40
0.0
 40
0.0
 40
0.0
 40
0.2503024899676679
 40
0.5235732864040326
 40
0.6634079142180666
 40
0.8041210496104186
 40
0.8962177600633461
 40
0.9750831594808655
 40
1.0
 40
1.0
 40
1.0
 40
1.0
 10
631.8840854770291
 20
97.80369584254869
 30
0.0
 10
631.8754683556521
 20
97.80369584254869
 30
0.0
 10
631.8574433869062
 20
97.80369584254869
 30
0.0
 10
631.672051539163
 20
97.80369584254869
 30
0.0
 10
631.3534752775818
 20
97.80369584254869
 30
0.0
 10
631.0195914038754
 20
97.80369584254869
 30
0.0
 10
630.633628709257
 20
97.80369584254869
 30
0.0
 10
630.3460439887897
 20
97.80369584254869
 30
0.0
 10
630.1903224521693
 20
97.80369584254869
 30
0.0
 10
630.1529356247532
 20
97.80369584254869
 30
0.0
  0
SPLINE
  5
24E
330
1F
100
AcDbEntity
  8
0
  6
Continuous
 62
     7
370
    15
100
AcDbSpline
210
0.0
220
0.0
230
1.0
 70
     8
 71
     3
 72
    18
 73
    14
 74
     0
 42
0.00000001
 43
0.00000001
 40
0.0
 40
0.0
 40
0.0
 40
0.0
 40
0.0344336689164809
 40
0.0724914448143899
 40
0.1306345655743031
 40
0.2236186076913401
 40
0.4104355368515253
 40
0.5001955036376659
 40
0.7376503653876568
 40
0.8568702024391198
 40
0.9094910117870862
 40
0.9625702750152486
 40
1.0
 40
1.0
 40
1.0
 40
1.0
 10
630.1529356247532
 20
97.80369584254869
 30
0.0
 10
630.2565271304643
 20
97.81200443948971
 30
0.0
 10
630.474613037537
 20
97.82949610435111
 30
0.0
 10
630.8299241161801
 20
97.98936011517326
 30
0.0
 10
631.2379866808002
 20
98.340690947961
 30
0.0
 10
631.6908521621044
 20
99.1420336169093
 30
0.0
 10
631.8591644604724
 20
100.1039278119646
 30
0.0
 10
631.9110190902471
 20
101.4356517600357
 30
0.0
 10
631.8120200001008
 20
102.6046265956546
 30
0.0
 10
631.3563540708828
 20
103.6167039537628
 30
0.0
 10
630.9135677600402
 20
104.0618200357494
 30
0.0
 10
630.5379869300081
 20
104.2695118338595
 30
0.0
 10
630.2655861595326
 20
104.2936944116526
 30
0.0
 10
630.1529356247532
 20
104.3036950453366
 30
0.0
  0
LINE
  5
24F
330
1F
100
AcDbEntity
  8
0
  6
Continuous
 62
     7
370
    15
100
AcDbLine
 10
632.1529322273
 20
101.5509187876
 30
0.0
 11
632.1529322273
 21
104.2294099628
 31
0.0
  0
LINE
  5
250
330
1F
100
AcDbEntity
  8
0
  6
Continuous
 62
     7
370
    15
100
AcDbLine
 10
632.1529322273
 20
98.7981415986
 30
0.0
 11
632.1529322273
 21
101.5509187876
 31
0.0
  0
LINE
  5
251
330
1F
100
AcDbEntity
  8
0
  6
Continuous
 62
     7
370
    15
100
AcDbLine
 10
630.1529356248
 20
97.8036958425
 30
0.0
 11
627.2529312379
 21
97.8036958425
 31
0.0
  0
LINE
  5
252
330
1F
100
AcDbEntity
  8
0
  6
Continuous
 62
     7
370
    15
100
AcDbLine
 10
627.2529312379
 20
97.8036958425
 30
0.0
 11
627.2529312379
 21
101.0536949783
 31
0.0
  0
LINE
  5
253
330
1F
100
AcDbEntity
  8
0
  6
Continuous
 62
     7
370
    15
100
AcDbLine
 10
627.2529312379
 20
101.0536949783
 30
0.0
 11
627.2529312379
 21
104.3036950453
 31
0.0
  0
SPLINE
  5
254
330
1F
100
AcDbEntity
  8
0
  6
Continuous
 62
     7
370
    15
100
AcDbSpline
210
0.0
220
0.0
230
1.0
 70
     8
 71
     3
 72
    10
 73
     6
 74
     0
 42
0.00000001
 43
0.00000001
 40
0.0
 40
0.0
 40
0.0
 40
0.0
 40
0.2412487127178115
 40
0.6862207459417756
 40
1.0
 40
1.0
 40
1.0
 40
1.0
 10
631.0691111690152
 20
130.8794410600507
 30
0.0
 10
631.0145918595587
 20
130.9374259916681
 30
0.0
 10
630.8595142188034
 20
131.1023614335185
 30
0.0
 10
630.5362252449994
 20
131.2682809891615
 30
0.0
 10
630.2650707355901
 20
131.2933348138031
 30
0.0
 10
630.1529356247532
 20
131.303695745691
 30
0.0
  0
SPLINE
  5
255
330
1F
100
AcDbEntity
  8
0
  6
Continuous
 62
     7
370
    15
100
AcDbSpline
210
0.0
220
0.0
230
1.0
 70
     8
 71
     3
 72
    19
 73
    15
 74
     0
 42
0.00000001
 43
0.00000001
 40
0.0
 40
0.0
 40
0.0
 40
0.0
 40
0.0390832281892506
 40
0.0780296889031233
 40
0.1388089767184927
 40
0.2381075759102961
 40
0.4910421690211013
 40
0.6249649566681903
 40
0.7616681333288898
 40
0.8316204259453805
 40
0.9020119704446361
 40
0.9480830501551338
 40
0.9875354060717156
 40
1.0
 40
1.0
 40
1.0
 40
1.0
 10
630.1529356247532
 20
131.303695745691
 30
0.0
 10
630.2706562042597
 20
131.3144282069677
 30
0.0
 10
630.5056854130011
 20
131.3358555724488
 30
0.0
 10
630.8753619175421
 20
131.5190287795236
 30
0.0
 10
631.2883857034816
 20
131.9021770463488
 30
0.0
 10
631.7987151862286
 20
132.8990084433055
 30
0.0
 10
631.919333613365
 20
134.1811195539356
 30
0.0
 10
631.8563047375769
 20
135.537358557941
 30
0.0
 10
631.6728231085808
 20
136.4159966994724
 30
0.0
 10
631.3533250850539
 20
137.0834728391984
 30
0.0
 10
631.0196180649401
 20
137.4827549042786
 30
0.0
 10
630.6336226035643
 20
137.7211163841934
 30
0.0
 10
630.3460447297774
 20
137.7979123728272
 30
0.0
 10
630.1903225284668
 20
137.8025754124576
 30
0.0
 10
630.1529356247532
 20
137.8036949484789
 30
0.0
  0
SPLINE
  5
256
330
1F
100
AcDbEntity
  8
0
  6
Continuous
 62
     7
370
    15
100
AcDbSpline
210
0.0
220
0.0
230
1.0
 70
    24
 71
     3
 72
    13
 73
     9
 74
     0
 42
0.00000001
 43
0.00000001
 40
0.0
 40
0.0
 40
0.0
 40
0.0
 40
0.0782106890905255
 40
0.1561478049207627
 40
0.2777750023096248
 40
0.476484446467214
 40
0.9826396190570991
 40
1.0
 40
1.0
 40
1.0
 40
1.0
 10
630.1529356247532
 20
137.8036949484789
 30
0.0
 10
630.2706615279865
 20
137.8036949484789
 30
0.0
 10
630.5057015408792
 20
137.8036949484789
 30
0.0
 10
630.8752836029207
 20
137.8036949484789
 30
0.0
 10
631.2889978598329
 20
137.8036949484789
 30
0.0
 10
631.7921966583081
 20
137.8036949484789
 30
0.0
 10
631.9253526337776
 20
137.8036949484789
 30
0.0
 10
631.8854244431488
 20
137.8036949484789
 30
0.0
 10
631.8841003781903
 20
137.8036949484789
 30
0.0
  0
LINE
  5
257
330
1F
100
AcDbEntity
  8
0
  6
Continuous
 62
     7
370
    15
100
AcDbLine
 10
632.1529322273
 20
131.3887012824
 30
0.0
 11
632.1529322273
 21
136.8092491924
 31
0.0
  0
LINE
  5
258
330
1F
100
AcDbEntity
  8
0
  6
Continuous
 62
     7
370
    15
100
AcDbLine
 10
627.2529312379
 20
134.5536958127
 30
0.0
 11
627.2529312379
 21
137.8036949485
 31
0.0
  0
LINE
  5
259
330
1F
100
AcDbEntity
  8
0
  6
Continuous
 62
     7
370
    15
100
AcDbLine
 10
630.1529356248
 20
137.8036949485
 30
0.0
 11
627.2529312379
 21
137.8036949485
 31
0.0
  0
LINE
  5
25A
330
1F
100
AcDbEntity
  8
0
  6
Continuous
 62
     7
370
    15
100
AcDbLine
 10
630.1529356248
 20
131.3036957457
 30
0.0
 11
627.2529312379
 21
131.3036957457
 31
0.0
  0
LINE
  5
25B
330
1F
100
AcDbEntity
  8
0
  6
Continuous
 62
     7
370
    15
100
AcDbLine
 10
627.2529312379
 20
131.3036957457
 30
0.0
 11
627.2529312379
 21
134.5536958127
 31
0.0
  0
LINE
  5
25C
330
1F
100
AcDbEntity
  8
0
  6
Continuous
 62
     7
370
    15
100
AcDbLine
 10
627.2529312379
 20
127.7684911787
 30
0.0
 11
627.2529312379
 21
128.0536956786
 31
0.0
  0
LINE
  5
25D
330
1F
100
AcDbEntity
  8
0
  6
Continuous
 62
     7
370
    15
100
AcDbLine
 10
627.2529312379
 20
128.0536956786
 30
0.0
 11
627.2529312379
 21
131.3036957457
 31
0.0
  0
LINE
  5
25E
330
1F
100
AcDbEntity
  8
0
  6
Continuous
 62
     7
370
    15
100
AcDbLine
 10
670.8529391295
 20
129.1636589616
 30
0.0
 11
670.8529391295
 21
123.8636353686
 31
0.0
  0
SPLINE
  5
25F
330
1F
100
AcDbEntity
  8
0
  6
Continuous
 62
     7
370
    15
100
AcDbSpline
210
0.0
220
0.0
230
1.0
 70
     8
 71
     3
 72
    12
 73
     8
 74
     0
 42
0.00000001
 43
0.00000001
 40
0.0
 40
0.0
 40
0.0
 40
0.0
 40
0.1136354697932188
 40
0.3008434200099075
 40
0.4919219367142158
 40
0.6964449764706011
 40
1.0
 40
1.0
 40
1.0
 40
1.0
 10
674.7724660641301
 20
128.6217167674741
 30
0.0
 10
674.4957115428778
 20
128.6197774181752
 30
0.0
 10
673.7630197449012
 20
128.6146431016037
 30
0.0
 10
672.6920296540786
 20
128.6056295634224
 30
0.0
 10
671.7249278355656
 20
128.6387170116377
 30
0.0
 10
670.9832941281459
 20
128.7645302901564
 30
0.0
 10
670.9016925814319
 20
129.0143827489486
 30
0.0
 10
670.8529391295064
 20
129.1636589615783
 30
0.0
  0
SPLINE
  5
260
330
1F
100
AcDbEntity
  8
0
  6
Continuous
 62
     7
370
    15
100
AcDbSpline
210
0.0
220
0.0
230
1.0
 70
     8
 71
     3
 72
    12
 73
     8
 74
     0
 42
0.00000001
 43
0.00000001
 40
0.0
 40
0.0
 40
0.0
 40
0.0
 40
0.2917316366320745
 40
0.5225559947551479
 40
0.7611464322712207
 40
0.971451035591128
 40
1.0
 40
1.0
 40
1.0
 40
1.0
 10
670.8529391295064
 20
123.8636353685698
 30
0.0
 10
670.8981151646549
 20
124.516316146911
 30
0.0
 10
670.9790354524189
 20
125.6854120232481
 30
0.0
 10
671.7870180538774
 20
127.1502840842811
 30
0.0
 10
672.9984961682021
 20
128.1368542400338
 30
0.0
 10
674.1174472227179
 20
128.520186268059
 30
0.0
 10
674.7025336313999
 20
128.610876965057
 30
0.0
 10
674.7724660641301
 20
128.6217167674741
 30
0.0
  0
SPLINE
  5
261
330
1F
100
AcDbEntity
  8
0
  6
Continuous
 62
     7
370
    15
100
AcDbSpline
210
0.0
220
0.0
230
1.0
 70
     8
 71
     3
 72
    11
 73
     7
 74
     0
 42
0.00000001
 43
0.00000001
 40
0.0
 40
0.0
 40
0.0
 40
0.0
 40
0.3340933285012819
 40
0.6236907968783947
 40
0.9185146633775105
 40
1.0
 40
1.0
 40
1.0
 40
1.0
 10
679.9913593536961
 20
128.7827424406252
 30
0.0
 10
679.7787039760366
 20
128.7270984953412
 30
0.0
 10
679.3817154981524
 20
128.623221483695
 30
0.0
 10
678.2204325411656
 20
128.606591261024
 30
0.0
 10
677.1483655253454
 20
128.6166670675041
 30
0.0
 10
676.4969986938984
 20
128.6208179439492
 30
0.0
 10
676.3559528595555
 20
128.6217167674741
 30
0.0
  0
SPLINE
  5
262
330
1F
100
AcDbEntity
  8
0
  6
Continuous
 62
     7
370
    15
100
AcDbSpline
210
0.0
220
0.0
230
1.0
 70
     8
 71
     3
 72
    11
 73
     7
 74
     0
 42
0.00000001
 43
0.00000001
 40
0.0
 40
0.0
 40
0.0
 40
0.0
 40
0.0091483254061713
 40
0.499999950218859
 40
0.990860920166521
 40
1.0
 40
1.0
 40
1.0
 40
1.0
 10
676.3559528595555
 20
128.6217167674741
 30
0.0
 10
676.3511750237504
 20
128.622067738178
 30
0.0
 10
676.0900433347666
 20
128.6412499739063
 30
0.0
 10
675.5642081923561
 20
128.6596603433219
 30
0.0
 10
675.038363059401
 20
128.6412694403843
 30
0.0
 10
674.7772389321458
 20
128.6220677391993
 30
0.0
 10
674.7724660641301
 20
128.6217167674741
 30
0.0
  0
ARC
  5
263
330
1F
100
AcDbEntity
  8
0
  6
Continuous
 62
     7
370
    15
100
AcDbCircle
 10
671.5962002661
 20
129.1440581263
 30
0.0
 40
0.7435195423769002
100
AcDbArc
 50
88.5638142802
 51
178.489380318
  0
SPLINE
  5
264
330
1F
100
AcDbEntity
  8
0
  6
Continuous
 62
     7
370
    15
100
AcDbSpline
210
0.0
220
0.0
230
1.0
 70
     8
 71
     3
 72
    16
 73
    12
 74
     0
 42
0.00000001
 43
0.00000001
 40
0.0
 40
0.0
 40
0.0
 40
0.0
 40
0.1632156734272336
 40
0.2700785095797673
 40
0.3688076596364145
 40
0.4654143507126439
 40
0.5626671746568699
 40
0.6630038744234671
 40
0.7707095983568217
 40
0.8765165469711892
 40
0.9999999999999999
 40
0.9999999999999999
 40
0.9999999999999999
 40
0.9999999999999999
 10
671.6148355013478
 20
129.8873440995059
 30
0.0
 10
671.6534847307307
 20
129.7008347657729
 30
0.0
 10
671.7174389212134
 20
129.3922114465806
 30
0.0
 10
672.341374203392
 20
129.1789323267705
 30
0.0
 10
673.1556156795276
 20
129.0886885733315
 30
0.0
 10
674.1929035936827
 20
129.0600248152958
 30
0.0
 10
675.3776265672873
 20
129.0548755977092
 30
0.0
 10
676.6308781349358
 20
129.0567092548937
 30
0.0
 10
677.7908181732569
 20
129.0797223991865
 30
0.0
 10
678.7695541461569
 20
129.1588291642432
 30
0.0
 10
679.098337998373
 20
129.31438107271
 30
0.0
 10
679.2754032618153
 20
129.3981529473505
 30
0.0
  0
ARC
  5
265
330
1F
100
AcDbEntity
  8
0
  6
Continuous
 62
     7
370
    15
100
AcDbCircle
 10
679.2205287191
 20
128.6101433725
 30
0.0
 40
0.7899179106209387
100
AcDbArc
 50
12.6210950537
 51
86.0165303286
  0
LWPOLYLINE
  5
266
330
1F
100
AcDbEntity
  8
0
  6
Continuous
 62
     7
370
    15
100
AcDbPolyline
 90
        9
 70
   128
 43
0.0
 10
670.8529391295
 20
111.7437554225
 10
670.8675720698
 20
111.7954377718
 10
670.9109344489
 20
111.8451340757
 10
670.9813424355
 20
111.8909346572
 10
671.0760840184
 20
111.9310788511
 10
671.1915531165
 20
111.9640243872
 10
671.3232644803
 20
111.9885051324
 10
671.4661964184
 20
112.0035804509
 10
671.6148355013
 20
112.0086705945
  0
SPLINE
  5
267
330
1F
100
AcDbEntity
  8
0
  6
Continuous
 62
     7
370
    15
100
AcDbSpline
210
0.0
220
0.0
230
1.0
 70
     8
 71
     3
 72
    16
 73
    12
 74
     0
 42
0.00000001
 43
0.00000001
 40
0.0
 40
0.0
 40
0.0
 40
0.0
 40
0.1632157828259385
 40
0.2700786426428323
 40
0.3688076546798691
 40
0.465414555530645
 40
0.5626673169969755
 40
0.6630040676454637
 40
0.7707095954953649
 40
0.8765169154548541
 40
1.0
 40
1.0
 40
1.0
 40
1.0
 10
671.6148355013478
 20
112.0086705944678
 30
0.0
 10
671.6534848189227
 20
111.3917249011313
 30
0.0
 10
671.7174391439825
 20
110.3708441225954
 30
0.0
 10
672.3413731142842
 20
109.1640558362246
 30
0.0
 10
673.1556180703326
 20
108.3776651581942
 30
0.0
 10
674.1929012687708
 20
107.8780055585089
 30
0.0
 10
675.3776280030147
 20
107.6731796146753
 30
0.0
 10
676.6308757743091
 20
107.7852487087657
 30
0.0
 10
677.7908221161823
 20
108.2506622574963
 30
0.0
 10
678.7695505548666
 20
109.0827672063618
 30
0.0
 10
679.0983370861574
 20
109.8563744543228
 30
0.0
 10
679.2754032618153
 20
110.2729963771245
 30
0.0
  0
ARC
  5
268
330
1F
100
AcDbEntity
  8
0
  6
Continuous
 62
     7
370
    15
100
AcDbCircle
 10
679.1057964077
 20
109.1932033438
 30
0.0
 40
1.093032240935769
100
AcDbArc
 50
35.8855765073
 51
81.0732889225
  0
SPLINE
  5
269
330
1F
100
AcDbEntity
  8
0
  6
Continuous
 62
     7
370
    15
100
AcDbSpline
210
0.0
220
0.0
230
1.0
 70
     8
 71
     3
 72
    11
 73
     7
 74
     0
 42
0.00000001
 43
0.00000001
 40
0.0
 40
0.0
 40
0.0
 40
0.0
 40
0.3340937349259013
 40
0.6236912338092571
 40
0.9185144978813125
 40
1.0
 40
1.0
 40
1.0
 40
1.0
 10
679.9913593536961
 20
109.8339043258867
 30
0.0
 10
679.7787039503812
 20
109.3647015142438
 30
0.0
 10
679.3817156294265
 20
108.4887866139982
 30
0.0
 10
678.2204349163728
 20
107.5451199907955
 30
0.0
 10
677.1483630489678
 20
107.1180161397991
 30
0.0
 10
676.4969986232054
 20
107.0092303774443
 30
0.0
 10
676.3559528595555
 20
106.9856740235529
 30
0.0
  0
SPLINE
  5
26A
330
1F
100
AcDbEntity
  8
0
  6
Continuous
 62
     7
370
    15
100
AcDbSpline
210
0.0
220
0.0
230
1.0
 70
     8
 71
     3
 72
    11
 73
     7
 74
     0
 42
0.00000001
 43
0.00000001
 40
0.0
 40
0.0
 40
0.0
 40
0.0
 40
0.009139079833479
 40
0.5000000497811411
 40
0.9908516745938288
 40
1.0
 40
1.0
 40
1.0
 40
1.0
 10
674.7724660641301
 20
106.9856740235529
 30
0.0
 10
674.7772389321458
 20
106.9853230518277
 30
0.0
 10
675.0383630594015
 20
106.9661213506426
 30
0.0
 10
675.5642081923561
 20
106.9477304477051
 30
0.0
 10
676.0900433347662
 20
106.9661408171207
 30
0.0
 10
676.3511750237504
 20
106.985323052849
 30
0.0
 10
676.3559528595555
 20
106.9856740235529
 30
0.0
  0
SPLINE
  5
26B
330
1F
100
AcDbEntity
  8
0
  6
Continuous
 62
     7
370
    15
100
AcDbSpline
210
0.0
220
0.0
230
1.0
 70
     8
 71
     3
 72
    12
 73
     8
 74
     0
 42
0.00000001
 43
0.00000001
 40
0.0
 40
0.0
 40
0.0
 40
0.0
 40
0.1136355179096347
 40
0.3008434375786587
 40
0.4919219570760481
 40
0.6964446162286667
 40
1.0
 40
1.0
 40
1.0
 40
1.0
 10
674.7724660641301
 20
106.9856740235529
 30
0.0
 10
674.49571157711
 20
107.0381895491297
 30
0.0
 10
673.7630201372145
 20
107.1772213547783
 30
0.0
 10
672.6920293803906
 20
107.6913526348675
 30
0.0
 10
671.7249288135978
 20
108.5817491522647
 30
0.0
 10
670.983292912372
 20
109.9253214310458
 30
0.0
 10
670.9016921641675
 20
111.0636510674982
 30
0.0
 10
670.8529391295064
 20
111.7437554224572
 30
0.0
  0
SPLINE
  5
26C
330
1F
100
AcDbEntity
  8
0
  6
Continuous
 62
     7
370
    15
100
AcDbSpline
210
0.0
220
0.0
230
1.0
 70
     8
 71
     3
 72
    12
 73
     8
 74
     0
 42
0.00000001
 43
0.00000001
 40
0.0
 40
0.0
 40
0.0
 40
0.0
 40
0.2917317801072279
 40
0.522556101618799
 40
0.7611462372403631
 40
0.9714510020703523
 40
1.0
 40
1.0
 40
1.0
 40
1.0
 10
670.8529391295064
 20
106.4437318294487
 30
0.0
 10
670.89811517768
 20
106.5877317074042
 30
0.0
 10
670.9790354655258
 20
106.8456673180888
 30
0.0
 10
671.7870171156802
 20
106.9807856086504
 30
0.0
 10
672.998497938567
 20
107.0028712366108
 30
0.0
 10
674.1174474316014
 20
106.9895155513118
 30
0.0
 10
674.7025336313619
 20
106.9860841605602
 30
0.0
 10
674.7724660641301
 20
106.9856740235528
 30
0.0
  0
LINE
  5
26D
330
1F
100
AcDbEntity
  8
0
  6
Continuous
 62
     7
370
    15
100
AcDbLine
 10
670.8529391295
 20
111.7437554225
 30
0.0
 11
670.8529391295
 21
106.4437318294
 31
0.0
  0
ARC
  5
26E
330
1F
100
AcDbEntity
  8
0
  6
Continuous
 62
     7
370
    15
100
AcDbCircle
 10
679.1057964077
 20
126.4141874472
 30
0.0
 40
1.093032240935797
100
AcDbArc
 50
278.9267110775
 51
324.1144234927
  0
SPLINE
  5
26F
330
1F
100
AcDbEntity
  8
0
  6
Continuous
 62
     7
370
    15
100
AcDbSpline
210
0.0
220
0.0
230
1.0
 70
     8
 71
     3
 72
    16
 73
    12
 74
     0
 42
0.00000001
 43
0.00000001
 40
0.0
 40
0.0
 40
0.0
 40
0.0
 40
0.0982184987594671
 40
0.1976626405930283
 40
0.2943630451319415
 40
0.3914073920790291
 40
0.4911093511887549
 40
0.5996271814080418
 40
0.7226907801226935
 40
0.8431782463681222
 40
1.0
 40
1.0
 40
1.0
 40
1.0
 10
679.2754032618153
 20
125.3343944139025
 30
0.0
 10
679.1414961905544
 20
125.6673071063546
 30
0.0
 10
678.872011056554
 20
126.3372868220716
 30
0.0
 10
678.1040013234851
 20
127.1312164886303
 30
0.0
 10
677.0996193253441
 20
127.6745548511947
 30
0.0
 10
675.9299459404884
 20
127.9233231434262
 30
0.0
 10
674.6736305049081
 20
127.8591406754159
 30
0.0
 10
673.4145579578588
 20
127.4209169040958
 30
0.0
 10
672.3915378989385
 20
126.5532766937721
 30
0.0
 10
671.7141833155282
 20
125.2384178287582
 30
0.0
 10
671.6507230546208
 20
124.1910305217796
 30
0.0
 10
671.6148355013478
 20
123.5987201965592
 30
0.0
  0
LWPOLYLINE
  5
270
330
1F
100
AcDbEntity
  8
0
  6
Continuous
 62
     7
370
    15
100
AcDbPolyline
 90
        9
 70
   128
 43
0.0
 10
671.6148355013
 20
123.5987201966
 10
671.4661964184
 20
123.6038103401
 10
671.3232644803
 20
123.6188856586
 10
671.1915531165
 20
123.6433664038
 10
671.0760840184
 20
123.6763119399
 10
670.9813424355
 20
123.7164561338
 10
670.9109344489
 20
123.7622567154
 10
670.8675720698
 20
123.8119530193
 10
670.8529391295
 20
123.8636353686
  0
SPLINE
  5
271
330
1F
100
AcDbEntity
  8
0
  6
Continuous
 62
     7
370
    15
100
AcDbSpline
210
0.0
220
0.0
230
1.0
 70
     8
 71
     3
 72
    11
 73
     7
 74
     0
 42
0.00000001
 43
0.00000001
 40
0.0
 40
0.0
 40
0.0
 40
0.0
 40
0.199039651695249
 40
0.4636327629016173
 40
0.7350856146028598
 40
0.9999999999999999
 40
0.9999999999999999
 40
0.9999999999999999
 40
0.9999999999999999
 10
676.3559528595555
 20
128.6217167674741
 30
0.0
 10
676.699007673704
 20
128.5530058461101
 30
0.0
 10
677.4981019745419
 20
128.392954147656
 30
0.0
 10
678.59186740093
 20
127.8025865840626
 30
0.0
 10
679.5055917479904
 20
126.9063407205935
 30
0.0
 10
679.8307581080185
 20
126.1480231828217
 30
0.0
 10
679.9913593536961
 20
125.7734864651403
 30
0.0
  0
SPLINE
  5
272
330
1F
100
AcDbEntity
  8
0
  6
Continuous
 62
     7
370
    15
100
AcDbSpline
210
0.0
220
0.0
230
1.0
 70
     8
 71
     3
 72
    11
 73
     7
 74
     0
 42
0.00000001
 43
0.00000001
 40
0.0
 40
0.0
 40
0.0
 40
0.0
 40
0.1990397328262945
 40
0.4636330471912104
 40
0.7350857352835567
 40
1.0
 40
1.0
 40
1.0
 40
1.0
 10
676.3559528595555
 20
106.9856740235529
 30
0.0
 10
676.699007716913
 20
106.9883070078292
 30
0.0
 10
677.498102282666
 20
106.9944401477098
 30
0.0
 10
678.591866451628
 20
106.9992814704441
 30
0.0
 10
679.5055919396254
 20
106.9652988787781
 30
0.0
 10
679.8307581633685
 20
106.8711492922583
 30
0.0
 10
679.9913593536961
 20
106.8246483504018
 30
0.0
  0
ARC
  5
273
330
1F
100
AcDbEntity
  8
0
  6
Continuous
 62
     7
370
    15
100
AcDbCircle
 10
679.2205287191
 20
106.9972474185
 30
0.0
 40
0.7899179106209528
100
AcDbArc
 50
273.9834696714
 51
347.3789049463
  0
SPLINE
  5
274
330
1F
100
AcDbEntity
  8
0
  6
Continuous
 62
     7
370
    15
100
AcDbSpline
210
0.0
220
0.0
230
1.0
 70
     8
 71
     3
 72
    16
 73
    12
 74
     0
 42
0.00000001
 43
0.00000001
 40
0.0
 40
0.0
 40
0.0
 40
0.0
 40
0.0982187136179632
 40
0.197662590091276
 40
0.2943631525031459
 40
0.3914074674550609
 40
0.4911094029940145
 40
0.5996272139229394
 40
0.7226904359517973
 40
0.8431780367456583
 40
1.0
 40
1.0
 40
1.0
 40
1.0
 10
679.2754032618153
 20
106.2092378436765
 30
0.0
 10
679.1414966560146
 20
106.2780924163434
 30
0.0
 10
678.8720131171052
 20
106.4166604414336
 30
0.0
 10
678.1039986526289
 20
106.5090677474721
 30
0.0
 10
677.0996209036553
 20
106.5456284778179
 30
0.0
 10
675.9299457010902
 20
106.5523710234074
 30
0.0
 10
674.6736303231336
 20
106.5510825418233
 30
0.0
 10
673.4145602156195
 20
106.5342196151498
 30
0.0
 10
672.3915354171932
 20
106.4482555684713
 30
0.0
 10
671.7141838007718
 20
106.2175783870896
 30
0.0
 10
671.6507232320972
 20
105.8997707898033
 30
0.0
 10
671.6148355013478
 20
105.7200466915211
 30
0.0
  0
ARC
  5
275
330
1F
100
AcDbEntity
  8
0
  6
Continuous
 62
     7
370
    15
100
AcDbCircle
 10
671.5962002661
 20
106.4633326647
 30
0.0
 40
0.7435195423769144
100
AcDbArc
 50
181.510619682
 51
271.4361857198
  0
SPLINE
  5
276
330
1F
100
AcDbEntity
  8
0
  6
Continuous
 62
     7
370
    15
100
AcDbSpline
210
0.0
220
0.0
230
1.0
 70
     8
 71
     3
 72
    14
 73
    10
 74
     0
 42
0.00000001
 43
0.00000001
 40
0.0
 40
0.0
 40
0.0
 40
0.0
 40
0.0621969711398675
 40
0.2157645902309676
 40
0.3692821624447969
 40
0.5269933564110436
 40
0.6847106460069092
 40
0.8423237790992293
 40
1.0
 40
1.0
 40
1.0
 40
1.0
 10
679.2754032618153
 20
110.2729963771245
 30
0.0
 10
679.3619974185847
 20
110.5576782235888
 30
0.0
 10
679.6623971391713
 20
111.5452546412641
 30
0.0
 10
680.0550839268535
 20
113.3563944879414
 30
0.0
 10
680.3548008492371
 20
115.7503841092317
 30
0.0
 10
680.4280010567115
 20
118.2335266826374
 30
0.0
 10
680.2728678506411
 20
120.7205466734327
 30
0.0
 10
679.9015706272223
 20
123.1313755498927
 30
0.0
 10
679.4841535579673
 20
124.5999568406645
 30
0.0
 10
679.2754032618153
 20
125.3343944139025
 30
0.0
  0
LINE
  5
277
330
1F
100
AcDbEntity
  8
0
  6
Continuous
 62
     7
370
    15
100
AcDbLine
 10
671.6148355013
 20
123.5987201966
 30
0.0
 11
671.6148355013
 21
112.0086705945
 31
0.0
  0
LINE
  5
278
330
1F
100
AcDbEntity
  8
0
  6
Continuous
 62
     7
370
    15
100
AcDbLine
 10
679.9913593537
 20
128.7827424406
 30
0.0
 11
679.9913593537
 21
125.7734864651
 31
0.0
  0
LINE
  5
279
330
1F
100
AcDbEntity
  8
0
  6
Continuous
 62
     7
370
    15
100
AcDbLine
 10
679.9913593537
 20
109.8339043259
 30
0.0
 11
679.9913593537
 21
106.8246483504
 31
0.0
  0
SPLINE
  5
27A
330
1F
100
AcDbEntity
  8
0
  6
Continuous
 62
     7
370
    15
100
AcDbSpline
210
0.0
220
0.0
230
1.0
 70
     8
 71
     3
 72
    14
 73
    10
 74
     0
 42
0.00000001
 43
0.00000001
 40
0.0
 40
0.0
 40
0.0
 40
0.0
 40
0.0621967701117848
 40
0.2157646044330681
 40
0.3692819407040871
 40
0.5269934200419646
 40
0.6847104791322951
 40
0.8423237134148245
 40
1.0
 40
1.0
 40
1.0
 40
1.0
 10
679.2754032618153
 20
129.3981529473505
 30
0.0
 10
679.3619974704758
 20
129.4676815949661
 30
0.0
 10
679.6623983617797
 20
129.7088809550389
 30
0.0
 10
680.0550828840552
 20
130.3441441176299
 30
0.0
 10
680.3548013902678
 20
131.4572255695191
 30
0.0
 10
680.4280010646172
 20
132.9128396617758
 30
0.0
 10
680.2728675563708
 20
134.6598019834212
 30
0.0
 10
679.9015707012591
 20
136.6330012481152
 30
0.0
 10
679.4841535669669
 20
138.070091893627
 30
0.0
 10
679.2754032618153
 20
138.7887809126816
 30
0.0
  0
LINE
  5
27B
330
1F
100
AcDbEntity
  8
0
  6
Continuous
 62
     7
370
    15
100
AcDbLine
 10
671.6148355013
 20
137.1136221736
 30
0.0
 11
671.6148355013
 21
129.8873440995
 31
0.0
  0
SPLINE
  5
27C
330
1F
100
AcDbEntity
  8
0
  6
Continuous
 62
     7
370
    15
100
AcDbSpline
210
0.0
220
0.0
230
1.0
 70
     8
 71
     3
 72
    16
 73
    12
 74
     0
 42
0.00000001
 43
0.00000001
 40
0.0
 40
0.0
 40
0.0
 40
0.0
 40
0.098218734878475
 40
0.197662606855235
 40
0.2943631873485427
 40
0.3914074496708009
 40
0.4911093749577896
 40
0.599627181524477
 40
0.7226905643316982
 40
0.8431781064627087
 40
1.0
 40
1.0
 40
1.0
 40
1.0
 10
679.2754032618153
 20
138.7887809126816
 30
0.0
 10
679.1414966869149
 20
139.135061729441
 30
0.0
 10
678.8720132456689
 20
139.8319427168547
 30
0.0
 10
678.1039984382902
 20
140.7295548590664
 30
0.0
 10
677.0996214513792
 20
141.3705229088213
 30
0.0
 10
675.929945294166
 20
141.6739887577681
 30
0.0
 10
674.6736304362573
 20
141.5952443907464
 30
0.0
 10
673.4145591469693
 20
141.0656518279505
 30
0.0
 10
672.391536500092
 20
140.0696833856892
 30
0.0
 10
671.7141835508319
 20
138.6607588147622
 30
0.0
 10
671.6507231422326
 20
137.6724966000774
 30
0.0
 10
671.6148355013478
 20
137.1136221735916
 30
0.0
  0
SPLINE
  5
27D
330
1F
100
AcDbEntity
  8
0
  6
Continuous
 62
     7
370
    15
100
AcDbSpline
210
0.0
220
0.0
230
1.0
 70
     8
 71
     3
 72
    14
 73
    10
 74
     0
 42
0.00000001
 43
0.00000001
 40
0.0
 40
0.0
 40
0.0
 40
0.0
 40
0.0621969532021963
 40
0.2157645551301671
 40
0.3692823191559593
 40
0.5269934810698765
 40
0.6847108232325276
 40
0.8423237630791635
 40
1.0
 40
1.0
 40
1.0
 40
1.0
 10
679.2754032618153
 20
96.8186098783455
 30
0.0
 10
679.361997418177
 20
97.1040737851974
 30
0.0
 10
679.6623971751156
 20
98.09436333631722
 30
0.0
 10
680.0550842501943
 20
99.7175538975509
 30
0.0
 10
680.3548006502741
 20
101.5897284897697
 30
0.0
 10
680.4280010300832
 20
103.2305399449265
 30
0.0
 10
680.2728681520954
 20
104.5848433251451
 30
0.0
 10
679.9015702139342
 20
105.6178974761521
 30
0.0
 10
679.4841535125458
 20
106.0120980080942
 30
0.0
 10
679.2754032618153
 20
106.2092378436765
 30
0.0
  0
SPLINE
  5
27E
330
1F
100
AcDbEntity
  8
0
  6
Continuous
 62
     7
370
    15
100
AcDbSpline
210
0.0
220
0.0
230
1.0
 70
     8
 71
     3
 72
    16
 73
    12
 74
     0
 42
0.00000001
 43
0.00000001
 40
0.0
 40
0.0
 40
0.0
 40
0.0
 40
0.1632159154733609
 40
0.2700785493221903
 40
0.368807801826261
 40
0.465414547548418
 40
0.562667294596742
 40
0.6630040278015648
 40
0.7707095454270602
 40
0.8765167844448076
 40
1.0
 40
1.0
 40
1.0
 40
1.0
 10
671.6148355013478
 20
98.49376861743546
 30
0.0
 10
671.6534843011917
 20
97.91095954317845
 30
0.0
 10
671.717437695471
 20
96.94656689280096
 30
0.0
 10
672.3413754237541
 20
95.6550032494278
 30
0.0
 10
673.1556154861939
 20
94.7646365271585
 30
0.0
 10
674.1929025490505
 20
94.17023290268466
 30
0.0
 10
675.3776277678186
 20
93.91997015211265
 30
0.0
 10
676.6308759497149
 20
94.05788249766215
 30
0.0
 10
677.7908216082266
 20
94.61523071379035
 30
0.0
 10
678.7695514632328
 20
95.57374356775769
 30
0.0
 10
679.0983373071463
 20
96.38286280314037
 30
0.0
 10
679.2754032618153
 20
96.8186098783455
 30
0.0
  0
LINE
  5
27F
330
1F
100
AcDbEntity
  8
0
  6
Continuous
 62
     7
370
    15
100
AcDbLine
 10
671.6148355013
 20
105.7200466915
 30
0.0
 11
671.6148355013
 21
98.4937686174
 31
0.0
  0
SPLINE
  5
280
330
1F
100
AcDbEntity
  8
0
  6
Continuous
 62
     7
370
    15
100
AcDbSpline
210
0.0
220
0.0
230
1.0
 70
     8
 71
     3
 72
    14
 73
    10
 74
     0
 42
0.00000001
 43
0.00000001
 40
0.0
 40
0.0
 40
0.0
 40
0.0
 40
0.1575839895624381
 40
0.3151114587898928
 40
0.4729863876660276
 40
0.6308559498580241
 40
0.784361663980855
 40
0.9379123528715234
 40
1.0
 40
1.0
 40
1.0
 40
1.0
 10
679.9913593536961
 20
125.7734864651403
 30
0.0
 10
680.2028064561393
 20
124.9954407583803
 30
0.0
 10
680.6256248217155
 20
123.4396284049608
 30
0.0
 10
681.000925173323
 20
120.8889326852092
 30
0.0
 10
681.1578910404897
 20
118.2583619281461
 30
0.0
 10
681.0837708044795
 20
115.6318743530017
 30
0.0
 10
680.7807699782571
 20
113.0989253658695
 30
0.0
 10
680.3834025968446
 20
111.181762550925
 30
0.0
 10
680.0790034490157
 20
110.1352277559343
 30
0.0
 10
679.9913593536961
 20
109.8339043258867
 30
0.0
  0
SPLINE
  5
281
330
1F
100
AcDbEntity
  8
0
  6
Continuous
 62
     7
370
    15
100
AcDbSpline
210
0.0
220
0.0
230
1.0
 70
     8
 71
     3
 72
    14
 73
    10
 74
     0
 42
0.00000001
 43
0.00000001
 40
0.0
 40
0.0
 40
0.0
 40
0.0
 40
0.1575840198299455
 40
0.3151116070368226
 40
0.4729863857642592
 40
0.6308560555277986
 40
0.7843618572767252
 40
0.9379125400831833
 40
1.0
 40
1.0
 40
1.0
 40
1.0
 10
679.9913593536961
 20
138.7209098487339
 30
0.0
 10
680.2028064782642
 20
137.9595858597486
 30
0.0
 10
680.625625005789
 20
136.4372105205248
 30
0.0
 10
681.0009248796365
 20
134.3500167971468
 30
0.0
 10
681.157891129696
 20
132.5021323142736
 30
0.0
 10
681.0837708131783
 20
130.9626017206966
 30
0.0
 10
680.7807699316645
 20
129.7846010411763
 30
0.0
 10
680.3834033732466
 20
129.1119568772622
 30
0.0
 10
680.0790034783937
 20
128.8563405819
 30
0.0
 10
679.9913593536961
 20
128.7827424406252
 30
0.0
  0
LINE
  5
282
330
1F
100
AcDbEntity
  8
0
  6
Continuous
 62
     7
370
    15
100
AcDbLine
 10
679.9913593537
 20
139.4641350656
 30
0.0
 11
679.9913593537
 21
138.7209098487
 31
0.0
  0
SPLINE
  5
283
330
1F
100
AcDbEntity
  8
0
  6
Continuous
 62
     7
370
    15
100
AcDbSpline
210
0.0
220
0.0
230
1.0
 70
     8
 71
     3
 72
    10
 73
     6
 74
     0
 42
0.00000001
 43
0.00000001
 40
0.0
 40
0.0
 40
0.0
 40
0.0
 40
0.0786674910233602
 40
0.737247906731044
 40
1.0
 40
1.0
 40
1.0
 40
1.0
 10
680.7898380762684
 20
137.3535569458447
 30
0.0
 10
680.7784046178374
 20
137.3949169972471
 30
0.0
 10
680.6712537072731
 20
137.7825308758904
 30
0.0
 10
680.3818749474913
 20
138.526630537025
 30
0.0
 10
680.0780159908395
 20
139.2560998653571
 30
0.0
 10
679.9913593536961
 20
139.4641350655995
 30
0.0
  0
SPLINE
  5
284
330
1F
100
AcDbEntity
  8
0
  6
Continuous
 62
     7
370
    15
100
AcDbSpline
210
0.0
220
0.0
230
1.0
 70
     8
 71
     3
 72
    10
 73
     6
 74
     0
 42
0.00000001
 43
0.00000001
 40
0.0
 40
0.0
 40
0.0
 40
0.0
 40
0.6615811279644848
 40
0.771342448916722
 40
1.0
 40
1.0
 40
1.0
 40
1.0
 10
679.9913593536961
 20
96.14325572542765
 30
0.0
 10
680.2164549544731
 20
96.67795962630389
 30
0.0
 10
680.4788956206356
 20
97.30137495499712
 30
0.0
 10
680.6602924707479
 20
97.88082252315111
 30
0.0
 10
680.725508412952
 20
98.08242859188401
 30
0.0
 10
680.7695724970448
 20
98.21864661566833
 30
0.0
  0
LINE
  5
285
330
1F
100
AcDbEntity
  8
0
  6
Continuous
 62
     7
370
    15
100
AcDbLine
 10
679.9913593537
 20
96.8864809423
 30
0.0
 11
679.9913593537
 21
96.1432557254
 31
0.0
  0
SPLINE
  5
286
330
1F
100
AcDbEntity
  8
0
  6
Continuous
 62
     7
370
    15
100
AcDbSpline
210
0.0
220
0.0
230
1.0
 70
     8
 71
     3
 72
    14
 73
    10
 74
     0
 42
0.00000001
 43
0.00000001
 40
0.0
 40
0.0
 40
0.0
 40
0.0
 40
0.1575837626739429
 40
0.3151114913564611
 40
0.4729863663336266
 40
0.630855829780329
 40
0.7843617205427525
 40
0.9379123559027851
 40
1.0
 40
1.0
 40
1.0
 40
1.0
 10
679.9913593536961
 20
106.8246483504018
 30
0.0
 10
680.2028065622717
 20
106.6157645803422
 30
0.0
 10
680.6256257925454
 20
106.1980713155872
 30
0.0
 10
681.0009246749203
 20
105.1046055682781
 30
0.0
 10
681.1578911978673
 20
103.6722164859697
 30
0.0
 10
681.0837705033591
 20
101.9365704109869
 30
0.0
 10
680.7807703871198
 20
99.95604060494549
 30
0.0
 10
680.3834025059268
 20
98.23801858848543
 30
0.0
 10
680.0790034432177
 20
97.18862698356583
 30
0.0
 10
679.9913593536961
 20
96.88648094229318
 30
0.0
  0
LINE
  5
287
330
1F
100
AcDbEntity
  8
0
  6
Continuous
 62
     7
370
    15
100
AcDbLine
 10
670.8529391295
 20
111.7437554225
 30
0.0
 11
670.8529391295
 21
123.8636353686
 31
0.0
  0
ARC
  5
288
330
1F
100
AcDbEntity
  8
0
  6
Continuous
 62
     7
370
    15
100
AcDbCircle
 10
679.5719190082
 20
97.5008969354
 30
0.0
 40
0.7439336099811392
100
AcDbArc
 50
246.5106727802
 51
304.3199888539
  0
ARC
  5
289
330
1F
100
AcDbEntity
  8
0
  6
Continuous
 62
     7
370
    15
100
AcDbCircle
 10
679.5719190082
 20
138.1064938556
 30
0.0
 40
0.7439336099811628
100
AcDbArc
 50
55.6800111461
 51
113.4893272198
  0
LWPOLYLINE
  5
28A
330
1F
100
AcDbEntity
  8
0
  6
Continuous
 62
     7
370
    15
100
AcDbPolyline
 90
        9
 70
   128
 43
0.0
 10
670.8529391295
 20
98.8871108442
 10
670.8675720698
 20
98.8103735893
 10
670.9109344489
 20
98.7365849017
 10
670.9813424355
 20
98.66858159
 10
671.0760840184
 20
98.6089750826
 10
671.1915531165
 20
98.5600582957
 10
671.3232644803
 20
98.5237106382
 10
671.4661964184
 20
98.5013272315
 10
671.6148355013
 20
98.4937686174
  0
LINE
  5
28B
330
1F
100
AcDbEntity
  8
0
  6
Continuous
 62
     7
370
    15
100
AcDbLine
 10
670.8529391295
 20
98.8871108442
 30
0.0
 11
670.8529391295
 21
106.4437318294
 31
0.0
  0
LWPOLYLINE
  5
28C
330
1F
100
AcDbEntity
  8
0
  6
Continuous
 62
     7
370
    15
100
AcDbPolyline
 90
        9
 70
   128
 43
0.0
 10
671.6148355013
 20
137.1136221736
 10
671.4661964184
 20
137.1060635596
 10
671.3232644803
 20
137.0836801528
 10
671.1915531165
 20
137.0473324954
 10
671.0760840184
 20
136.9984157085
 10
670.9813424355
 20
136.938809201
 10
670.9109344489
 20
136.8708058893
 10
670.8675720698
 20
136.7970172017
 10
670.8529391295
 20
136.7202799468
  0
LINE
  5
28D
330
1F
100
AcDbEntity
  8
0
  6
Continuous
 62
     7
370
    15
100
AcDbLine
 10
670.8529391295
 20
129.1636589616
 30
0.0
 11
670.8529391295
 21
136.7202799468
 31
0.0
  0
LINE
  5
28E
330
1F
100
AcDbEntity
  8
0
  6
Continuous
 62
     7
370
    15
100
AcDbLine
 10
651.8529304272
 20
111.7010663896
 30
0.0
 11
651.8529304272
 21
107.3036955371
 31
0.0
  0
LINE
  5
28F
330
1F
100
AcDbEntity
  8
0
  6
Continuous
 62
     7
370
    15
100
AcDbLine
 10
651.8529304272
 20
128.303695254
 30
0.0
 11
651.8529304272
 21
123.9081837869
 31
0.0
  0
SPLINE
  5
290
330
1F
100
AcDbEntity
  8
0
  6
Continuous
 62
     7
370
    15
100
AcDbSpline
210
0.0
220
0.0
230
1.0
 70
     8
 71
     3
 72
    11
 73
     7
 74
     0
 42
0.00000001
 43
0.00000001
 40
0.0
 40
0.0
 40
0.0
 40
0.0
 40
0.3340936934125171
 40
0.6236909971417606
 40
0.9185144974536761
 40
1.0
 40
1.0
 40
1.0
 40
1.0
 10
679.9913593536961
 20
96.88648094229318
 30
0.0
 10
679.7787040962531
 20
96.35703887906621
 30
0.0
 10
679.3817161489283
 20
95.36866868575314
 30
0.0
 10
678.2204335943078
 20
94.20856406374624
 30
0.0
 10
677.1483635534796
 20
93.66590127448941
 30
0.0
 10
676.496998640698
 20
93.52609564063863
 30
0.0
 10
676.3559528595555
 20
93.49582229547121
 30
0.0
  0
SPLINE
  5
291
330
1F
100
AcDbEntity
  8
0
  6
Continuous
 62
     7
370
    15
100
AcDbSpline
210
0.0
220
0.0
230
1.0
 70
     8
 71
     3
 72
    11
 73
     7
 74
     0
 42
0.00000001
 43
0.00000001
 40
0.0
 40
0.0
 40
0.0
 40
0.0
 40
0.0091481133249742
 40
0.499999950328112
 40
0.9908611324711963
 40
0.9999999999999999
 40
0.9999999999999999
 40
0.9999999999999999
 40
0.9999999999999999
 10
676.3559528595555
 20
93.49582229547121
 30
0.0
 10
676.3511750226965
 20
93.49503315158836
 30
0.0
 10
676.0900372222233
 20
93.45190164586626
 30
0.0
 10
675.5642081864513
 20
93.41059141342129
 30
0.0
 10
675.0383691842642
 20
93.45185787373127
 30
0.0
 10
674.7772389332004
 20
93.49503314930169
 30
0.0
 10
674.7724660641301
 20
93.49582229547121
 30
0.0
  0
SPLINE
  5
292
330
1F
100
AcDbEntity
  8
0
  6
Continuous
 62
     7
370
    15
100
AcDbSpline
210
0.0
220
0.0
230
1.0
 70
     8
 71
     3
 72
    12
 73
     8
 74
     0
 42
0.00000001
 43
0.00000001
 40
0.0
 40
0.0
 40
0.0
 40
0.0
 40
0.1136356149160963
 40
0.3008435139845502
 40
0.4919221750331683
 40
0.6964448174274551
 40
0.9999999999999999
 40
0.9999999999999999
 40
0.9999999999999999
 40
0.9999999999999999
 10
674.7724660641301
 20
93.49582229547121
 30
0.0
 10
674.4957116354126
 20
93.56324687850318
 30
0.0
 10
673.7630207892581
 20
93.74174944130672
 30
0.0
 10
672.6920286438083
 20
94.39187547048924
 30
0.0
 10
671.7249293515982
 20
95.4690953327213
 30
0.0
 10
670.9832929471788
 20
97.01868908204828
 30
0.0
 10
670.9016921700494
 20
98.18831088920243
 30
0.0
 10
670.8529391295064
 20
98.88711084417916
 30
0.0
  0
SPLINE
  5
293
330
1F
100
AcDbEntity
  8
0
  6
Continuous
 62
     7
370
    15
100
AcDbSpline
210
0.0
220
0.0
230
1.0
 70
     8
 71
     3
 72
    12
 73
     8
 74
     0
 42
0.00000001
 43
0.00000001
 40
0.0
 40
0.0
 40
0.0
 40
0.0
 40
0.2917316096161509
 40
0.522556094896212
 40
0.7611462108414029
 40
0.9714510008499991
 40
0.9999999999999999
 40
0.9999999999999999
 40
0.9999999999999999
 40
0.9999999999999999
 10
670.8529391295064
 20
136.7202799468479
 30
0.0
 10
670.898115340693
 20
137.3901605745639
 30
0.0
 10
670.9790359667813
 20
138.5900655328455
 30
0.0
 10
671.787016595367
 20
140.2816077883477
 30
0.0
 10
672.9984981769245
 20
141.4897566331445
 30
0.0
 10
674.1174473861757
 20
141.9811263227591
 30
0.0
 10
674.7025336307458
 20
142.0976419635857
 30
0.0
 10
674.7724660641301
 20
142.1115684955559
 30
0.0
  0
SPLINE
  5
294
330
1F
100
AcDbEntity
  8
0
  6
Continuous
 62
     7
370
    15
100
AcDbSpline
210
0.0
220
0.0
230
1.0
 70
     8
 71
     3
 72
    11
 73
     7
 74
     0
 42
0.00000001
 43
0.00000001
 40
0.0
 40
0.0
 40
0.0
 40
0.0
 40
0.0091481133249742
 40
0.499999950328112
 40
0.9908611324711963
 40
0.9999999999999999
 40
0.9999999999999999
 40
0.9999999999999999
 40
0.9999999999999999
 10
676.3559528595555
 20
142.1115684955559
 30
0.0
 10
676.3511750226965
 20
142.1123576394388
 30
0.0
 10
676.0900372222233
 20
142.1554891451609
 30
0.0
 10
675.5642081864513
 20
142.1967993776058
 30
0.0
 10
675.0383691842642
 20
142.1555329172958
 30
0.0
 10
674.7772389332004
 20
142.1123576417254
 30
0.0
 10
674.7724660641301
 20
142.1115684955559
 30
0.0
  0
SPLINE
  5
295
330
1F
100
AcDbEntity
  8
0
  6
Continuous
 62
     7
370
    15
100
AcDbSpline
210
0.0
220
0.0
230
1.0
 70
     8
 71
     3
 72
    11
 73
     7
 74
     0
 42
0.00000001
 43
0.00000001
 40
0.0
 40
0.0
 40
0.0
 40
0.0
 40
0.1990396622898001
 40
0.4636330676832778
 40
0.7350860651002972
 40
1.0
 40
1.0
 40
1.0
 40
1.0
 10
676.3559528595555
 20
142.1115684955559
 30
0.0
 10
676.6990077496565
 20
142.0232544769503
 30
0.0
 10
677.4981027101861
 20
141.8175402042548
 30
0.0
 10
678.59186696436
 20
141.0765227699533
 30
0.0
 10
679.5055908989202
 20
139.9929052746003
 30
0.0
 10
679.8307579490328
 20
139.1414481733432
 30
0.0
 10
679.9913593536961
 20
138.7209098487339
 30
0.0
  0
SPLINE
  5
296
330
1F
100
AcDbEntity
  8
0
  6
Continuous
 62
     7
370
    15
100
AcDbSpline
210
0.0
220
0.0
230
1.0
 70
     8
 71
     3
 72
    12
 73
     8
 74
     0
 42
0.00000001
 43
0.00000001
 40
0.0
 40
0.0
 40
0.0
 40
0.0
 40
0.2917315934193974
 40
0.5225560192853045
 40
0.761146229291173
 40
0.9714510641611681
 40
1.0
 40
1.0
 40
1.0
 40
1.0
 10
670.8529391295064
 20
97.5781127511702
 30
0.0
 10
670.8981153085953
 20
97.1049969113122
 30
0.0
 10
670.9790358699732
 20
96.25754145734774
 30
0.0
 10
671.7870168677354
 20
94.96115933364993
 30
0.0
 10
672.9984985574879
 20
94.00212773684416
 30
0.0
 10
674.1174460343287
 20
93.60213835282036
 30
0.0
 10
674.7025336201194
 20
93.50717300444153
 30
0.0
 10
674.7724660641301
 20
93.49582229547121
 30
0.0
  0
LINE
  5
297
330
1F
100
AcDbEntity
  8
0
  6
Continuous
 62
     7
370
    15
100
AcDbLine
 10
670.8529391295
 20
98.8871108442
 30
0.0
 11
670.8529391295
 21
97.5781127512
 31
0.0
  0
SPLINE
  5
298
330
1F
100
AcDbEntity
  8
0
  6
Continuous
 62
     7
370
    15
100
AcDbSpline
210
0.0
220
0.0
230
1.0
 70
     8
 71
     3
 72
    12
 73
     8
 74
     0
 42
0.00000001
 43
0.00000001
 40
0.0
 40
0.0
 40
0.0
 40
0.0
 40
0.1136356028737121
 40
0.3008435084529962
 40
0.4919222629101992
 40
0.696444673694794
 40
0.9999999999999999
 40
0.9999999999999999
 40
0.9999999999999999
 40
0.9999999999999999
 10
674.7724660641301
 20
142.1115684955559
 30
0.0
 10
674.4957116354119
 20
142.0566347336302
 30
0.0
 10
673.7630207250813
 20
141.9112008620943
 30
0.0
 10
672.6920282859636
 20
141.3858295197452
 30
0.0
 10
671.7249302056292
 20
140.5366923617814
 30
0.0
 10
670.9832922211631
 20
139.3500068209371
 30
0.0
 10
670.9016919182446
 20
138.5232380252036
 30
0.0
 10
670.8529391295064
 20
138.0292780398569
 30
0.0
  0
LINE
  5
299
330
1F
100
AcDbEntity
  8
0
  6
Continuous
 62
     7
370
    15
100
AcDbLine
 10
670.8529391295
 20
138.0292780399
 30
0.0
 11
670.8529391295
 21
136.7202799468
 31
0.0
  0
SPLINE
  5
29A
330
1F
100
AcDbEntity
  8
0
  6
Continuous
 62
     7
370
    15
100
AcDbSpline
210
0.0
220
0.0
230
1.0
 70
     8
 71
     3
 72
    11
 73
     7
 74
     0
 42
0.00000001
 43
0.00000001
 40
0.0
 40
0.0
 40
0.0
 40
0.0
 40
0.1990395767931109
 40
0.4636331989219459
 40
0.7350852594683046
 40
1.0
 40
1.0
 40
1.0
 40
1.0
 10
676.3559528595555
 20
93.49582229547121
 30
0.0
 10
676.6990079024911
 20
93.56781700683095
 30
0.0
 10
677.4981037884708
 20
93.73551801821257
 30
0.0
 10
678.5918638104
 20
94.33191787885956
 30
0.0
 10
679.5055940082082
 20
95.1857927714765
 30
0.0
 10
679.8307586237695
 20
95.82670525366075
 30
0.0
 10
679.9913593536961
 20
96.14325572542765
 30
0.0
  0
SPLINE
  5
29B
330
1F
100
AcDbEntity
  8
0
  6
Continuous
 62
     7
370
    15
100
AcDbSpline
210
0.0
220
0.0
230
1.0
 70
     8
 71
     3
 72
    11
 73
     7
 74
     0
 42
0.00000001
 43
0.00000001
 40
0.0
 40
0.0
 40
0.0
 40
0.0
 40
0.3340939462831564
 40
0.6236909845298972
 40
0.9185144926915633
 40
1.0
 40
1.0
 40
1.0
 40
1.0
 10
679.9913593536961
 20
139.4641350655995
 30
0.0
 10
679.7787043451536
 20
139.8639504265175
 30
0.0
 10
679.3817171709812
 20
140.6103310145387
 30
0.0
 10
678.220432801389
 20
141.5332611923265
 30
0.0
 10
677.1483635546992
 20
141.972930000443
 30
0.0
 10
676.496998643805
 20
142.0868914241961
 30
0.0
 10
676.3559528595555
 20
142.1115684955559
 30
0.0
  0
LINE
  5
29C
330
1F
100
AcDbEntity
  8
0
  6
Continuous
 62
     7
370
    15
100
AcDbLine
 10
670.8529391295
 20
100.275040388
 30
0.0
 11
670.8529391295
 21
100.4237334876
 31
0.0
  0
LINE
  5
29D
330
1F
100
AcDbEntity
  8
0
  6
Continuous
 62
     7
370
    15
100
AcDbLine
 10
670.8529391295
 20
135.1836573034
 30
0.0
 11
670.8529391295
 21
135.332350403
 31
0.0
  0
LINE
  5
29E
330
1F
100
AcDbEntity
  8
0
  6
Continuous
 62
     7
370
    15
100
AcDbLine
 10
626.8529319173
 20
136.3331068008
 30
0.0
 11
623.8529332883
 21
136.3331068008
 31
0.0
  0
LINE
  5
29F
330
1F
100
AcDbEntity
  8
0
  6
Continuous
 62
     7
370
    15
100
AcDbLine
 10
623.8529332883
 20
136.3331068008
 30
0.0
 11
623.8529332883
 21
121.8036955855
 31
0.0
  0
LINE
  5
2A0
330
1F
100
AcDbEntity
  8
0
  6
Continuous
 62
     7
370
    15
100
AcDbLine
 10
623.8529332883
 20
113.8036952055
 30
0.0
 11
623.8529332883
 21
47.8036950975
 31
0.0
  0
LINE
  5
2A1
330
1F
100
AcDbEntity
  8
0
  6
Continuous
 62
     7
370
    15
100
AcDbLine
 10
626.8529319173
 20
136.3331068008
 30
0.0
 11
626.8529319173
 21
127.2839259057
 31
0.0
  0
LINE
  5
2A2
330
1F
100
AcDbEntity
  8
0
  6
Continuous
 62
     7
370
    15
100
AcDbLine
 10
626.8529319173
 20
108.3135127722
 30
0.0
 11
626.8529319173
 21
47.8036950975
 31
0.0
  0
LINE
  5
2A3
330
1F
100
AcDbEntity
  8
0
  6
Continuous
 62
     7
370
    15
100
AcDbLine
 10
623.8529332883
 20
137.8036949485
 30
0.0
 11
626.8529319173
 21
137.8036949485
 31
0.0
  0
LINE
  5
2A4
330
1F
100
AcDbEntity
  8
0
  6
Continuous
 62
     7
370
    15
100
AcDbLine
 10
623.8529332883
 20
136.3331068008
 30
0.0
 11
623.8529332883
 21
137.8036949485
 31
0.0
  0
LINE
  5
2A5
330
1F
100
AcDbEntity
  8
0
  6
Continuous
 62
     7
370
    15
100
AcDbLine
 10
626.8529319173
 20
137.8036949485
 30
0.0
 11
626.8529319173
 21
136.3331068008
 31
0.0
  0
SPLINE
  5
2A6
330
1F
100
AcDbEntity
  8
0
  6
Continuous
 62
     7
370
    15
100
AcDbSpline
210
0.0
220
0.0
230
1.0
 70
     8
 71
     3
 72
    94
 73
    90
 74
     0
 42
0.00000001
 43
0.00000001
 40
-0.03125
 40
-0.03125
 40
0.0
 40
0.0
 40
0.0312499999999992
 40
0.0312499999999992
 40
0.0468749999999988
 40
0.0468749999999988
 40
0.0624999999999983
 40
0.0624999999999983
 40
0.0937499999999975
 40
0.0937499999999975
 40
0.1249999999999966
 40
0.1249999999999966
 40
0.1406249999999964
 40
0.1406249999999964
 40
0.1562499999999962
 40
0.1562499999999962
 40
0.1874999999999961
 40
0.1874999999999961
 40
0.2031249999999959
 40
0.2031249999999959
 40
0.2187499999999956
 40
0.2187499999999956
 40
0.2499999999999952
 40
0.2499999999999952
 40
0.2656249999999949
 40
0.2656249999999949
 40
0.2812499999999947
 40
0.2812499999999947
 40
0.2968749999999945
 40
0.2968749999999945
 40
0.3124999999999943
 40
0.3124999999999943
 40
0.3437499999999947
 40
0.3437499999999947
 40
0.3593749999999949
 40
0.3593749999999949
 40
0.3749999999999952
 40
0.3749999999999952
 40
0.4062499999999957
 40
0.4062499999999957
 40
0.4218749999999959
 40
0.4218749999999959
 40
0.4374999999999961
 40
0.4374999999999961
 40
0.4687499999999966
 40
0.4687499999999966
 40
0.499999999999997
 40
0.499999999999997
 40
0.5312499999999974
 40
0.5312499999999974
 40
0.5468749999999977
 40
0.5468749999999977
 40
0.562499999999998
 40
0.562499999999998
 40
0.5937499999999987
 40
0.5937499999999987
 40
0.6249999999999993
 40
0.6249999999999993
 40
0.65625
 40
0.65625
 40
0.6718750000000003
 40
0.6718750000000003
 40
0.6875000000000007
 40
0.6875000000000007
 40
0.7187500000000003
 40
0.7187500000000003
 40
0.75
 40
0.75
 40
0.7656250000000001
 40
0.7656250000000001
 40
0.7812500000000003
 40
0.7812500000000003
 40
0.8125
 40
0.8125
 40
0.8281249999999998
 40
0.8281249999999998
 40
0.8437499999999997
 40
0.8437499999999997
 40
0.8749999999999998
 40
0.8749999999999998
 40
0.9062499999999999
 40
0.9062499999999999
 40
0.9218749999999999
 40
0.9218749999999999
 40
0.9375
 40
0.9375
 40
0.96875
 40
0.96875
 40
1.0
 40
1.0
 40
1.031249999999999
 40
1.031249999999999
 10
625.4405814940644
 20
118.6568561680624
 30
0.0
 10
625.4405712174862
 20
116.9506913882786
 30
0.0
 10
625.5232454872182
 20
116.1073491817533
 30
0.0
 10
625.768666540323
 20
114.8566387348817
 30
0.0
 10
625.8714391012447
 20
114.4413615553646
 30
0.0
 10
626.1145353732834
 20
113.6308194374086
 30
0.0
 10
626.2550189808262
 20
113.2336332392266
 30
0.0
 10
626.7318881873776
 20
112.0657365809044
 30
0.0
 10
627.1246263077829
 20
111.3165691464962
 30
0.0
 10
628.0604901761754
 20
109.8928744438969
 30
0.0
 10
628.5896453005862
 20
109.2371385875422
 30
0.0
 10
629.4731292465451
 20
108.3357924788559
 30
0.0
 10
629.7826936508272
 20
108.0491553155723
 30
0.0
 10
630.4324513139907
 20
107.5039525549261
 30
0.0
 10
630.7734757653105
 20
107.2451179973746
 30
0.0
 10
631.820491691943
 20
106.5283209891481
 30
0.0
 10
632.5556599536295
 20
106.1206326400518
 30
0.0
 10
633.7210525064633
 20
105.6274029919556
 30
0.0
 10
634.1220056811732
 20
105.4830589370213
 30
0.0
 10
634.938966014959
 20
105.2385646814867
 30
0.0
 10
635.350637753269
 20
105.1384439569408
 30
0.0
 10
636.5939612239166
 20
104.8956809380922
 30
0.0
 10
637.434275319557
 20
104.813092741985
 30
0.0
 10
638.7123823854572
 20
104.8114760906947
 30
0.0
 10
639.1385888007148
 20
104.8317473994565
 30
0.0
 10
639.9802466432683
 20
104.9118865135069
 30
0.0
 10
640.397378072671
 20
104.9719634380222
 30
0.0
 10
641.2243680653147
 20
105.131471235887
 30
0.0
 10
641.6343485107005
 20
105.2302425970715
 30
0.0
 10
642.4464057362833
 20
105.4705525625758
 30
0.0
 10
642.8508501524772
 20
105.6143996215165
 30
0.0
 10
644.0264465755145
 20
106.1079229132087
 30
0.0
 10
644.7635891405359
 20
106.5155980569448
 30
0.0
 10
645.809365037772
 20
107.2283097363074
 30
0.0
 10
646.1474919530084
 20
107.483549439967
 30
0.0
 10
646.802242280247
 20
108.0303352647355
 30
0.0
 10
647.1149822752006
 20
108.3187681406285
 30
0.0
 10
648.0038201036467
 20
109.2223896441498
 30
0.0
 10
648.5338664066902
 20
109.8779503748913
 30
0.0
 10
649.2351801158463
 20
110.9410003271751
 30
0.0
 10
649.4534329090731
 20
111.3098621394837
 30
0.0
 10
649.8486031189594
 20
112.0592763929185
 30
0.0
 10
650.0269259062287
 20
112.4415413110814
 30
0.0
 10
650.5056632098167
 20
113.6103989667223
 30
0.0
 10
650.7507018495542
 20
114.4211755805208
 30
0.0
 10
651.0812403514763
 20
116.0950509355538
 30
0.0
 10
651.1646793519265
 20
116.9404513915994
 30
0.0
 10
651.1658968606243
 20
118.6483846972464
 30
0.0
 10
651.0836170561042
 20
119.4885788631401
 30
0.0
 10
650.8421676864349
 20
120.7285317739302
 30
0.0
 10
650.7417351014819
 20
121.1384541210983
 30
0.0
 10
650.4998116087293
 20
121.9513109124479
 30
0.0
 10
650.3576200918741
 20
122.3558126483036
 30
0.0
 10
649.8781944990369
 20
123.5339800449492
 30
0.0
 10
649.4869647567485
 20
124.2797313898407
 30
0.0
 10
648.5616679923983
 20
125.6920620133555
 30
0.0
 10
648.0224177909541
 20
126.3632933498623
 30
0.0
 10
646.8416066487084
 20
127.5692493817957
 30
0.0
 10
646.1970622650991
 20
128.1112306538427
 30
0.0
 10
645.147970848528
 20
128.831505711232
 30
0.0
 10
644.7830918513608
 20
129.0569523076078
 30
0.0
 10
644.0409121471291
 20
129.4655401041323
 30
0.0
 10
643.662284129334
 20
129.6508584812094
 30
0.0
 10
642.5009034516586
 20
130.1426319859088
 30
0.0
 10
641.690188109513
 20
130.383211670361
 30
0.0
 10
640.0155029282793
 20
130.7118042523706
 30
0.0
 10
639.174612153828
 20
130.7935974289907
 30
0.0
 10
637.9081130758283
 20
130.7962379812013
 30
0.0
 10
637.4850752182955
 20
130.7768539064309
 30
0.0
 10
636.6372358813459
 20
130.6970776511048
 30
0.0
 10
636.2145227749255
 20
130.6364396986691
 30
0.0
 10
634.9696457025425
 20
130.3967822816857
 30
0.0
 10
634.1619886793126
 20
130.16222829789
 30
0.0
 10
632.9913506900328
 20
129.6731764905612
 30
0.0
 10
632.6058564802676
 20
129.4862815435628
 30
0.0
 10
631.8577884036165
 20
129.0778181193582
 30
0.0
 10
631.4966352957898
 20
128.8561204666945
 30
0.0
 10
630.4489890023004
 20
128.1424667115466
 30
0.0
 10
629.7988889654983
 20
127.6011631977943
 30
0.0
 10
628.5990230175923
 20
126.3825077787633
 30
0.0
 10
628.0678440900965
 20
125.7233754625434
 30
0.0
 10
627.3710943492283
 20
124.6668881917978
 30
0.0
 10
627.1555767785444
 20
124.3031219599296
 30
0.0
 10
626.7589716972986
 20
123.5517123967099
 30
0.0
 10
626.5773295811986
 20
123.162531224296
 30
0.0
 10
626.0951078694573
 20
121.9832955131392
 30
0.0
 10
625.8527199978896
 20
121.1751941765773
 30
0.0
 10
625.5254796714905
 20
119.5152837638871
 30
0.0
 10
625.4405814940644
 20
118.6568561680624
 30
0.0
 10
625.4405712174862
 20
116.9506913882786
 30
0.0
  0
SPLINE
  5
2A7
330
1F
100
AcDbEntity
  8
0
  6
Continuous
 62
     7
370
    15
100
AcDbSpline
210
0.0
220
0.0
230
1.0
 70
     8
 71
     3
 72
   101
 73
    97
 74
     0
 42
0.00000001
 43
0.00000001
 40
-0.015625
 40
-0.015625
 40
0.0
 40
0.0
 40
0.0312499999999999
 40
0.0312499999999999
 40
0.0624999999999999
 40
0.0624999999999999
 40
0.0781249999999998
 40
0.0781249999999998
 40
0.0937499999999998
 40
0.0937499999999998
 40
0.1249999999999995
 40
0.1249999999999995
 40
0.1562499999999993
 40
0.1562499999999993
 40
0.1718749999999991
 40
0.1718749999999991
 40
0.1874999999999989
 40
0.1874999999999989
 40
0.218749999999999
 40
0.218749999999999
 40
0.234374999999999
 40
0.234374999999999
 40
0.2499999999999991
 40
0.2499999999999991
 40
0.2812499999999996
 40
0.2812499999999996
 40
0.3125
 40
0.3125
 40
0.3281250000000003
 40
0.3281250000000003
 40
0.3437500000000005
 40
0.3437500000000005
 40
0.3750000000000003
 40
0.3750000000000003
 40
0.3906250000000001
 40
0.3906250000000001
 40
0.40625
 40
0.40625
 40
0.4374999999999997
 40
0.4374999999999997
 40
0.4531249999999996
 40
0.4531249999999996
 40
0.4687499999999994
 40
0.4687499999999994
 40
0.4999999999999991
 40
0.4999999999999991
 40
0.5312499999999988
 40
0.5312499999999988
 40
0.5468749999999988
 40
0.5468749999999988
 40
0.5624999999999988
 40
0.5624999999999988
 40
0.5781249999999987
 40
0.5781249999999987
 40
0.5937499999999987
 40
0.5937499999999987
 40
0.6249999999999987
 40
0.6249999999999987
 40
0.6406249999999982
 40
0.6406249999999982
 40
0.6562499999999979
 40
0.6562499999999979
 40
0.6874999999999971
 40
0.6874999999999971
 40
0.7031249999999972
 40
0.7031249999999972
 40
0.7187499999999973
 40
0.7187499999999973
 40
0.7343749999999973
 40
0.7343749999999973
 40
0.7499999999999974
 40
0.7499999999999974
 40
0.7812499999999979
 40
0.7812499999999979
 40
0.7968749999999982
 40
0.7968749999999982
 40
0.8124999999999984
 40
0.8124999999999984
 40
0.8437499999999989
 40
0.8437499999999989
 40
0.8593749999999992
 40
0.8593749999999992
 40
0.8749999999999994
 40
0.8749999999999994
 40
0.9062499999999997
 40
0.9062499999999997
 40
0.9218749999999998
 40
0.9218749999999998
 40
0.9374999999999998
 40
0.9531249999999999
 40
0.9531249999999999
 40
0.96875
 40
0.96875
 40
0.984375
 40
0.984375
 40
1.0
 40
1.0
 40
1.03125
 40
1.03125
 10
623.4450032157861
 20
117.3100099126397
 30
0.0
 10
623.4450121282542
 20
118.79133756841
 30
0.0
 10
623.5430636999743
 20
119.7794857922316
 30
0.0
 10
623.9211742713359
 20
121.6953325257409
 30
0.0
 10
624.2011432078103
 20
122.6279599208215
 30
0.0
 10
624.7581796642324
 20
123.9887595003102
 30
0.0
 10
624.9680458037158
 20
124.4379046819019
 30
0.0
 10
625.4263650819854
 20
125.3051873415038
 30
0.0
 10
625.6753993823322
 20
125.7250260492153
 30
0.0
 10
626.4805103567782
 20
126.9442575005253
 30
0.0
 10
627.0946411773012
 20
127.7050045733619
 30
0.0
 10
628.4806454920649
 20
129.1101544570202
 30
0.0
 10
629.2315916839862
 20
129.7341805428796
 30
0.0
 10
630.4418764386088
 20
130.5565387599343
 30
0.0
 10
630.8591379766739
 20
130.8119046026339
 30
0.0
 10
631.7233837855085
 20
131.2823407847971
 30
0.0
 10
632.1685207959545
 20
131.4972951079407
 30
0.0
 10
633.5201070859218
 20
132.0608637092054
 30
0.0
 10
634.4520510674158
 20
132.33309986068
 30
0.0
 10
635.8889334724585
 20
132.6108529050418
 30
0.0
 10
636.376856259279
 20
132.6811563409709
 30
0.0
 10
637.3557524709762
 20
132.7737450475839
 30
0.0
 10
637.844177825206
 20
132.7962659143462
 30
0.0
 10
639.3064280484903
 20
132.793493483157
 30
0.0
 10
640.2772747660557
 20
132.6989732560441
 30
0.0
 10
642.2107454770589
 20
132.318802475526
 30
0.0
 10
643.1462429294003
 20
132.0400504290336
 30
0.0
 10
644.4876697247016
 20
131.4738711546832
 30
0.0
 10
644.9251183471679
 20
131.2607736671954
 30
0.0
 10
645.7825511148536
 20
130.7906234069848
 30
0.0
 10
646.2041999653187
 20
130.5310829914102
 30
0.0
 10
647.4168815744879
 20
129.7012025653614
 30
0.0
 10
648.1618207163554
 20
129.0764222740178
 30
0.0
 10
649.1853844070012
 20
128.0335638856315
 30
0.0
 10
649.5107305145411
 20
127.6681033779075
 30
0.0
 10
650.1290156202438
 20
126.900684496815
 30
0.0
 10
650.417449810736
 20
126.5042505232818
 30
0.0
 10
651.219799924796
 20
125.2819077027538
 30
0.0
 10
651.6721528766029
 20
124.4212869764133
 30
0.0
 10
652.2264557334717
 20
123.0615406574997
 30
0.0
 10
652.3908713063618
 20
122.5946143132985
 30
0.0
 10
652.6706632947257
 20
121.6561661049833
 30
0.0
 10
652.786846460605
 20
121.1829090332816
 30
0.0
 10
653.066205125327
 20
119.7513700407597
 30
0.0
 10
653.1614035699523
 20
118.7813772282473
 30
0.0
 10
653.1603150156
 20
116.8094239253849
 30
0.0
 10
653.0640750529263
 20
115.8333343116083
 30
0.0
 10
652.7777101232855
 20
114.3838714224516
 30
0.0
 10
652.6589164213484
 20
113.9071064479295
 30
0.0
 10
652.3775509944298
 20
112.9732592491374
 30
0.0
 10
652.2148598392729
 20
112.5149650174232
 30
0.0
 10
651.8460938495778
 20
111.6153868982149
 30
0.0
 10
651.6400222103263
 20
111.1741017591683
 30
0.0
 10
651.1833295008397
 20
110.3089987964558
 30
0.0
 10
650.9311169047614
 20
109.8832320580905
 30
0.0
 10
650.1208342786668
 20
108.6565138594648
 30
0.0
 10
649.5083285350902
 20
107.9001558459869
 30
0.0
 10
648.4811597397821
 20
106.8577407909292
 30
0.0
 10
648.1196155574991
 20
106.5249237466306
 30
0.0
 10
647.36322273031
 20
105.8945781909041
 30
0.0
 10
646.9726036899326
 20
105.6004021687933
 30
0.0
 10
645.764484761113
 20
104.7791618677492
 30
0.0
 10
644.9127039813278
 20
104.3101040711074
 30
0.0
 10
643.5551002523525
 20
103.7413576776741
 30
0.0
 10
643.0882864035723
 20
103.5752269513006
 30
0.0
 10
642.1510105286275
 20
103.2969554031032
 30
0.0
 10
641.6778134648786
 20
103.1824312799169
 30
0.0
 10
640.7232197984994
 20
102.9976013711423
 30
0.0
 10
640.2416996112231
 20
102.927969429903
 30
0.0
 10
639.2700745994036
 20
102.8350163859538
 30
0.0
 10
638.7780308715476
 20
102.8114845032552
 30
0.0
 10
637.3023471818217
 20
102.8131245388323
 30
0.0
 10
636.3321963234279
 20
102.9086047920388
 30
0.0
 10
634.89686291911
 20
103.189494514929
 30
0.0
 10
634.4216489142442
 20
103.3054702487466
 30
0.0
 10
633.4785588567246
 20
103.5882571399757
 30
0.0
 10
633.0156784598829
 20
103.7547866757838
 30
0.0
 10
631.6695219068883
 20
104.3227562692335
 30
0.0
 10
630.8198805427618
 20
104.7916463172636
 30
0.0
 10
629.6100440842802
 20
105.6172980046797
 30
0.0
 10
629.2159300372898
 20
105.9155525218258
 30
0.0
 10
628.4647422601826
 20
106.5442234421594
 30
0.0
 10
628.1068840528203
 20
106.8748056534761
 30
0.0
 10
627.085568264125
 20
107.9144250918465
 30
0.0
 10
626.4738807938525
 20
108.6708878961292
 30
0.0
 10
625.6626021534845
 20
109.9029212363952
 30
0.0
 10
625.4130566401794
 20
110.3257847065453
 30
0.0
 10
624.9592448942814
 20
111.1878225233795
 30
0.0
 10
624.5489465395692
 20
112.0684267040587
 30
0.0
 10
624.2241627852634
 20
112.9855186208319
 30
0.0
 10
623.9431519873946
 20
113.9212878979104
 30
0.0
 10
623.8243239842067
 20
114.4007422270162
 30
0.0
 10
623.6351271855839
 20
115.3635275868219
 30
0.0
 10
623.564192226448
 20
115.8477055253777
 30
0.0
 10
623.4691313154747
 20
116.8215709728449
 30
0.0
 10
623.4450032157861
 20
117.3100099126397
 30
0.0
 10
623.4450121282542
 20
118.79133756841
 30
0.0
  0
ARC
  5
2A8
330
1F
100
AcDbEntity
  8
0
  6
Continuous
 62
     7
370
    15
100
AcDbCircle
 10
618.8029338843
 20
117.8036953955
 30
0.0
 40
4.000000000000014
100
AcDbArc
 50
90.0
 51
270.0
  0
LINE
  5
2A9
330
1F
100
AcDbEntity
  8
0
  6
Continuous
 62
     7
370
    15
100
AcDbLine
 10
398.9029326445
 20
98.4036948233
 30
0.0
 11
398.9029326445
 21
137.2036959677
 31
0.0
  0
LINE
  5
2AA
330
1F
100
AcDbEntity
  8
0
  6
Continuous
 62
     7
370
    15
100
AcDbLine
 10
395.4029330021
 20
137.2036959677
 30
0.0
 11
395.4029330021
 21
98.4036948233
 31
0.0
  0
LINE
  5
2AB
330
1F
100
AcDbEntity
  8
0
  6
Continuous
 62
     7
370
    15
100
AcDbLine
 10
391.4029323465
 20
102.403695479
 30
0.0
 11
391.4029323465
 21
133.2036953121
 31
0.0
  0
LINE
  5
2AC
330
1F
100
AcDbEntity
  8
0
  6
Continuous
 62
     7
370
    15
100
AcDbLine
 10
400.9029366976
 20
117.8036953955
 30
0.0
 11
400.9029366976
 21
103.9036957248
 31
0.0
  0
LINE
  5
2AD
330
1F
100
AcDbEntity
  8
0
  6
Continuous
 62
     7
370
    15
100
AcDbLine
 10
400.9029366976
 20
131.7036950662
 30
0.0
 11
400.9029366976
 21
117.8036953955
 31
0.0
  0
LINE
  5
2AE
330
1F
100
AcDbEntity
  8
0
  6
Continuous
 62
     7
370
    15
100
AcDbLine
 10
411.8529357916
 20
138.8036951124
 30
0.0
 11
615.8529319769
 21
138.8036951124
 31
0.0
  0
LINE
  5
2AF
330
1F
100
AcDbEntity
  8
0
  6
Continuous
 62
     7
370
    15
100
AcDbLine
 10
411.8529357916
 20
142.6036961078
 30
0.0
 11
615.8529319769
 21
142.6036961078
 31
0.0
  0
LINE
  5
2B0
330
1F
100
AcDbEntity
  8
0
  6
Continuous
 62
     7
370
    15
100
AcDbLine
 10
411.8529357916
 20
93.0036946832
 30
0.0
 11
615.8529319769
 21
93.0036946832
 31
0.0
  0
LINE
  5
2B1
330
1F
100
AcDbEntity
  8
0
  6
Continuous
 62
     7
370
    15
100
AcDbLine
 10
411.8529357916
 20
96.8036956786
 30
0.0
 11
615.8529319769
 21
96.8036956786
 31
0.0
  0
LINE
  5
2B2
330
1F
100
AcDbEntity
  8
0
  6
Continuous
 62
     7
370
    15
100
AcDbLine
 10
533.8529334373
 20
97.0036953389
 30
0.0
 11
493.8529343313
 21
97.0036953389
 31
0.0
  0
LINE
  5
2B3
330
1F
100
AcDbEntity
  8
0
  6
Continuous
 62
     7
370
    15
100
AcDbLine
 10
493.8529343313
 20
97.0036953389
 30
0.0
 11
493.8529343313
 21
138.6036954521
 31
0.0
  0
LINE
  5
2B4
330
1F
100
AcDbEntity
  8
0
  6
Continuous
 62
     7
370
    15
100
AcDbLine
 10
533.8529334373
 20
97.0036953389
 30
0.0
 11
533.8529334373
 21
138.6036954521
 31
0.0
  0
LINE
  5
2B5
330
1F
100
AcDbEntity
  8
0
  6
Continuous
 62
     7
370
    15
100
AcDbLine
 10
533.8529334373
 20
138.6036954521
 30
0.0
 11
493.8529343313
 21
138.6036954521
 31
0.0
  0
LINE
  5
2B6
330
1F
100
AcDbEntity
  8
0
  6
Continuous
 62
     7
370
    15
100
AcDbLine
 10
539.8793653554
 20
138.6036954521
 30
0.0
 11
539.8793653554
 21
97.0036953389
 31
0.0
  0
LINE
  5
2B7
330
1F
100
AcDbEntity
  8
0
  6
Continuous
 62
     7
370
    15
100
AcDbLine
 10
539.8793653554
 20
97.0036953389
 30
0.0
 11
533.8529334373
 21
97.0036953389
 31
0.0
  0
LINE
  5
2B8
330
1F
100
AcDbEntity
  8
0
  6
Continuous
 62
     7
370
    15
100
AcDbLine
 10
533.8529334373
 20
138.6036954521
 30
0.0
 11
539.8793653554
 21
138.6036954521
 31
0.0
  0
LINE
  5
2B9
330
1F
100
AcDbEntity
  8
0
  6
Continuous
 62
     7
370
    15
100
AcDbLine
 10
487.8265024132
 20
97.0036953389
 30
0.0
 11
487.8265024132
 21
138.6036954521
 31
0.0
  0
LINE
  5
2BA
330
1F
100
AcDbEntity
  8
0
  6
Continuous
 62
     7
370
    15
100
AcDbLine
 10
493.8529343313
 20
97.0036953389
 30
0.0
 11
487.8265024132
 21
97.0036953389
 31
0.0
  0
LINE
  5
2BB
330
1F
100
AcDbEntity
  8
0
  6
Continuous
 62
     7
370
    15
100
AcDbLine
 10
487.8265024132
 20
138.6036954521
 30
0.0
 11
493.8529343313
 21
138.6036954521
 31
0.0
  0
LINE
  5
2BC
330
1F
100
AcDbEntity
  8
0
  6
Continuous
 62
     7
370
    15
100
AcDbLine
 10
612.5841462022
 20
97.0036953389
 30
0.0
 11
612.5841462022
 21
138.6036954521
 31
0.0
  0
LINE
  5
2BD
330
1F
100
AcDbEntity
  8
0
  6
Continuous
 62
     7
370
    15
100
AcDbLine
 10
612.5841462022
 20
97.0036953389
 30
0.0
 11
539.8793653554
 21
97.0036953389
 31
0.0
  0
LINE
  5
2BE
330
1F
100
AcDbEntity
  8
0
  6
Continuous
 62
     7
370
    15
100
AcDbLine
 10
612.5841462022
 20
138.6036954521
 30
0.0
 11
539.8793653554
 21
138.6036954521
 31
0.0
  0
LINE
  5
2BF
330
1F
100
AcDbEntity
  8
0
  6
Continuous
 62
     7
370
    15
100
AcDbLine
 10
411.8547611839
 20
138.6036954521
 30
0.0
 11
411.8547611839
 21
97.0036953389
 31
0.0
  0
LINE
  5
2C0
330
1F
100
AcDbEntity
  8
0
  6
Continuous
 62
     7
370
    15
100
AcDbLine
 10
487.8265024132
 20
97.0036953389
 30
0.0
 11
411.8547611839
 21
97.0036953389
 31
0.0
  0
LINE
  5
2C1
330
1F
100
AcDbEntity
  8
0
  6
Continuous
 62
     7
370
    15
100
AcDbLine
 10
487.8265024132
 20
138.6036954521
 30
0.0
 11
411.8547611839
 21
138.6036954521
 31
0.0
  0
LINE
  5
2C2
330
1F
100
AcDbEntity
  8
0
  6
Continuous
 62
     7
370
    15
100
AcDbLine
 10
620.0708695656
 20
97.0036953389
 30
0.0
 11
612.5841462022
 21
97.0036953389
 31
0.0
  0
LINE
  5
2C3
330
1F
100
AcDbEntity
  8
0
  6
Continuous
 62
     7
370
    15
100
AcDbLine
 10
612.5841462022
 20
138.6036954521
 30
0.0
 11
620.0708695656
 21
138.6036954521
 31
0.0
  0
LINE
  5
2C4
330
1F
100
AcDbEntity
  8
0
  6
Continuous
 62
     7
370
    15
100
AcDbLine
 10
623.8529332883
 20
137.8036949485
 30
0.0
 11
623.8529332883
 21
138.6036954521
 31
0.0
  0
LINE
  5
2C5
330
1F
100
AcDbEntity
  8
0
  6
Continuous
 62
     7
370
    15
100
AcDbLine
 10
623.8529332883
 20
97.0036953389
 30
0.0
 11
620.0708695656
 21
97.0036953389
 31
0.0
  0
LINE
  5
2C6
330
1F
100
AcDbEntity
  8
0
  6
Continuous
 62
     7
370
    15
100
AcDbLine
 10
623.8529332883
 20
138.6036954521
 30
0.0
 11
620.0708695656
 21
138.6036954521
 31
0.0
  0
LINE
  5
2C7
330
1F
100
AcDbEntity
  8
0
  6
Continuous
 62
     7
370
    15
100
AcDbLine
 10
404.1203060156
 20
97.0036953389
 30
0.0
 11
404.1203060156
 21
138.6036954521
 31
0.0
  0
LINE
  5
2C8
330
1F
100
AcDbEntity
  8
0
  6
Continuous
 62
     7
370
    15
100
AcDbLine
 10
411.8547611839
 20
97.0036953389
 30
0.0
 11
404.1203060156
 21
97.0036953389
 31
0.0
  0
LINE
  5
2C9
330
1F
100
AcDbEntity
  8
0
  6
Continuous
 62
     7
370
    15
100
AcDbLine
 10
404.1203060156
 20
138.6036954521
 30
0.0
 11
411.8547611839
 21
138.6036954521
 31
0.0
  0
LINE
  5
2CA
330
1F
100
AcDbEntity
  8
0
  6
Continuous
 62
     7
370
    15
100
AcDbLine
 10
403.8529344803
 20
97.0036953389
 30
0.0
 11
403.8529344803
 21
138.6036954521
 31
0.0
  0
LINE
  5
2CB
330
1F
100
AcDbEntity
  8
0
  6
Continuous
 62
     7
370
    15
100
AcDbLine
 10
404.1203060156
 20
97.0036953389
 30
0.0
 11
403.8529344803
 21
97.0036953389
 31
0.0
  0
LINE
  5
2CC
330
1F
100
AcDbEntity
  8
0
  6
Continuous
 62
     7
370
    15
100
AcDbLine
 10
404.1203060156
 20
138.6036954521
 30
0.0
 11
403.8529344803
 21
138.6036954521
 31
0.0
  0
LINE
  5
2CD
330
1F
100
AcDbEntity
  8
0
  6
Continuous
 62
     7
370
    15
100
AcDbLine
 10
620.0708695656
 20
138.6036954521
 30
0.0
 11
620.0708695656
 21
127.803695172
 31
0.0
  0
LINE
  5
2CE
330
1F
100
AcDbEntity
  8
0
  6
Continuous
 62
     7
370
    15
100
AcDbLine
 10
620.0708695656
 20
113.8036952055
 30
0.0
 11
620.0708695656
 21
97.0036953389
 31
0.0
  0
ENDSEC
  0
SECTION
  2
OBJECTS
  0
DICTIONARY
  5
C
330
0
100
AcDbDictionary
281
     1
  3
ACAD_GROUP
350
D
  3
ACAD_LAYOUT
350
1A
  3
ACAD_MLINESTYLE
350
17
  3
ACAD_PLOTSETTINGS
350
19
  3
ACAD_PLOTSTYLENAME
350
E
  0
DICTIONARY
  5
D
102
{ACAD_REACTORS
330
C
102
}
330
C
100
AcDbDictionary
281
     1
  0
DICTIONARY
  5
1A
102
{ACAD_REACTORS
330
C
102
}
330
C
100
AcDbDictionary
281
     1
  3
Layout1
350
1E
  3
Layout2
350
26
  3
Model
350
22
  0
DICTIONARY
  5
17
102
{ACAD_REACTORS
330
C
102
}
330
C
100
AcDbDictionary
281
     1
  3
Standard
350
18
  0
DICTIONARY
  5
19
102
{ACAD_REACTORS
330
C
102
}
330
C
100
AcDbDictionary
281
     1
  0
ACDBDICTIONARYWDFLT
  5
E
102
{ACAD_REACTORS
330
C
102
}
330
C
100
AcDbDictionary
281
     1
  3
Normal
350
F
100
AcDbDictionaryWithDefault
340
F
  0
LAYOUT
  5
1E
102
{ACAD_REACTORS
330
1A
102
}
330
1A
100
AcDbPlotSettings
  1

  2
none_device
  4

  6

 40
0.0
 41
0.0
 42
0.0
 43
0.0
 44
0.0
 45
0.0
 46
0.0
 47
0.0
 48
0.0
 49
0.0
140
0.0
141
0.0
142
1.0
143
1.0
 70
   688
 72
     0
 73
     0
 74
     5
  7

 75
    16
147
1.0
148
0.0
149
0.0
100
AcDbLayout
  1
Layout1
 70
     1
 71
     1
 10
0.0
 20
0.0
 11
420.0
 21
297.0
 12
0.0
 22
0.0
 32
0.0
 14
1.0000000000E+20
 24
1.0000000000E+20
 34
1.0000000000E+20
 15
-1.0000000000E+20
 25
-1.0000000000E+20
 35
-1.0000000000E+20
146
0.0
 13
0.0
 23
0.0
 33
0.0
 16
1.0
 26
0.0
 36
0.0
 17
0.0
 27
1.0
 37
0.0
 76
     0
330
1B
  0
LAYOUT
  5
26
102
{ACAD_REACTORS
330
1A
102
}
330
1A
100
AcDbPlotSettings
  1

  2
none_device
  4

  6

 40
0.0
 41
0.0
 42
0.0
 43
0.0
 44
0.0
 45
0.0
 46
0.0
 47
0.0
 48
0.0
 49
0.0
140
0.0
141
0.0
142
1.0
143
1.0
 70
   688
 72
     0
 73
     0
 74
     5
  7

 75
    16
147
1.0
148
0.0
149
0.0
100
AcDbLayout
  1
Layout2
 70
     1
 71
     2
 10
0.0
 20
0.0
 11
0.0
 21
0.0
 12
0.0
 22
0.0
 32
0.0
 14
0.0
 24
0.0
 34
0.0
 15
0.0
 25
0.0
 35
0.0
146
0.0
 13
0.0
 23
0.0
 33
0.0
 16
1.0
 26
0.0
 36
0.0
 17
0.0
 27
1.0
 37
0.0
 76
     0
330
23
  0
LAYOUT
  5
22
102
{ACAD_REACTORS
330
1A
102
}
330
1A
100
AcDbPlotSettings
  1

  2
none_device
  4

  6

 40
0.0
 41
0.0
 42
0.0
 43
0.0
 44
0.0
 45
0.0
 46
0.0
 47
0.0
 48
0.0
 49
0.0
140
0.0
141
0.0
142
1.0
143
1.0
 70
  1712
 72
     0
 73
     0
 74
     0
  7

 75
     0
147
1.0
148
0.0
149
0.0
100
AcDbLayout
  1
Model
 70
     1
 71
     0
 10
0.0
 20
0.0
 11
0.0
 21
0.0
 12
0.0
 22
0.0
 32
0.0
 14
0.0
 24
0.0
 34
0.0
 15
841.0
 25
594.0
 35
0.0
146
0.0
 13
0.0
 23
0.0
 33
0.0
 16
1.0
 26
0.0
 36
0.0
 17
0.0
 27
1.0
 37
0.0
 76
     0
330
1F
  0
MLINESTYLE
  5
18
102
{ACAD_REACTORS
330
17
102
}
330
17
100
AcDbMlineStyle
  2
Standard
 70
     0
  3

 62
   256
 51
90.0
 52
90.0
 71
     2
 49
0.5
 62
   256
  6
BYLAYER
 49
-0.5
 62
   256
  6
BYLAYER
  0
ACDBPLACEHOLDER
  5
F
102
{ACAD_REACTORS
330
E
102
}
330
E
  0
ENDSEC
  0
EOF
