  0
SECTION
  2
HEADER
  9
$ACADVER
  1
AC1015
  9
$ACADMAINTVER
 70
     6
  9
$DWGCODEPAGE
  3
ANSI_1252
  9
$INSBASE
 10
0.0
 20
0.0
 30
0.0
  9
$EXTMIN
 10
0.0
 20
0.0
 30
0.0
  9
$EXTMAX
 10
1000.0
 20
1000.0
 30
0.0
  9
$LIMMIN
 10
0.0
 20
0.0
  9
$LIMMAX
 10
0.0
 20
0.0
  9
$ORTHOMODE
 70
     0
  9
$REGENMODE
 70
     1
  9
$FILLMODE
 70
     1
  9
$QTEXTMODE
 70
     0
  9
$MIRRTEXT
 70
     1
  9
$LTSCALE
 40
1.0
  9
$ATTMODE
 70
     1
  9
$TEXTSIZE
 40
3.5
  9
$TRACEWID
 40
1.0
  9
$TEXTSTYLE
  7
Standard
  9
$CLAYER
  8
0
  9
$CELTYPE
  6
ByLayer
  9
$CECOLOR
 62
   256
  9
$CELTSCALE
 40
1.0
  9
$DISPSILH
 70
     0
  9
$DIMSCALE
 40
1.0
  9
$DIMASZ
 40
6.0
  9
$DIMEXO
 40
1.0
  9
$DIMDLI
 40
3.75
  9
$DIMRND
 40
0.0
  9
$DIMDLE
 40
0.0
  9
$DIMEXE
 40
1.0
  9
$DIMTP
 40
0.0
  9
$DIMTM
 40
0.0
  9
$DIMTXT
 40
3.5
  9
$DIMCEN
 40
2.5
  9
$DIMTSZ
 40
0.0
  9
$DIMTOL
 70
     0
  9
$DIMLIM
 70
     0
  9
$DIMTIH
 70
     1
  9
$DIMTOH
 70
     1
  9
$DIMSE1
 70
     0
  9
$DIMSE2
 70
     0
  9
$DIMTAD
 70
     1
  9
$DIMZIN
 70
     0
  9
$DIMBLK
  1

  9
$DIMASO
 70
     1
  9
$DIMSHO
 70
     1
  9
$DIMPOST
  1

  9
$DIMAPOST
  1

  9
$DIMALT
 70
     0
  9
$DIMALTD
 70
     3
  9
$DIMALTF
 40
0.0393700787
  9
$DIMLFAC
 40
1.0
  9
$DIMTOFL
 70
     1
  9
$DIMTVP
 40
0.0
  9
$DIMTIX
 70
     0
  9
$DIMSOXD
 70
     0
  9
$DIMSAH
 70
     0
  9
$DIMBLK1
  1

  9
$DIMBLK2
  1

  9
$DIMSTYLE
  2
ISO-25
  9
$DIMCLRD
 70
     0
  9
$DIMCLRE
 70
     0
  9
$DIMCLRT
 70
     0
  9
$DIMTFAC
 40
1.0
  9
$DIMGAP
 40
1.524
  9
$DIMJUST
 70
     0
  9
$DIMSD1
 70
     0
  9
$DIMSD2
 70
     0
  9
$DIMTOLJ
 70
     0
  9
$DIMTZIN
 70
     0
  9
$DIMALTZ
 70
     0
  9
$DIMALTTZ
 70
     0
  9
$DIMUPT
 70
     0
  9
$DIMDEC
 70
     2
  9
$DIMTDEC
 70
     2
  9
$DIMALTU
 70
     2
  9
$DIMALTTD
 70
     3
  9
$DIMTXSTY
  7
Standard
  9
$DIMAUNIT
 70
     0
  9
$DIMADEC
 70
     0
  9
$DIMALTRND
 40
0.0
  9
$DIMAZIN
 70
     0
  9
$DIMDSEP
 70
    44
  9
$DIMATFIT
 70
     3
  9
$DIMFRAC
 70
     0
  9
$DIMLDRBLK
  1

  9
$DIMLUNIT
 70
     2
  9
$DIMLWD
 70
    -2
  9
$DIMLWE
 70
    -2
  9
$DIMTMOVE
 70
     0
  9
$LUNITS
 70
     2
  9
$LUPREC
 70
     2
  9
$SKETCHINC
 40
1.0
  9
$FILLETRAD
 40
10.0
  9
$AUNITS
 70
     0
  9
$AUPREC
 70
     0
  9
$MENU
  1
.
  9
$ELEVATION
 40
0.0
  9
$PELEVATION
 40
0.0
  9
$THICKNESS
 40
0.0
  9
$LIMCHECK
 70
     0
  9
$CHAMFERA
 40
10.0
  9
$CHAMFERB
 40
10.0
  9
$CHAMFERC
 40
20.0
  9
$CHAMFERD
 40
0.0
  9
$SKPOLY
 70
     0
  9
$TDCREATE
 40
2455279.432406609
  9
$TDUCREATE
 40
2455279.390739942
  9
$TDUPDATE
 40
2455279.432406621
  9
$TDUUPDATE
 40
2455279.390739954
  9
$TDINDWG
 40
0.0000000116
  9
$TDUSRTIMER
 40
0.0000000116
  9
$USRTIMER
 70
     1
  9
$ANGBASE
 50
0.0
  9
$ANGDIR
 70
     0
  9
$PDMODE
 70
     0
  9
$PDSIZE
 40
-1.0
  9
$PLINEWID
 40
0.0
  9
$SPLFRAME
 70
     0
  9
$SPLINETYPE
 70
     6
  9
$SPLINESEGS
 70
     8
  9
$HANDSEED
  5
344
  9
$SURFTAB1
 70
     6
  9
$SURFTAB2
 70
     6
  9
$SURFTYPE
 70
     6
  9
$SURFU
 70
     6
  9
$SURFV
 70
     6
  9
$UCSBASE
  2

  9
$UCSNAME
  2

  9
$UCSORG
 10
0.0
 20
0.0
 30
0.0
  9
$UCSXDIR
 10
1.0
 20
0.0
 30
0.0
  9
$UCSYDIR
 10
0.0
 20
1.0
 30
0.0
  9
$UCSORTHOREF
  2

  9
$UCSORTHOVIEW
 70
     0
  9
$UCSORGTOP
 10
0.0
 20
0.0
 30
0.0
  9
$UCSORGBOTTOM
 10
0.0
 20
0.0
 30
0.0
  9
$UCSORGLEFT
 10
0.0
 20
0.0
 30
0.0
  9
$UCSORGRIGHT
 10
0.0
 20
0.0
 30
0.0
  9
$UCSORGFRONT
 10
0.0
 20
0.0
 30
0.0
  9
$UCSORGBACK
 10
0.0
 20
0.0
 30
0.0
  9
$PUCSBASE
  2

  9
$PUCSNAME
  2

  9
$PUCSORG
 10
0.0
 20
0.0
 30
0.0
  9
$PUCSXDIR
 10
1.0
 20
0.0
 30
0.0
  9
$PUCSYDIR
 10
0.0
 20
1.0
 30
0.0
  9
$PUCSORTHOREF
  2

  9
$PUCSORTHOVIEW
 70
     0
  9
$PUCSORGTOP
 10
0.0
 20
0.0
 30
0.0
  9
$PUCSORGBOTTOM
 10
0.0
 20
0.0
 30
0.0
  9
$PUCSORGLEFT
 10
0.0
 20
0.0
 30
0.0
  9
$PUCSORGRIGHT
 10
0.0
 20
0.0
 30
0.0
  9
$PUCSORGFRONT
 10
0.0
 20
0.0
 30
0.0
  9
$PUCSORGBACK
 10
0.0
 20
0.0
 30
0.0
  9
$USERI1
 70
     0
  9
$USERI2
 70
     0
  9
$USERI3
 70
     0
  9
$USERI4
 70
     0
  9
$USERI5
 70
     0
  9
$USERR1
 40
0.0
  9
$USERR2
 40
0.0
  9
$USERR3
 40
0.0
  9
$USERR4
 40
0.0
  9
$USERR5
 40
0.0
  9
$WORLDVIEW
 70
     1
  9
$SHADEDGE
 70
     3
  9
$SHADEDIF
 70
    70
  9
$TILEMODE
 70
     1
  9
$MAXACTVP
 70
    64
  9
$PINSBASE
 10
0.0
 20
0.0
 30
0.0
  9
$PLIMCHECK
 70
     0
  9
$PEXTMIN
 10
1.0000000000E+20
 20
1.0000000000E+20
 30
1.0000000000E+20
  9
$PEXTMAX
 10
-1.0000000000E+20
 20
-1.0000000000E+20
 30
-1.0000000000E+20
  9
$PLIMMIN
 10
0.0
 20
0.0
  9
$PLIMMAX
 10
420.0
 20
297.0
  9
$UNITMODE
 70
     0
  9
$VISRETAIN
 70
     1
  9
$PLINEGEN
 70
     0
  9
$PSLTSCALE
 70
     1
  9
$TREEDEPTH
 70
  3020
  9
$CMLSTYLE
  2
Standard
  9
$CMLJUST
 70
     0
  9
$CMLSCALE
 40
20.0
  9
$PROXYGRAPHICS
 70
     1
  9
$MEASUREMENT
 70
     1
  9
$CELWEIGHT
370
    -1
  9
$ENDCAPS
280
     0
  9
$JOINSTYLE
280
     0
  9
$LWDISPLAY
290
     1
  9
$INSUNITS
 70
     4
  9
$HYPERLINKBASE
  1

  9
$STYLESHEET
  1

  9
$XEDIT
290
     1
  9
$CEPSNTYPE
380
     0
  9
$PSTYLEMODE
290
     1
  9
$FINGERPRINTGUID
  2
{76C558C1-85F3-44DE-975D-F4D2322CE05C}
  9
$VERSIONGUID
  2
{FAEB1C32-E019-11D5-929B-00C0DF256EC4}
  9
$EXTNAMES
290
     1
  9
$PSVPSCALE
 40
0.0
  9
$OLESTARTUP
290
     0
  0
ENDSEC
  0
SECTION
  2
CLASSES
  0
CLASS
  1
ACDBDICTIONARYWDFLT
  2
AcDbDictionaryWithDefault
  3
ObjectDBX Classes
 90
        0
280
     0
281
     0
  0
CLASS
  1
ACDBPLACEHOLDER
  2
AcDbPlaceHolder
  3
ObjectDBX Classes
 90
        0
280
     0
281
     0
  0
CLASS
  1
LAYOUT
  2
AcDbLayout
  3
ObjectDBX Classes
 90
        0
280
     0
281
     0
  0
ENDSEC
  0
SECTION
  2
TABLES
  0
TABLE
  2
VPORT
  5
8
330
0
100
AcDbSymbolTable
 70
     1
  0
VPORT
  5
29
330
8
100
AcDbSymbolTableRecord
100
AcDbViewportTableRecord
  2
*Active
 70
     0
 10
0.0
 20
0.0
 11
1.0
 21
1.0
 12
500.0
 22
500.0
 13
0.0
 23
0.0
 14
10.0
 24
10.0
 15
10.0
 25
10.0
 16
0.0
 26
0.0
 36
1.0
 17
0.0
 27
0.0
 37
0.0
 40
1000.0
 41
1.0
 42
50.0
 43
0.0
 44
0.0
 50
0.0
 51
0.0
 71
     0
 72
  2000
 73
     1
 74
     3
 75
     0
 76
     0
 77
     0
 78
     0
281
     0
 65
     1
110
0.0
120
0.0
130
0.0
111
1.0
121
0.0
131
0.0
112
0.0
122
1.0
132
0.0
 79
     0
146
0.0
  0
ENDTAB
  0
TABLE
  2
LTYPE
  5
5
330
0
100
AcDbSymbolTable
 70
     6
  0
LTYPE
  5
14
330
5
100
AcDbSymbolTableRecord
100
AcDbLinetypeTableRecord
  2
ByBlock
 70
     0
  3

 72
    65
 73
     0
 40
0.0
  0
LTYPE
  5
15
330
5
100
AcDbSymbolTableRecord
100
AcDbLinetypeTableRecord
  2
ByLayer
 70
     0
  3

 72
    65
 73
     0
 40
0.0
  0
LTYPE
  5
16
330
5
100
AcDbSymbolTableRecord
100
AcDbLinetypeTableRecord
  2
Continuous
 70
     0
  3
Solid line
 72
    65
 73
     0
 40
0.0
  0
LTYPE
  5
2A
330
5
100
AcDbSymbolTableRecord
100
AcDbLinetypeTableRecord
  2
HIDDEN
 70
     0
  3
Hidden __ __ __ __ __ __ __ __ __ __ __ __ __ __
 72
    65
 73
     2
 40
1.905
 49
1.27
 74
     0
 49
-0.635
 74
     0
  0
LTYPE
  5
2B
330
5
100
AcDbSymbolTableRecord
100
AcDbLinetypeTableRecord
  2
PHANTOM
 70
     0
  3
Phantom ______  __  __  ______  __  __  ______
 72
    65
 73
     6
 40
12.7
 49
6.35
 74
     0
 49
-1.27
 74
     0
 49
1.27
 74
     0
 49
-1.27
 74
     0
 49
1.27
 74
     0
 49
-1.27
 74
     0
  0
LTYPE
  5
2C
330
5
100
AcDbSymbolTableRecord
100
AcDbLinetypeTableRecord
  2
CENTER
 70
     0
  3
Center ____ _ ____ _ ____ _ ____ _ ____ _ ____
 72
    65
 73
     4
 40
10.16
 49
6.35
 74
     0
 49
-1.27
 74
     0
 49
1.27
 74
     0
 49
-1.27
 74
     0
  0
LTYPE
  5
2D
330
5
100
AcDbSymbolTableRecord
100
AcDbLinetypeTableRecord
  2
CENTERX2
 70
     0
  3
Center (2x) ________  __  ________  __  _____
 72
    65
 73
     4
 40
20.32
 49
12.7
 74
     0
 49
-2.54
 74
     0
 49
2.54
 74
     0
 49
-2.54
 74
     0
  0
LTYPE
  5
2E
330
5
100
AcDbSymbolTableRecord
100
AcDbLinetypeTableRecord
  2
DOT2
 70
     0
  3
Dot (.5x) ........................................
 72
    65
 73
     2
 40
0.635
 49
0.0
 74
     0
 49
-0.635
 74
     0
  0
ENDTAB
  0
TABLE
  2
LAYER
  5
2
330
0
100
AcDbSymbolTable
 70
     2
  0
LAYER
  5
10
330
2
100
AcDbSymbolTableRecord
100
AcDbLayerTableRecord
  2
0
 70
     0
 62
     7
  6
Continuous
370
    -3
390
F
  0
LAYER
  5
2F
330
2
100
AcDbSymbolTableRecord
100
AcDbLayerTableRecord
  2
FORMAT
 70
     0
 62
     7
  6
Continuous
370
    -3
390
F
  0
ENDTAB
  0
TABLE
  2
STYLE
  5
3
330
0
100
AcDbSymbolTable
 70
     1
  0
STYLE
  5
11
330
3
100
AcDbSymbolTableRecord
100
AcDbTextStyleTableRecord
  2
Standard
 70
     0
 40
0.0
 41
1.0
 50
0.0
 71
     0
 42
2.5
  3
txt
  4

  0
ENDTAB
  0
TABLE
  2
VIEW
  5
6
330
0
100
AcDbSymbolTable
 70
     0
  0
ENDTAB
  0
TABLE
  2
UCS
  5
7
330
0
100
AcDbSymbolTable
 70
     0
  0
ENDTAB
  0
TABLE
  2
APPID
  5
9
330
0
100
AcDbSymbolTable
 70
     1
  0
APPID
  5
12
330
9
100
AcDbSymbolTableRecord
100
AcDbRegAppTableRecord
  2
ACAD
 70
     0
  0
ENDTAB
  0
TABLE
  2
DIMSTYLE
  5
A
330
0
100
AcDbSymbolTable
 70
     1
100
AcDbDimStyleTable
  0
DIMSTYLE
105
27
330
A
100
AcDbSymbolTableRecord
100
AcDbDimStyleTableRecord
  2
ISO-25
 70
     0
 41
2.5
 42
0.625
 43
3.75
 44
1.25
 73
     0
 74
     0
 77
     1
 78
     8
140
2.5
141
2.5
143
0.0393700787
147
0.625
171
     3
172
     1
271
     2
272
     2
274
     3
278
    44
283
     0
284
     8
340
11
  0
ENDTAB
  0
TABLE
  2
BLOCK_RECORD
  5
1
330
0
100
AcDbSymbolTable
 70
     1
  0
BLOCK_RECORD
  5
1F
330
1
100
AcDbSymbolTableRecord
100
AcDbBlockTableRecord
  2
*Model_Space
340
22
  0
BLOCK_RECORD
  5
1B
330
1
100
AcDbSymbolTableRecord
100
AcDbBlockTableRecord
  2
*Paper_Space
340
1E
  0
BLOCK_RECORD
  5
23
330
1
100
AcDbSymbolTableRecord
100
AcDbBlockTableRecord
  2
*Paper_Space0
340
26
  0
ENDTAB
  0
ENDSEC
  0
SECTION
  2
BLOCKS
  0
BLOCK
  5
20
330
1F
100
AcDbEntity
  8
0
100
AcDbBlockBegin
  2
*Model_Space
 70
     0
 71
     0
 10
0.0
 20
0.0
 30
0.0
  3
*Model_Space
  1

  0
ENDBLK
  5
21
330
1F
100
AcDbEntity
  8
0
100
AcDbBlockEnd
  0
BLOCK
  5
1C
330
1B
100
AcDbEntity
 67
     1
  8
0
100
AcDbBlockBegin
  2
*Paper_Space
 70
     0
 71
     0
 10
0.0
 20
0.0
 30
0.0
  3
*Paper_Space
  1

  0
ENDBLK
  5
1D
330
1B
100
AcDbEntity
 67
     1
  8
0
100
AcDbBlockEnd
  0
BLOCK
  5
24
330
23
100
AcDbEntity
  8
0
100
AcDbBlockBegin
  2
*Paper_Space0
 70
     0
 71
     0
 10
0.0
 20
0.0
 30
0.0
  3
*Paper_Space0
  1

  0
ENDBLK
  5
25
330
23
100
AcDbEntity
  8
0
100
AcDbBlockEnd
  0
ENDSEC
  0
SECTION
  2
ENTITIES
  0
ARC
  5
30
330
1F
100
AcDbEntity
  8
0
  6
Continuous
 62
     7
370
    15
100
AcDbCircle
 10
619.2828410048
 20
603.9610077585
 30
0.0
 40
2.0
100
AcDbArc
 50
215.1660414518
 51
270.0
  0
ARC
  5
31
330
1F
100
AcDbEntity
  8
0
  6
Continuous
 62
     7
370
    15
100
AcDbCircle
 10
634.9127501573
 20
603.9610077585
 30
0.0
 40
2.000000000000008
100
AcDbArc
 50
270.0
 51
323.0610817199
  0
LWPOLYLINE
  5
32
330
1F
100
AcDbEntity
  8
0
  6
Continuous
 62
     7
370
    15
100
AcDbPolyline
 90
        3
 70
   128
 43
0.0
 10
636.8002562599
 20
603.2997115339
 10
636.8949456887
 20
603.6947413171
 10
636.9075967745
 20
604.1044636453
  0
LINE
  5
33
330
1F
100
AcDbEntity
  8
0
  6
Continuous
 62
     7
370
    15
100
AcDbLine
 10
618.5977949576
 20
608.3610101427
 30
0.0
 11
618.5977949576
 21
607.9610033716
 31
0.0
  0
LINE
  5
34
330
1F
100
AcDbEntity
  8
0
  6
Continuous
 62
     7
370
    15
100
AcDbLine
 10
635.5977958814
 20
607.9610033716
 30
0.0
 11
635.5977958814
 21
608.3610101427
 31
0.0
  0
ARC
  5
35
330
1F
100
AcDbEntity
  8
0
  6
Continuous
 62
     7
370
    15
100
AcDbCircle
 10
547.1628410048
 20
603.9610077585
 30
0.0
 40
2.0
100
AcDbArc
 50
197.354016184
 51
270.0
  0
ARC
  5
36
330
1F
100
AcDbEntity
  8
0
  6
Continuous
 62
     7
370
    15
100
AcDbCircle
 10
562.7927501573
 20
603.9610077585
 30
0.0
 40
2.0
100
AcDbArc
 50
270.0
 51
319.8344135512
  0
LINE
  5
37
330
1F
100
AcDbEntity
  8
0
  6
Continuous
 62
     7
370
    15
100
AcDbLine
 10
564.6795189754
 20
603.2976104702
 30
0.0
 11
564.7022786365
 21
603.3662750209
 31
0.0
  0
LINE
  5
38
330
1F
100
AcDbEntity
  8
0
  6
Continuous
 62
     7
370
    15
100
AcDbLine
 10
546.4777952806
 20
608.3610101427
 30
0.0
 11
546.4777952806
 21
607.9610033716
 31
0.0
  0
LINE
  5
39
330
1F
100
AcDbEntity
  8
0
  6
Continuous
 62
     7
370
    15
100
AcDbLine
 10
563.4777962045
 20
607.9610033716
 30
0.0
 11
563.4777962045
 21
608.3610101427
 31
0.0
  0
LWPOLYLINE
  5
3A
330
1F
100
AcDbEntity
  8
0
  6
Continuous
 62
     7
370
    15
100
AcDbPolyline
 90
        3
 70
   128
 43
0.0
 10
545.176789798
 20
603.7252141918
 10
545.2520220355
 20
603.3704473461
 10
545.2538809554
 20
603.3644570793
  0
LINE
  5
3B
330
1F
100
AcDbEntity
  8
0
  6
Continuous
 62
     7
370
    15
100
AcDbLine
 10
610.2877954767
 20
724.1610034193
 30
0.0
 11
610.2877954767
 21
727.6610179628
 31
0.0
  0
LINE
  5
3C
330
1F
100
AcDbEntity
  8
0
  6
Continuous
 62
     7
370
    15
100
AcDbLine
 10
571.7877956853
 20
727.6610179628
 30
0.0
 11
571.7877956853
 21
724.1610034193
 31
0.0
  0
LINE
  5
3D
330
1F
100
AcDbEntity
  8
0
  6
Continuous
 62
     7
370
    15
100
AcDbLine
 10
610.2877954767
 20
727.6610179628
 30
0.0
 11
607.3877948151
 21
730.5610223497
 31
0.0
  0
LINE
  5
3E
330
1F
100
AcDbEntity
  8
0
  6
Continuous
 62
     7
370
    15
100
AcDbLine
 10
574.687796347
 20
730.5610223497
 30
0.0
 11
571.7877956853
 21
727.6610179628
 31
0.0
  0
LINE
  5
3F
330
1F
100
AcDbEntity
  8
0
  6
Continuous
 62
     7
370
    15
100
AcDbLine
 10
603.5377957673
 20
722.3610027517
 30
0.0
 11
603.5377957673
 21
723.1610162939
 31
0.0
  0
LINE
  5
40
330
1F
100
AcDbEntity
  8
0
  6
Continuous
 62
     7
370
    15
100
AcDbLine
 10
578.5377953948
 20
723.1610162939
 30
0.0
 11
578.5377953948
 21
722.3610027517
 31
0.0
  0
LINE
  5
41
330
1F
100
AcDbEntity
  8
0
  6
Continuous
 62
     7
370
    15
100
AcDbLine
 10
578.5527952762
 20
723.5609932626
 30
0.0
 11
578.5527952762
 21
723.1610162939
 31
0.0
  0
LINE
  5
42
330
1F
100
AcDbEntity
  8
0
  6
Continuous
 62
     7
370
    15
100
AcDbLine
 10
603.5227958859
 20
723.1610162939
 30
0.0
 11
603.5227958859
 21
723.5609932626
 31
0.0
  0
LINE
  5
43
330
1F
100
AcDbEntity
  8
0
  6
Continuous
 62
     7
370
    15
100
AcDbLine
 10
602.8877959402
 20
723.5609932626
 30
0.0
 11
602.8877959402
 21
724.1610034193
 31
0.0
  0
LINE
  5
44
330
1F
100
AcDbEntity
  8
0
  6
Continuous
 62
     7
370
    15
100
AcDbLine
 10
579.1877952219
 20
724.1610034193
 30
0.0
 11
579.1877952219
 21
723.5609932626
 31
0.0
  0
LINE
  5
45
330
1F
100
AcDbEntity
  8
0
  6
Continuous
 62
     7
370
    15
100
AcDbLine
 10
720.2500409262
 20
663.4610040868
 30
0.0
 11
720.53779725
 21
663.9610125507
 31
0.0
  0
LINE
  5
46
330
1F
100
AcDbEntity
  8
0
  6
Continuous
 62
     7
370
    15
100
AcDbLine
 10
720.53779725
 20
678.9610131467
 30
0.0
 11
720.2500409262
 21
679.4610067094
 31
0.0
  0
LINE
  5
47
330
1F
100
AcDbEntity
  8
0
  6
Continuous
 62
     7
370
    15
100
AcDbLine
 10
712.8255448119
 20
679.4610067094
 30
0.0
 11
712.5377959387
 21
678.9610131467
 31
0.0
  0
LINE
  5
48
330
1F
100
AcDbEntity
  8
0
  6
Continuous
 62
     7
370
    15
100
AcDbLine
 10
712.5377959387
 20
663.9610125507
 30
0.0
 11
712.8255448119
 21
663.4610040868
 31
0.0
  0
LINE
  5
49
330
1F
100
AcDbEntity
  8
0
  6
Continuous
 62
     7
370
    15
100
AcDbLine
 10
722.3377979175
 20
666.4610101665
 30
0.0
 11
722.8377914802
 21
666.9610037292
 31
0.0
  0
LINE
  5
4A
330
1F
100
AcDbEntity
  8
0
  6
Continuous
 62
     7
370
    15
100
AcDbLine
 10
722.8377914802
 20
675.9610219682
 30
0.0
 11
722.3377979175
 21
676.4610155309
 31
0.0
  0
LINE
  5
4B
330
1F
100
AcDbEntity
  8
0
  6
Continuous
 62
     7
370
    15
100
AcDbLine
 10
720.53779725
 20
666.4610101665
 30
0.0
 11
722.3377979175
 21
666.4610101665
 31
0.0
  0
LINE
  5
4C
330
1F
100
AcDbEntity
  8
0
  6
Continuous
 62
     7
370
    15
100
AcDbLine
 10
722.3377979175
 20
676.4610155309
 30
0.0
 11
720.53779725
 21
676.4610155309
 31
0.0
  0
LINE
  5
4D
330
1F
100
AcDbEntity
  8
0
  6
Continuous
 62
     7
370
    15
100
AcDbLine
 10
576.4853960649
 20
542.1389757479
 30
0.0
 11
576.3883019612
 21
542.4331172193
 31
0.0
  0
ARC
  5
4E
330
1F
100
AcDbEntity
  8
0
  6
Continuous
 62
     7
370
    15
100
AcDbCircle
 10
574.5433490805
 20
541.6610077585
 30
0.0
 40
2.000000000000041
100
AcDbArc
 50
35.5577069743
 51
90.0
  0
ARC
  5
4F
330
1F
100
AcDbEntity
  8
0
  6
Continuous
 62
     7
370
    15
100
AcDbCircle
 10
563.5322420816
 20
541.6610077585
 30
0.0
 40
2.0
100
AcDbArc
 50
90.0
 51
165.9370840711
  0
LINE
  5
50
330
1F
100
AcDbEntity
  8
0
  6
Continuous
 62
     7
370
    15
100
AcDbLine
 10
575.5377958344
 20
538.3610098446
 30
0.0
 11
575.5377958344
 21
538.7610091651
 31
0.0
  0
LINE
  5
51
330
1F
100
AcDbEntity
  8
0
  6
Continuous
 62
     7
370
    15
100
AcDbLine
 10
562.5377955661
 20
538.7610091651
 30
0.0
 11
562.5377955661
 21
538.3610098446
 31
0.0
  0
ARC
  5
52
330
1F
100
AcDbEntity
  8
0
  6
Continuous
 62
     7
370
    15
100
AcDbCircle
 10
618.5433490805
 20
541.6610077585
 30
0.0
 40
2.00000000000004
100
AcDbArc
 50
34.3297726759
 51
90.0
  0
ARC
  5
53
330
1F
100
AcDbEntity
  8
0
  6
Continuous
 62
     7
370
    15
100
AcDbCircle
 10
607.5322420816
 20
541.6610077585
 30
0.0
 40
2.000000000000018
100
AcDbArc
 50
90.0
 51
145.5529438572
  0
ARC
  5
54
330
1F
100
AcDbEntity
  8
0
  6
Continuous
 62
     7
370
    15
100
AcDbCircle
 10
607.5322420816
 20
541.6610077585
 30
0.0
 40
2.000000000000018
100
AcDbArc
 50
160.5218639187
 51
184.1666471768
  0
LINE
  5
55
330
1F
100
AcDbEntity
  8
0
  6
Continuous
 62
     7
370
    15
100
AcDbLine
 10
619.5377955959
 20
538.3610098446
 30
0.0
 11
619.5377955959
 21
538.7610091651
 31
0.0
  0
LINE
  5
56
330
1F
100
AcDbEntity
  8
0
  6
Continuous
 62
     7
370
    15
100
AcDbLine
 10
606.5377953277
 20
538.7610091651
 30
0.0
 11
606.5377953277
 21
538.3610098446
 31
0.0
  0
LWPOLYLINE
  5
57
330
1F
100
AcDbEntity
  8
0
  6
Continuous
 62
     7
370
    15
100
AcDbPolyline
 90
        3
 70
   128
 43
0.0
 10
561.5921827779
 20
542.1469851221
 10
561.5498299525
 20
541.9256656254
 10
561.532242857
 20
541.6610061015
  0
LINE
  5
58
330
1F
100
AcDbEntity
  8
0
  6
Continuous
 62
     7
370
    15
100
AcDbLine
 10
611.037795134
 20
552.8110011304
 30
0.0
 11
611.037795134
 21
608.3610101427
 31
0.0
  0
LINE
  5
59
330
1F
100
AcDbEntity
  8
0
  6
Continuous
 62
     7
370
    15
100
AcDbLine
 10
571.0377960281
 20
608.3610101427
 30
0.0
 11
571.0377960281
 21
552.8110011304
 31
0.0
  0
LINE
  5
5A
330
1F
100
AcDbEntity
  8
0
  6
Continuous
 62
     7
370
    15
100
AcDbLine
 10
571.6377950088
 20
304.9110068763
 30
0.0
 11
575.6377956645
 21
300.9110062207
 31
0.0
  0
LINE
  5
5B
330
1F
100
AcDbEntity
  8
0
  6
Continuous
 62
     7
370
    15
100
AcDbLine
 10
606.4377954976
 20
300.9110062207
 30
0.0
 11
610.4377961532
 21
304.9110068763
 31
0.0
  0
LINE
  5
5C
330
1F
100
AcDbEntity
  8
0
  6
Continuous
 62
     7
370
    15
100
AcDbLine
 10
610.4377961532
 20
304.9110068763
 30
0.0
 11
610.4377961532
 21
308.4110065187
 31
0.0
  0
LINE
  5
5D
330
1F
100
AcDbEntity
  8
0
  6
Continuous
 62
     7
370
    15
100
AcDbLine
 10
571.6377950088
 20
308.4110065187
 30
0.0
 11
571.6377950088
 21
304.9110068763
 31
0.0
  0
LINE
  5
5E
330
1F
100
AcDbEntity
  8
0
  6
Continuous
 62
     7
370
    15
100
AcDbLine
 10
606.9377965109
 20
308.4110065187
 30
0.0
 11
604.9377952517
 21
310.4110105718
 31
0.0
  0
LINE
  5
5F
330
1F
100
AcDbEntity
  8
0
  6
Continuous
 62
     7
370
    15
100
AcDbLine
 10
577.1377959104
 20
310.4110105718
 30
0.0
 11
575.1377946512
 21
308.4110065187
 31
0.0
  0
LINE
  5
60
330
1F
100
AcDbEntity
  8
0
  6
Continuous
 62
     7
370
    15
100
AcDbLine
 10
578.5377953948
 20
497.3120062436
 30
0.0
 11
578.5377953948
 21
496.7552467073
 31
0.0
  0
LINE
  5
61
330
1F
100
AcDbEntity
  8
0
  6
Continuous
 62
     7
370
    15
100
AcDbLine
 10
603.5377957673
 20
496.7552467073
 30
0.0
 11
603.5377957673
 21
497.3120062436
 31
0.0
  0
LINE
  5
62
330
1F
100
AcDbEntity
  8
0
  6
Continuous
 62
     7
370
    15
100
AcDbLine
 10
603.5377957673
 20
349.4100092734
 30
0.0
 11
603.5377957673
 21
349.9667688097
 31
0.0
  0
LINE
  5
63
330
1F
100
AcDbEntity
  8
0
  6
Continuous
 62
     7
370
    15
100
AcDbLine
 10
578.5377953948
 20
349.9667688097
 30
0.0
 11
578.5377953948
 21
349.4100092734
 31
0.0
  0
LINE
  5
64
330
1F
100
AcDbEntity
  8
0
  6
Continuous
 62
     7
370
    15
100
AcDbLine
 10
599.037795961
 20
497.811008879
 30
0.0
 11
599.037795961
 21
497.933123895
 31
0.0
  0
LINE
  5
65
330
1F
100
AcDbEntity
  8
0
  6
Continuous
 62
     7
370
    15
100
AcDbLine
 10
599.037795961
 20
538.3610098446
 30
0.0
 11
599.037795961
 21
552.8110011304
 31
0.0
  0
LINE
  5
66
330
1F
100
AcDbEntity
  8
0
  6
Continuous
 62
     7
370
    15
100
AcDbLine
 10
583.0377952011
 20
552.8110011304
 30
0.0
 11
583.0377952011
 21
538.3610098446
 31
0.0
  0
LINE
  5
67
330
1F
100
AcDbEntity
  8
0
  6
Continuous
 62
     7
370
    15
100
AcDbLine
 10
583.0377952011
 20
497.933123895
 30
0.0
 11
583.0377952011
 21
497.811008879
 31
0.0
  0
LINE
  5
68
330
1F
100
AcDbEntity
  8
0
  6
Continuous
 62
     7
370
    15
100
AcDbLine
 10
583.0377952011
 20
348.9110066379
 30
0.0
 11
583.0377952011
 21
348.7888916219
 31
0.0
  0
LINE
  5
69
330
1F
100
AcDbEntity
  8
0
  6
Continuous
 62
     7
370
    15
100
AcDbLine
 10
583.0377952011
 20
313.3610083545
 30
0.0
 11
583.0377952011
 21
310.4110105718
 31
0.0
  0
LINE
  5
6A
330
1F
100
AcDbEntity
  8
0
  6
Continuous
 62
     7
370
    15
100
AcDbLine
 10
599.037795961
 20
310.4110105718
 30
0.0
 11
599.037795961
 21
313.3610083545
 31
0.0
  0
LINE
  5
6B
330
1F
100
AcDbEntity
  8
0
  6
Continuous
 62
     7
370
    15
100
AcDbLine
 10
599.037795961
 20
348.7888916219
 30
0.0
 11
599.037795961
 21
348.9110066379
 31
0.0
  0
SPLINE
  5
6C
330
1F
100
AcDbEntity
  8
0
  6
Continuous
 62
     7
370
    15
100
AcDbSpline
210
0.0
220
0.0
230
1.0
 70
     8
 71
     3
 72
    19
 73
    15
 74
     0
 42
0.00000001
 43
0.00000001
 40
0.0
 40
0.0
 40
0.0
 40
0.0
 40
0.0172341606437434
 40
0.0470442217889927
 40
0.089657892756972
 40
0.1563148447168753
 40
0.2853319285204178
 40
0.5000761159749267
 40
0.7435218697852074
 40
0.8659880294855966
 40
0.9101181299405461
 40
0.9545663387807796
 40
0.9863565155821109
 40
1.0
 40
1.0
 40
1.0
 40
1.0
 10
617.2828419880263
 20
603.9610101665035
 30
0.0
 10
617.2847717203309
 20
603.89569238762
 30
0.0
 10
617.290039325549
 20
603.7173939407105
 30
0.0
 10
617.3530058454595
 20
603.3943495985859
 30
0.0
 10
617.5226264464942
 20
602.981239661437
 30
0.0
 10
617.9134794918787
 20
602.5015769737574
 30
0.0
 10
618.6775633933146
 20
602.129207825545
 30
0.0
 10
619.7895083864399
 20
602.0511839263779
 30
0.0
 10
620.8912571104161
 20
602.1297494511625
 30
0.0
 10
621.6487459808119
 20
602.585873448782
 30
0.0
 10
621.97768529341
 20
603.0498969869338
 30
0.0
 10
622.1241510183743
 20
603.4092432534893
 30
0.0
 10
622.1829530705843
 20
603.7372428942657
 30
0.0
 10
622.1870197277907
 20
603.9093325632767
 30
0.0
 10
622.1882409231059
 20
603.9610101665036
 30
0.0
  0
SPLINE
  5
6D
330
1F
100
AcDbEntity
  8
0
  6
Continuous
 62
     7
370
    15
100
AcDbSpline
210
0.0
220
0.0
230
1.0
 70
     8
 71
     3
 72
    19
 73
    15
 74
     0
 42
0.00000001
 43
0.00000001
 40
0.0
 40
0.0
 40
0.0
 40
0.0
 40
0.0311203454153338
 40
0.0621217654269887
 40
0.1119868454004578
 40
0.196088453736735
 40
0.4345867269843367
 40
0.5975161466553891
 40
0.755945320533327
 40
0.8510480417337121
 40
0.909278810367233
 40
0.9508548375308271
 40
0.9834139865120795
 40
1.0
 40
1.0
 40
1.0
 40
1.0
 10
622.1882409231059
 20
603.9610101665036
 30
0.0
 10
622.2007791456552
 20
603.8427058171125
 30
0.0
 10
622.225807676338
 20
603.6065492146138
 30
0.0
 10
622.4411691781277
 20
603.2302617848671
 30
0.0
 10
622.9032050208348
 20
602.7975867706031
 30
0.0
 10
624.2111841185907
 20
602.2115176842113
 30
0.0
 10
626.0756686766451
 20
602.0735006425575
 30
0.0
 10
628.1883933844715
 20
602.0802192287119
 30
0.0
 10
629.7658972418399
 20
602.234800216514
 30
0.0
 10
630.9017441001957
 20
602.5925866698893
 30
0.0
 10
631.5311734266812
 20
602.9963653183904
 30
0.0
 10
631.8580040177884
 20
603.3850538718209
 30
0.0
 10
631.9889564420798
 20
603.7119184313755
 30
0.0
 10
631.9996030805049
 20
603.8981565994038
 30
0.0
 10
632.0031962172382
 20
603.9610101665036
 30
0.0
  0
SPLINE
  5
6E
330
1F
100
AcDbEntity
  8
0
  6
Continuous
 62
     7
370
    15
100
AcDbSpline
210
0.0
220
0.0
230
1.0
 70
     8
 71
     3
 72
    19
 73
    15
 74
     0
 42
0.00000001
 43
0.00000001
 40
0.0
 40
0.0
 40
0.0
 40
0.0
 40
0.0311203498119377
 40
0.0621217417929019
 40
0.1119869387295435
 40
0.1960883653949068
 40
0.4345867054402103
 40
0.5975160329635107
 40
0.755945272799893
 40
0.8510479707066574
 40
0.9092789267490446
 40
0.9508548970986792
 40
0.9834140155980813
 40
1.0
 40
1.0
 40
1.0
 40
1.0
 10
632.0031962172382
 20
603.9610101665036
 30
0.0
 10
632.009468178305
 20
603.8427058614647
 30
0.0
 10
632.0219881258085
 20
603.6065494707095
 30
0.0
 10
632.1297114085208
 20
603.2302609585597
 30
0.0
 10
632.3608306724872
 20
602.7975883182257
 30
0.0
 10
633.0150956963712
 20
602.2115155517445
 30
0.0
 10
633.9477309192399
 20
602.0735010710639
 30
0.0
 10
635.0045417027125
 20
602.0802193862609
 30
0.0
 10
635.793625173652
 20
602.2347995370562
 30
0.0
 10
636.3617938651769
 20
602.5925879081728
 30
0.0
 10
636.6766405642458
 20
602.9963641548491
 30
0.0
 10
636.8401222584432
 20
603.3850540688271
 30
0.0
 10
636.9056289848967
 20
603.7119182857573
 30
0.0
 10
636.9109522887802
 20
603.8981565881102
 30
0.0
 10
636.9127488510005
 20
603.9610101665036
 30
0.0
  0
LINE
  5
6F
330
1F
100
AcDbEntity
  8
0
  6
Continuous
 62
     7
370
    15
100
AcDbLine
 10
619.2828404532
 20
601.9610061134
 30
0.0
 11
634.9127485232
 21
601.9610061134
 31
0.0
  0
LINE
  5
70
330
1F
100
AcDbEntity
  8
0
  6
Continuous
 62
     7
370
    15
100
AcDbLine
 10
627.0957185702
 20
607.9610033716
 30
0.0
 11
632.0031962172
 21
607.9610033716
 31
0.0
  0
LINE
  5
71
330
1F
100
AcDbEntity
  8
0
  6
Continuous
 62
     7
370
    15
100
AcDbLine
 10
632.0031962172
 20
603.9610101665
 30
0.0
 11
632.0031962172
 21
607.9610033716
 31
0.0
  0
LINE
  5
72
330
1F
100
AcDbEntity
  8
0
  6
Continuous
 62
     7
370
    15
100
AcDbLine
 10
622.1882409231
 20
603.9610101665
 30
0.0
 11
622.1882409231
 21
607.9610033716
 31
0.0
  0
LINE
  5
73
330
1F
100
AcDbEntity
  8
0
  6
Continuous
 62
     7
370
    15
100
AcDbLine
 10
622.1882409231
 20
607.9610033716
 30
0.0
 11
627.0957185702
 21
607.9610033716
 31
0.0
  0
LINE
  5
74
330
1F
100
AcDbEntity
  8
0
  6
Continuous
 62
     7
370
    15
100
AcDbLine
 10
634.4579725341
 20
607.9610033716
 30
0.0
 11
636.912748851
 21
607.9610033716
 31
0.0
  0
LINE
  5
75
330
1F
100
AcDbEntity
  8
0
  6
Continuous
 62
     7
370
    15
100
AcDbLine
 10
636.912748851
 20
603.9610101665
 30
0.0
 11
636.912748851
 21
607.9610033716
 31
0.0
  0
LINE
  5
76
330
1F
100
AcDbEntity
  8
0
  6
Continuous
 62
     7
370
    15
100
AcDbLine
 10
632.0031962172
 20
607.9610033716
 30
0.0
 11
634.4579725341
 21
607.9610033716
 31
0.0
  0
LINE
  5
77
330
1F
100
AcDbEntity
  8
0
  6
Continuous
 62
     7
370
    15
100
AcDbLine
 10
617.282841988
 20
603.9610101665
 30
0.0
 11
617.282841988
 21
607.9610033716
 31
0.0
  0
LINE
  5
78
330
1F
100
AcDbEntity
  8
0
  6
Continuous
 62
     7
370
    15
100
AcDbLine
 10
617.282841988
 20
607.9610033716
 30
0.0
 11
619.7355414556
 21
607.9610033716
 31
0.0
  0
LINE
  5
79
330
1F
100
AcDbEntity
  8
0
  6
Continuous
 62
     7
370
    15
100
AcDbLine
 10
619.7355414556
 20
607.9610033716
 30
0.0
 11
622.1882409231
 21
607.9610033716
 31
0.0
  0
LINE
  5
7A
330
1F
100
AcDbEntity
  8
0
  6
Continuous
 62
     7
370
    15
100
AcDbLine
 10
555.1206289605
 20
607.9610033716
 30
0.0
 11
560.027411841
 21
607.9610033716
 31
0.0
  0
LINE
  5
7B
330
1F
100
AcDbEntity
  8
0
  6
Continuous
 62
     7
370
    15
100
AcDbLine
 10
560.027411841
 20
603.9610101665
 30
0.0
 11
560.027411841
 21
607.9610033716
 31
0.0
  0
SPLINE
  5
7C
330
1F
100
AcDbEntity
  8
0
  6
Continuous
 62
     7
370
    15
100
AcDbSpline
210
0.0
220
0.0
230
1.0
 70
     8
 71
     3
 72
    19
 73
    15
 74
     0
 42
0.00000001
 43
0.00000001
 40
0.0
 40
0.0
 40
0.0
 40
0.0
 40
0.0311203046599031
 40
0.0621217635896644
 40
0.1119869236057486
 40
0.1960883569166292
 40
0.4345864686375503
 40
0.5975159075963768
 40
0.7559452736195419
 40
0.8510478816961212
 40
0.9092788455709316
 40
0.9508548212898078
 40
0.9834140132670078
 40
1.0
 40
1.0
 40
1.0
 40
1.0
 10
550.2138442174785
 20
603.9610101665032
 30
0.0
 10
550.2263795547711
 20
603.8427057504355
 30
0.0
 10
550.2514023579968
 20
603.6065487125499
 30
0.0
 10
550.4667360248787
 20
603.2302617874471
 30
0.0
 10
550.9287065311265
 20
602.797587764718
 30
0.0
 10
552.236499120151
 20
602.2115164493999
 30
0.0
 10
554.1007201719564
 20
602.0735007271953
 30
0.0
 10
556.213146522565
 20
602.080219603866
 30
0.0
 10
557.7904292641842
 20
602.2347990141621
 30
0.0
 10
558.9261149036342
 20
602.5925882646936
 30
0.0
 10
559.5554586290518
 20
602.996363983054
 30
0.0
 10
559.8822403499689
 20
603.3850546574148
 30
0.0
 10
560.0131790693089
 20
603.71191791619
 30
0.0
 10
560.0238204766584
 20
603.8981565607422
 30
0.0
 10
560.0274118409745
 20
603.9610101665033
 30
0.0
  0
LINE
  5
7D
330
1F
100
AcDbEntity
  8
0
  6
Continuous
 62
     7
370
    15
100
AcDbLine
 10
550.2138442175
 20
603.9610101665
 30
0.0
 11
550.2138442175
 21
607.9610033716
 31
0.0
  0
LINE
  5
7E
330
1F
100
AcDbEntity
  8
0
  6
Continuous
 62
     7
370
    15
100
AcDbLine
 10
550.2138442175
 20
607.9610033716
 30
0.0
 11
555.1206289605
 21
607.9610033716
 31
0.0
  0
SPLINE
  5
7F
330
1F
100
AcDbEntity
  8
0
  6
Continuous
 62
     7
370
    15
100
AcDbSpline
210
0.0
220
0.0
230
1.0
 70
     8
 71
     3
 72
    10
 73
     6
 74
     0
 42
0.00000001
 43
0.00000001
 40
0.0
 40
0.0
 40
0.0
 40
0.0
 40
0.122412227082006
 40
0.7038229206426485
 40
0.9999999999999999
 40
0.9999999999999999
 40
0.9999999999999999
 40
0.9999999999999999
 10
545.2592863516204
 20
603.3665879453195
 30
0.0
 10
545.2511097765241
 20
603.3863817948535
 30
0.0
 10
545.2040976348269
 20
603.5001887675871
 30
0.0
 10
545.1722354640672
 20
603.7136596389907
 30
0.0
 10
545.1662486192187
 20
603.8985959983893
 30
0.0
 10
545.1642281190746
 20
603.9610101665032
 30
0.0
  0
SPLINE
  5
80
330
1F
100
AcDbEntity
  8
0
  6
Continuous
 62
     7
370
    15
100
AcDbSpline
210
0.0
220
0.0
230
1.0
 70
     8
 71
     3
 72
    19
 73
    15
 74
     0
 42
0.00000001
 43
0.00000001
 40
0.0
 40
0.0
 40
0.0
 40
0.0
 40
0.0172341544020295
 40
0.0470442621316699
 40
0.0896578272531909
 40
0.156314770345178
 40
0.2853322369251596
 40
0.5000764041879747
 40
0.7435219104936687
 40
0.8659880782128846
 40
0.9101181421446803
 40
0.954566319277707
 40
0.9863565179496051
 40
1.0
 40
1.0
 40
1.0
 40
1.0
 10
545.1642281190746
 20
603.9610101665032
 30
0.0
 10
545.1662136653385
 20
603.8956923549092
 30
0.0
 10
545.1716336329648
 20
603.717393601236
 30
0.0
 10
545.2364539626636
 20
603.3943506219488
 30
0.0
 10
545.4110623640335
 20
602.9812387376219
 30
0.0
 10
545.8134043753571
 20
602.5015765089943
 30
0.0
 10
546.5999554220168
 20
602.1292086225931
 30
0.0
 10
547.744589025699
 20
602.0511835310449
 30
0.0
 10
548.8787265892589
 20
602.1297499181521
 30
0.0
 10
549.6584895102843
 20
602.585873226834
 30
0.0
 10
549.9970985435705
 20
603.0498969419772
 30
0.0
 10
550.1478666543487
 20
603.4092436370371
 30
0.0
 10
550.2083990536362
 20
603.7372427517113
 30
0.0
 10
550.2125866927149
 20
603.9093325543113
 30
0.0
 10
550.2138442174785
 20
603.9610101665032
 30
0.0
  0
SPLINE
  5
81
330
1F
100
AcDbEntity
  8
0
  6
Continuous
 62
     7
370
    15
100
AcDbSpline
210
0.0
220
0.0
230
1.0
 70
     8
 71
     3
 72
    19
 73
    15
 74
     0
 42
0.00000001
 43
0.00000001
 40
0.0
 40
0.0
 40
0.0
 40
0.0
 40
0.0311203390358902
 40
0.0621216227754009
 40
0.1119867955366504
 40
0.1960885773133218
 40
0.4345866084077373
 40
0.5975161029215704
 40
0.7559451372838452
 40
0.8510480649452151
 40
0.9092788618194393
 40
0.9508548292657416
 40
0.983414006732963
 40
1.0
 40
1.0
 40
1.0
 40
1.0
 10
560.0274118409745
 20
603.9610101665033
 30
0.0
 10
560.0334979582935
 20
603.8427059576724
 30
0.0
 10
560.0456469096216
 20
603.6065501296376
 30
0.0
 10
560.1501767196212
 20
603.2302601636948
 30
0.0
 10
560.3744385971797
 20
602.7975873273043
 30
0.0
 10
561.0093024816405
 20
602.2115182851934
 30
0.0
 10
561.9142783883977
 20
602.073500560548
 30
0.0
 10
562.9397469789105
 20
602.0802190120934
 30
0.0
 10
563.7054317310235
 20
602.2348008720351
 30
0.0
 10
564.2567451751777
 20
602.5925864860687
 30
0.0
 10
564.562255379577
 20
602.9963647000262
 30
0.0
 10
564.7208925039482
 20
603.385054520881
 30
0.0
 10
564.7844549359963
 20
603.7119180620575
 30
0.0
 10
564.7896215494358
 20
603.8981565714091
 30
0.0
 10
564.7913652287118
 20
603.9610101665033
 30
0.0
  0
LINE
  5
82
330
1F
100
AcDbEntity
  8
0
  6
Continuous
 62
     7
370
    15
100
AcDbLine
 10
547.1628426389
 20
601.9610061134
 30
0.0
 11
562.7927507089
 21
601.9610061134
 31
0.0
  0
LINE
  5
83
330
1F
100
AcDbEntity
  8
0
  6
Continuous
 62
     7
370
    15
100
AcDbLine
 10
562.4093885348
 20
607.9610033716
 30
0.0
 11
564.7913652287
 21
607.9610033716
 31
0.0
  0
LINE
  5
84
330
1F
100
AcDbEntity
  8
0
  6
Continuous
 62
     7
370
    15
100
AcDbLine
 10
564.7913652287
 20
603.9610101665
 30
0.0
 11
564.7913652287
 21
607.9610033716
 31
0.0
  0
LINE
  5
85
330
1F
100
AcDbEntity
  8
0
  6
Continuous
 62
     7
370
    15
100
AcDbLine
 10
560.027411841
 20
607.9610033716
 30
0.0
 11
562.4093885348
 21
607.9610033716
 31
0.0
  0
LINE
  5
86
330
1F
100
AcDbEntity
  8
0
  6
Continuous
 62
     7
370
    15
100
AcDbLine
 10
545.1642281191
 20
603.9610101665
 30
0.0
 11
545.1642281191
 21
607.9610033716
 31
0.0
  0
LINE
  5
87
330
1F
100
AcDbEntity
  8
0
  6
Continuous
 62
     7
370
    15
100
AcDbLine
 10
545.1642281191
 20
607.9610033716
 30
0.0
 11
547.6890361683
 21
607.9610033716
 31
0.0
  0
LINE
  5
88
330
1F
100
AcDbEntity
  8
0
  6
Continuous
 62
     7
370
    15
100
AcDbLine
 10
547.6890361683
 20
607.9610033716
 30
0.0
 11
550.2138442175
 21
607.9610033716
 31
0.0
  0
LINE
  5
89
330
1F
100
AcDbEntity
  8
0
  6
Continuous
 62
     7
370
    15
100
AcDbLine
 10
564.7913652287
 20
607.9610033716
 30
0.0
 11
564.7926895694
 21
607.9610033716
 31
0.0
  0
LINE
  5
8A
330
1F
100
AcDbEntity
  8
0
  6
Continuous
 62
     7
370
    15
100
AcDbLine
 10
564.7926895694
 20
603.9610101665
 30
0.0
 11
564.7926895694
 21
607.9610033716
 31
0.0
  0
LINE
  5
8B
330
1F
100
AcDbEntity
  8
0
  6
Continuous
 62
     7
370
    15
100
AcDbLine
 10
545.1629019157
 20
603.9610101665
 30
0.0
 11
545.1629019157
 21
607.9610033716
 31
0.0
  0
LINE
  5
8C
330
1F
100
AcDbEntity
  8
0
  6
Continuous
 62
     7
370
    15
100
AcDbLine
 10
545.1629019157
 20
607.9610033716
 30
0.0
 11
545.1642281191
 21
607.9610033716
 31
0.0
  0
ARC
  5
8D
330
1F
100
AcDbEntity
  8
0
  6
Continuous
 62
     7
370
    15
100
AcDbCircle
 10
543.037795581
 20
545.3610077585
 30
0.0
 40
12.0
100
AcDbArc
 50
180.0
 51
270.0
  0
LINE
  5
8E
330
1F
100
AcDbEntity
  8
0
  6
Continuous
 62
     7
370
    15
100
AcDbLine
 10
531.0377969221
 20
601.3610108579
 30
0.0
 11
531.0377969221
 21
545.3610091294
 31
0.0
  0
LINE
  5
8F
330
1F
100
AcDbEntity
  8
0
  6
Continuous
 62
     7
370
    15
100
AcDbLine
 10
651.0377942399
 20
601.3610108579
 30
0.0
 11
651.0377942399
 21
545.3610091294
 31
0.0
  0
ARC
  5
90
330
1F
100
AcDbEntity
  8
0
  6
Continuous
 62
     7
370
    15
100
AcDbCircle
 10
639.037795581
 20
545.3610077585
 30
0.0
 40
12.0
100
AcDbArc
 50
270.0
 51
0.0
  0
LINE
  5
91
330
1F
100
AcDbEntity
  8
0
  6
Continuous
 62
     7
370
    15
100
AcDbLine
 10
639.0377959983
 20
533.3610071624
 30
0.0
 11
543.0377951638
 21
533.3610071624
 31
0.0
  0
LINE
  5
92
330
1F
100
AcDbEntity
  8
0
  6
Continuous
 62
     7
370
    15
100
AcDbLine
 10
639.0377959983
 20
538.3610098446
 30
0.0
 11
543.0377951638
 21
538.3610098446
 31
0.0
  0
ARC
  5
93
330
1F
100
AcDbEntity
  8
0
  6
Continuous
 62
     7
370
    15
100
AcDbCircle
 10
639.037795581
 20
545.3610077585
 30
0.0
 40
7.0
100
AcDbArc
 50
270.0
 51
0.0
  0
LINE
  5
94
330
1F
100
AcDbEntity
  8
0
  6
Continuous
 62
     7
370
    15
100
AcDbLine
 10
646.037795283
 20
601.3610108579
 30
0.0
 11
646.037795283
 21
545.3610091294
 31
0.0
  0
ARC
  5
95
330
1F
100
AcDbEntity
  8
0
  6
Continuous
 62
     7
370
    15
100
AcDbCircle
 10
639.037795581
 20
601.3610077585
 30
0.0
 40
7.0
100
AcDbArc
 50
0.0
 51
90.0
  0
LINE
  5
96
330
1F
100
AcDbEntity
  8
0
  6
Continuous
 62
     7
370
    15
100
AcDbLine
 10
543.0377951638
 20
608.3610101427
 30
0.0
 11
639.0377959983
 21
608.3610101427
 31
0.0
  0
ARC
  5
97
330
1F
100
AcDbEntity
  8
0
  6
Continuous
 62
     7
370
    15
100
AcDbCircle
 10
543.037795581
 20
601.3610077585
 30
0.0
 40
7.0
100
AcDbArc
 50
90.0
 51
180.0
  0
LINE
  5
98
330
1F
100
AcDbEntity
  8
0
  6
Continuous
 62
     7
370
    15
100
AcDbLine
 10
536.0377958791
 20
545.3610091294
 30
0.0
 11
536.0377958791
 21
601.3610108579
 31
0.0
  0
ARC
  5
99
330
1F
100
AcDbEntity
  8
0
  6
Continuous
 62
     7
370
    15
100
AcDbCircle
 10
543.037795581
 20
545.3610077585
 30
0.0
 40
7.0
100
AcDbArc
 50
180.0
 51
270.0
  0
ARC
  5
9A
330
1F
100
AcDbEntity
  8
0
  6
Continuous
 62
     7
370
    15
100
AcDbCircle
 10
639.037795581
 20
601.3610077585
 30
0.0
 40
12.0
100
AcDbArc
 50
0.0
 51
90.0
  0
ARC
  5
9B
330
1F
100
AcDbEntity
  8
0
  6
Continuous
 62
     7
370
    15
100
AcDbCircle
 10
543.037795581
 20
601.3610077585
 30
0.0
 40
12.0
100
AcDbArc
 50
90.0
 51
180.0
  0
LINE
  5
9C
330
1F
100
AcDbEntity
  8
0
  6
Continuous
 62
     7
370
    15
100
AcDbLine
 10
639.0377959983
 20
613.3610053743
 30
0.0
 11
543.0377951638
 21
613.3610053743
 31
0.0
  0
LINE
  5
9D
330
1F
100
AcDbEntity
  8
0
  6
Continuous
 62
     7
370
    15
100
AcDbLine
 10
535.5377948658
 20
631.1214162792
 30
0.0
 11
703.5377926008
 21
631.1214162792
 31
0.0
  0
LINE
  5
9E
330
1F
100
AcDbEntity
  8
0
  6
Continuous
 62
     7
370
    15
100
AcDbLine
 10
703.5377926008
 20
634.1100080694
 30
0.0
 11
535.5377948658
 21
634.1100080694
 31
0.0
  0
LINE
  5
9F
330
1F
100
AcDbEntity
  8
0
  6
Continuous
 62
     7
370
    15
100
AcDbLine
 10
703.5377926008
 20
634.1100080694
 30
0.0
 11
703.5377926008
 21
631.1214162792
 31
0.0
  0
LINE
  5
A0
330
1F
100
AcDbEntity
  8
0
  6
Continuous
 62
     7
370
    15
100
AcDbLine
 10
535.5377948658
 20
634.1100080694
 30
0.0
 11
535.5377948658
 21
631.1214162792
 31
0.0
  0
CIRCLE
  5
A1
330
1F
100
AcDbEntity
  8
0
  6
Continuous
 62
     7
370
    15
100
AcDbCircle
 10
603.037795581
 20
670.0610077585
 30
0.0
 40
2.0
  0
CIRCLE
  5
A2
330
1F
100
AcDbEntity
  8
0
  6
Continuous
 62
     7
370
    15
100
AcDbCircle
 10
603.037795581
 20
638.0610077585
 30
0.0
 40
2.0
  0
CIRCLE
  5
A3
330
1F
100
AcDbEntity
  8
0
  6
Continuous
 62
     7
370
    15
100
AcDbCircle
 10
615.037795581
 20
655.7610077585
 30
0.0
 40
4.299999999999955
  0
LINE
  5
A4
330
1F
100
AcDbEntity
  8
0
  6
Continuous
 62
     7
370
    15
100
AcDbLine
 10
535.5377948658
 20
674.4120164598
 30
0.0
 11
703.5377926008
 21
674.4120164598
 31
0.0
  0
LINE
  5
A5
330
1F
100
AcDbEntity
  8
0
  6
Continuous
 62
     7
370
    15
100
AcDbLine
 10
703.5377926008
 20
674.4120164598
 30
0.0
 11
703.5377926008
 21
634.1100080694
 31
0.0
  0
CIRCLE
  5
A6
330
1F
100
AcDbEntity
  8
0
  6
Continuous
 62
     7
370
    15
100
AcDbCircle
 10
591.037795581
 20
652.3610077585
 30
0.0
 40
4.299999999999955
  0
CIRCLE
  5
A7
330
1F
100
AcDbEntity
  8
0
  6
Continuous
 62
     7
370
    15
100
AcDbCircle
 10
615.037795581
 20
638.0610077585
 30
0.0
 40
2.0
  0
CIRCLE
  5
A8
330
1F
100
AcDbEntity
  8
0
  6
Continuous
 62
     7
370
    15
100
AcDbCircle
 10
591.037795581
 20
670.0610077585
 30
0.0
 40
2.0
  0
LINE
  5
A9
330
1F
100
AcDbEntity
  8
0
  6
Continuous
 62
     7
370
    15
100
AcDbLine
 10
535.5377948658
 20
674.4120164598
 30
0.0
 11
535.5377948658
 21
634.1100080694
 31
0.0
  0
LINE
  5
AA
330
1F
100
AcDbEntity
  8
0
  6
Continuous
 62
     7
370
    15
100
AcDbLine
 10
703.5377926008
 20
677.4005933488
 30
0.0
 11
535.5377948658
 21
677.4005933488
 31
0.0
  0
LINE
  5
AB
330
1F
100
AcDbEntity
  8
0
  6
Continuous
 62
     7
370
    15
100
AcDbLine
 10
703.5377926008
 20
677.4005933488
 30
0.0
 11
703.5377926008
 21
674.4120164598
 31
0.0
  0
LINE
  5
AC
330
1F
100
AcDbEntity
  8
0
  6
Continuous
 62
     7
370
    15
100
AcDbLine
 10
535.5377948658
 20
677.4005933488
 30
0.0
 11
535.5377948658
 21
674.4120164598
 31
0.0
  0
LINE
  5
AD
330
1F
100
AcDbEntity
  8
0
  6
Continuous
 62
     7
370
    15
100
AcDbLine
 10
535.5377948658
 20
630.9006257738
 30
0.0
 11
703.5377926008
 21
630.9006257738
 31
0.0
  0
LINE
  5
AE
330
1F
100
AcDbEntity
  8
0
  6
Continuous
 62
     7
370
    15
100
AcDbLine
 10
703.5377926008
 20
631.1214162792
 30
0.0
 11
703.5377926008
 21
630.9006257738
 31
0.0
  0
LINE
  5
AF
330
1F
100
AcDbEntity
  8
0
  6
Continuous
 62
     7
370
    15
100
AcDbLine
 10
535.5377948658
 20
631.1214162792
 30
0.0
 11
535.5377948658
 21
630.9006257738
 31
0.0
  0
LINE
  5
B0
330
1F
100
AcDbEntity
  8
0
  6
Continuous
 62
     7
370
    15
100
AcDbLine
 10
703.5377926008
 20
677.5090738023
 30
0.0
 11
535.5377948658
 21
677.5090738023
 31
0.0
  0
LINE
  5
B1
330
1F
100
AcDbEntity
  8
0
  6
Continuous
 62
     7
370
    15
100
AcDbLine
 10
703.5377926008
 20
677.4005933488
 30
0.0
 11
703.5377926008
 21
677.5090738023
 31
0.0
  0
LINE
  5
B2
330
1F
100
AcDbEntity
  8
0
  6
Continuous
 62
     7
370
    15
100
AcDbLine
 10
535.5377948658
 20
677.5090738023
 30
0.0
 11
535.5377948658
 21
677.4005933488
 31
0.0
  0
LINE
  5
B3
330
1F
100
AcDbEntity
  8
0
  6
Continuous
 62
     7
370
    15
100
AcDbLine
 10
535.5377948658
 20
681.3074989999
 30
0.0
 11
703.5377926008
 21
681.3074989999
 31
0.0
  0
LINE
  5
B4
330
1F
100
AcDbEntity
  8
0
  6
Continuous
 62
     7
370
    15
100
AcDbLine
 10
703.5377926008
 20
681.3074989999
 30
0.0
 11
703.5377926008
 21
677.5090738023
 31
0.0
  0
LINE
  5
B5
330
1F
100
AcDbEntity
  8
0
  6
Continuous
 62
     7
370
    15
100
AcDbLine
 10
535.5377948658
 20
681.3074989999
 30
0.0
 11
535.5377948658
 21
677.5090738023
 31
0.0
  0
LINE
  5
B6
330
1F
100
AcDbEntity
  8
0
  6
Continuous
 62
     7
370
    15
100
AcDbLine
 10
535.5377948658
 20
626.3766183342
 30
0.0
 11
703.5377926008
 21
626.3766183342
 31
0.0
  0
LINE
  5
B7
330
1F
100
AcDbEntity
  8
0
  6
Continuous
 62
     7
370
    15
100
AcDbLine
 10
703.5377926008
 20
630.9006257738
 30
0.0
 11
703.5377926008
 21
626.3766183342
 31
0.0
  0
LINE
  5
B8
330
1F
100
AcDbEntity
  8
0
  6
Continuous
 62
     7
370
    15
100
AcDbLine
 10
535.5377948658
 20
630.9006257738
 30
0.0
 11
535.5377948658
 21
626.3766183342
 31
0.0
  0
SPLINE
  5
B9
330
1F
100
AcDbEntity
  8
0
  6
Continuous
 62
     7
370
    15
100
AcDbSpline
210
0.0
220
0.0
230
1.0
 70
    24
 71
     3
 72
    12
 73
     8
 74
     0
 42
0.00000001
 43
0.00000001
 40
0.0
 40
0.0
 40
0.0
 40
0.0
 40
0.248613453565826
 40
0.4998768742409178
 40
0.6674293350063903
 40
0.8341993394279126
 40
1.0
 40
1.0
 40
1.0
 40
1.0
 10
526.5377989785064
 20
695.9735794747841
 30
0.0
 10
526.5377989785064
 20
693.1737696460215
 30
0.0
 10
526.5377989785064
 20
687.544306857113
 30
0.0
 10
526.5377989785064
 20
679.4552430245512
 30
0.0
 10
526.5377989785065
 20
672.2225522187848
 30
0.0
 10
526.5377989785065
 20
665.9704384130689
 30
0.0
 10
526.5377989785065
 20
661.8206225403474
 30
0.0
 10
526.5377989785065
 20
659.7517623389732
 30
0.0
  0
LWPOLYLINE
  5
BA
330
1F
100
AcDbEntity
  8
0
  6
Continuous
 62
     7
370
    15
100
AcDbPolyline
 90
        9
 70
   128
 43
0.0
 10
526.5377989785
 20
695.9735794748
 10
526.5762216226
 20
696.1581750597
 10
526.6900366918
 20
696.3356478895
 10
526.8748557941
 20
696.4992328371
 10
527.1235785262
 20
696.6426118101
 10
527.4266532437
 20
696.7602713789
 10
527.7724272386
 20
696.8476815904
 10
528.1476161258
 20
696.901534387
 10
528.537795581
 20
696.9197138036
  0
LINE
  5
BB
330
1F
100
AcDbEntity
  8
0
  6
Continuous
 62
     7
370
    15
100
AcDbLine
 10
528.537795581
 20
696.9197138036
 30
0.0
 11
528.537795581
 21
659.574736544
 31
0.0
  0
ARC
  5
BC
330
1F
100
AcDbEntity
  8
0
  6
Continuous
 62
     7
370
    15
100
AcDbCircle
 10
528.0416731254
 20
665.3559225317
 30
0.0
 40
5.802434740311404
100
AcDbArc
 50
254.9785972716
 51
274.9049190088
  0
SPLINE
  5
BD
330
1F
100
AcDbEntity
  8
0
  6
Continuous
 62
     7
370
    15
100
AcDbSpline
210
0.0
220
0.0
230
1.0
 70
    24
 71
     1
 72
     4
 73
     2
 74
     0
 42
0.00000001
 43
0.00000001
 40
0.0
 40
0.0
 40
1.0
 40
1.0
 10
712.5377959386697
 20
659.7517623389739
 30
0.0
 10
712.5377959386697
 20
665.4610081399459
 30
0.0
  0
ARC
  5
BE
330
1F
100
AcDbEntity
  8
0
  6
Continuous
 62
     7
370
    15
100
AcDbCircle
 10
711.0339137732
 20
665.3559922427
 30
0.0
 40
5.802504147468759
100
AcDbArc
 50
265.0951454342
 51
285.0213007941
  0
LINE
  5
BF
330
1F
100
AcDbEntity
  8
0
  6
Continuous
 62
     7
370
    15
100
AcDbLine
 10
710.5377918856
 20
659.574736544
 30
0.0
 11
710.5377918856
 21
696.9197138036
 31
0.0
  0
LWPOLYLINE
  5
C0
330
1F
100
AcDbEntity
  8
0
  6
Continuous
 62
     7
370
    15
100
AcDbPolyline
 90
        9
 70
   128
 43
0.0
 10
710.5377918856
 20
696.9197138036
 10
710.9279787914
 20
696.901534387
 10
711.303160228
 20
696.8476815904
 10
711.6489342229
 20
696.7602713789
 10
711.9520089404
 20
696.6426118101
 10
712.2007316725
 20
696.4992328371
 10
712.3855582253
 20
696.3356478895
 10
712.499365844
 20
696.1581750597
 10
712.5377959387
 20
695.9735794748
  0
SPLINE
  5
C1
330
1F
100
AcDbEntity
  8
0
  6
Continuous
 62
     7
370
    15
100
AcDbSpline
210
0.0
220
0.0
230
1.0
 70
    24
 71
     3
 72
    11
 73
     7
 74
     0
 42
0.00000001
 43
0.00000001
 40
0.0
 40
0.0
 40
0.0
 40
0.0
 40
0.2490490463418547
 40
0.5000002716651235
 40
0.7509511890315117
 40
1.0
 40
1.0
 40
1.0
 40
1.0
 10
712.5377959386697
 20
665.4610081399459
 30
0.0
 10
712.5377959386697
 20
668.0999759177704
 30
0.0
 10
712.5377959386695
 20
673.3980672986
 30
0.0
 10
712.5377959386695
 20
681.2269719119489
 30
0.0
 10
712.5377959386695
 20
688.8487839498343
 30
0.0
 10
712.5377959386695
 20
693.6046784479798
 30
0.0
 10
712.5377959386695
 20
695.9735794747847
 30
0.0
  0
LINE
  5
C2
330
1F
100
AcDbEntity
  8
0
  6
Continuous
 62
     7
370
    15
100
AcDbLine
 10
528.537795581
 20
659.574736544
 30
0.0
 11
535.5377948658
 21
659.574736544
 31
0.0
  0
LINE
  5
C3
330
1F
100
AcDbEntity
  8
0
  6
Continuous
 62
     7
370
    15
100
AcDbLine
 10
528.537795581
 20
696.9197138036
 30
0.0
 11
535.5377948658
 21
696.9197138036
 31
0.0
  0
LINE
  5
C4
330
1F
100
AcDbEntity
  8
0
  6
Continuous
 62
     7
370
    15
100
AcDbLine
 10
703.5377926008
 20
659.574736544
 30
0.0
 11
710.5377918856
 21
659.574736544
 31
0.0
  0
LINE
  5
C5
330
1F
100
AcDbEntity
  8
0
  6
Continuous
 62
     7
370
    15
100
AcDbLine
 10
710.5377918856
 20
696.9197138036
 30
0.0
 11
703.5377926008
 21
696.9197138036
 31
0.0
  0
LINE
  5
C6
330
1F
100
AcDbEntity
  8
0
  6
Continuous
 62
     7
370
    15
100
AcDbLine
 10
526.5377989785
 20
659.751762339
 30
0.0
 11
526.5377989785
 21
616.4724870409
 31
0.0
  0
LINE
  5
C7
330
1F
100
AcDbEntity
  8
0
  6
Continuous
 62
     7
370
    15
100
AcDbLine
 10
528.537795581
 20
659.574736544
 30
0.0
 11
528.537795581
 21
616.2954612459
 31
0.0
  0
ARC
  5
C8
330
1F
100
AcDbEntity
  8
0
  6
Continuous
 62
     7
370
    15
100
AcDbCircle
 10
528.0417074783
 20
622.0770353445
 30
0.0
 40
5.802818493076127
100
AcDbArc
 50
254.9792628784
 51
274.904253402
  0
LINE
  5
C9
330
1F
100
AcDbEntity
  8
0
  6
Continuous
 62
     7
370
    15
100
AcDbLine
 10
710.5377918856
 20
659.574736544
 30
0.0
 11
710.5377918856
 21
616.2954612459
 31
0.0
  0
LINE
  5
CA
330
1F
100
AcDbEntity
  8
0
  6
Continuous
 62
     7
370
    15
100
AcDbLine
 10
712.5377959387
 20
616.4724870409
 30
0.0
 11
712.5377959387
 21
659.751762339
 31
0.0
  0
ARC
  5
CB
330
1F
100
AcDbEntity
  8
0
  6
Continuous
 62
     7
370
    15
100
AcDbCircle
 10
711.0338794196
 20
622.0771050653
 30
0.0
 40
5.802887909997577
100
AcDbArc
 50
265.0958110443
 51
285.020635184
  0
LINE
  5
CC
330
1F
100
AcDbEntity
  8
0
  6
Continuous
 62
     7
370
    15
100
AcDbLine
 10
528.537795581
 20
616.2954612459
 30
0.0
 11
535.5377948658
 21
616.2954612459
 31
0.0
  0
LINE
  5
CD
330
1F
100
AcDbEntity
  8
0
  6
Continuous
 62
     7
370
    15
100
AcDbLine
 10
710.5377918856
 20
616.2954612459
 30
0.0
 11
703.5377926008
 21
616.2954612459
 31
0.0
  0
LINE
  5
CE
330
1F
100
AcDbEntity
  8
0
  6
Continuous
 62
     7
370
    15
100
AcDbLine
 10
703.5377926008
 20
697.1477909769
 30
0.0
 11
535.5377948658
 21
697.1477909769
 31
0.0
  0
LINE
  5
CF
330
1F
100
AcDbEntity
  8
0
  6
Continuous
 62
     7
370
    15
100
AcDbLine
 10
703.5377926008
 20
697.1477909769
 30
0.0
 11
703.5377926008
 21
681.3074989999
 31
0.0
  0
LINE
  5
D0
330
1F
100
AcDbEntity
  8
0
  6
Continuous
 62
     7
370
    15
100
AcDbLine
 10
535.5377948658
 20
697.1477909769
 30
0.0
 11
535.5377948658
 21
681.3074989999
 31
0.0
  0
LINE
  5
D1
330
1F
100
AcDbEntity
  8
0
  6
Continuous
 62
     7
370
    15
100
AcDbLine
 10
703.5377926008
 20
616.086830088
 30
0.0
 11
535.5377948658
 21
616.086830088
 31
0.0
  0
LINE
  5
D2
330
1F
100
AcDbEntity
  8
0
  6
Continuous
 62
     7
370
    15
100
AcDbLine
 10
703.5377926008
 20
626.3766183342
 30
0.0
 11
703.5377926008
 21
616.086830088
 31
0.0
  0
LINE
  5
D3
330
1F
100
AcDbEntity
  8
0
  6
Continuous
 62
     7
370
    15
100
AcDbLine
 10
535.5377948658
 20
626.3766183342
 30
0.0
 11
535.5377948658
 21
616.086830088
 31
0.0
  0
LINE
  5
D4
330
1F
100
AcDbEntity
  8
0
  6
Continuous
 62
     7
370
    15
100
AcDbLine
 10
535.5377948658
 20
613.3610053743
 30
0.0
 11
543.0377951638
 21
613.3610053743
 31
0.0
  0
LINE
  5
D5
330
1F
100
AcDbEntity
  8
0
  6
Continuous
 62
     7
370
    15
100
AcDbLine
 10
639.0377959983
 20
613.3610053743
 30
0.0
 11
703.5377926008
 21
613.3610053743
 31
0.0
  0
LINE
  5
D6
330
1F
100
AcDbEntity
  8
0
  6
Continuous
 62
     7
370
    15
100
AcDbLine
 10
703.5377926008
 20
613.3610053743
 30
0.0
 11
703.5377926008
 21
616.086830088
 31
0.0
  0
LINE
  5
D7
330
1F
100
AcDbEntity
  8
0
  6
Continuous
 62
     7
370
    15
100
AcDbLine
 10
535.5377948658
 20
616.086830088
 30
0.0
 11
535.5377948658
 21
613.3610053743
 31
0.0
  0
LINE
  5
D8
330
1F
100
AcDbEntity
  8
0
  6
Continuous
 62
     7
370
    15
100
AcDbLine
 10
710.5377918856
 20
613.5610087598
 30
0.0
 11
710.5377918856
 21
616.2954612459
 31
0.0
  0
ARC
  5
D9
330
1F
100
AcDbEntity
  8
0
  6
Continuous
 62
     7
370
    15
100
AcDbCircle
 10
710.537795581
 20
615.5610077585
 30
0.0
 40
2.0
100
AcDbArc
 50
270.0
 51
0.0
  0
LINE
  5
DA
330
1F
100
AcDbEntity
  8
0
  6
Continuous
 62
     7
370
    15
100
AcDbLine
 10
712.5377959387
 20
615.561012813
 30
0.0
 11
712.5377959387
 21
616.4724870409
 31
0.0
  0
LINE
  5
DB
330
1F
100
AcDbEntity
  8
0
  6
Continuous
 62
     7
370
    15
100
AcDbLine
 10
703.5377926008
 20
613.5610087598
 30
0.0
 11
710.5377918856
 21
613.5610087598
 31
0.0
  0
LINE
  5
DC
330
1F
100
AcDbEntity
  8
0
  6
Continuous
 62
     7
370
    15
100
AcDbLine
 10
528.537795581
 20
616.2954612459
 30
0.0
 11
528.537795581
 21
613.5610087598
 31
0.0
  0
ARC
  5
DD
330
1F
100
AcDbEntity
  8
0
  6
Continuous
 62
     7
370
    15
100
AcDbCircle
 10
528.537795581
 20
615.5610077585
 30
0.0
 40
2.0
100
AcDbArc
 50
180.0
 51
270.0
  0
LINE
  5
DE
330
1F
100
AcDbEntity
  8
0
  6
Continuous
 62
     7
370
    15
100
AcDbLine
 10
526.5377989785
 20
616.4724870409
 30
0.0
 11
526.5377989785
 21
615.5610128129
 31
0.0
  0
LINE
  5
DF
330
1F
100
AcDbEntity
  8
0
  6
Continuous
 62
     7
370
    15
100
AcDbLine
 10
528.537795581
 20
613.5610087598
 30
0.0
 11
535.5377948658
 21
613.5610087598
 31
0.0
  0
LINE
  5
E0
330
1F
100
AcDbEntity
  8
0
  6
Continuous
 62
     7
370
    15
100
AcDbLine
 10
535.5377948658
 20
720.7798107351
 30
0.0
 11
703.5377926008
 21
720.7798107351
 31
0.0
  0
LINE
  5
E1
330
1F
100
AcDbEntity
  8
0
  6
Continuous
 62
     7
370
    15
100
AcDbLine
 10
703.5377926008
 20
720.7798107351
 30
0.0
 11
703.5377926008
 21
697.1477909769
 31
0.0
  0
LINE
  5
E2
330
1F
100
AcDbEntity
  8
0
  6
Continuous
 62
     7
370
    15
100
AcDbLine
 10
535.5377948658
 20
720.7798107351
 30
0.0
 11
535.5377948658
 21
697.1477909769
 31
0.0
  0
LWPOLYLINE
  5
E3
330
1F
100
AcDbEntity
  8
0
  6
Continuous
 62
     7
370
    15
100
AcDbPolyline
 90
        9
 70
   128
 43
0.0
 10
526.5377989785
 20
719.2340834821
 10
526.5762216226
 20
719.4186492647
 10
526.6900366918
 20
719.5961518968
 10
526.8748557941
 20
719.7597070421
 10
527.1235785262
 20
719.9030860151
 10
527.4266532437
 20
720.0207455839
 10
527.7724272386
 20
720.1081855978
 10
528.1476161258
 20
720.162008592
 10
528.537795581
 20
720.1801880086
  0
LINE
  5
E4
330
1F
100
AcDbEntity
  8
0
  6
Continuous
 62
     7
370
    15
100
AcDbLine
 10
528.537795581
 20
720.1801880086
 30
0.0
 11
528.537795581
 21
696.9197138036
 31
0.0
  0
LINE
  5
E5
330
1F
100
AcDbEntity
  8
0
  6
Continuous
 62
     7
370
    15
100
AcDbLine
 10
526.5377989785
 20
719.2340834821
 30
0.0
 11
526.5377989785
 21
695.9735794748
 31
0.0
  0
LINE
  5
E6
330
1F
100
AcDbEntity
  8
0
  6
Continuous
 62
     7
370
    15
100
AcDbLine
 10
710.5377918856
 20
720.1801880086
 30
0.0
 11
710.5377918856
 21
696.9197138036
 31
0.0
  0
LWPOLYLINE
  5
E7
330
1F
100
AcDbEntity
  8
0
  6
Continuous
 62
     7
370
    15
100
AcDbPolyline
 90
        9
 70
   128
 43
0.0
 10
710.5377918856
 20
720.1801880086
 10
710.9279787914
 20
720.162008592
 10
711.303160228
 20
720.1081855978
 10
711.6489342229
 20
720.0207455839
 10
711.9520089404
 20
719.9030860151
 10
712.2007316725
 20
719.7597070421
 10
712.3855582253
 20
719.5961518968
 10
712.499365844
 20
719.4186492647
 10
712.5377959387
 20
719.2340834821
  0
LINE
  5
E8
330
1F
100
AcDbEntity
  8
0
  6
Continuous
 62
     7
370
    15
100
AcDbLine
 10
712.5377959387
 20
695.9735794748
 30
0.0
 11
712.5377959387
 21
719.2340834821
 31
0.0
  0
LINE
  5
E9
330
1F
100
AcDbEntity
  8
0
  6
Continuous
 62
     7
370
    15
100
AcDbLine
 10
528.537795581
 20
720.1801880086
 30
0.0
 11
535.5377948658
 21
720.1801880086
 31
0.0
  0
LINE
  5
EA
330
1F
100
AcDbEntity
  8
0
  6
Continuous
 62
     7
370
    15
100
AcDbLine
 10
703.5377926008
 20
720.1801880086
 30
0.0
 11
710.5377918856
 21
720.1801880086
 31
0.0
  0
LINE
  5
EB
330
1F
100
AcDbEntity
  8
0
  6
Continuous
 62
     7
370
    15
100
AcDbLine
 10
598.1932069921
 20
727.6610179628
 30
0.0
 11
598.1932069921
 21
726.1610074724
 31
0.0
  0
ARC
  5
EC
330
1F
100
AcDbEntity
  8
0
  6
Continuous
 62
     7
370
    15
100
AcDbCircle
 10
598.1932069557
 20
729.1610077585
 30
0.0
 40
1.50000000000005
100
AcDbArc
 50
270.0
 51
310.7961333222
  0
ELLIPSE
  5
ED
330
1F
100
AcDbEntity
  8
0
  6
Continuous
 62
     7
370
    15
100
AcDbEllipse
 10
598.1932069557
 20
729.1610077585
 30
0.0
 11
1.495964298572175
 21
-1.495964298572289
 31
0.0
210
0.0
220
0.0
230
1.0
 40
0.0735032601
 41
5.497787143782854
 42
6.209813992338326
  0
LINE
  5
EE
330
1F
100
AcDbEntity
  8
0
  6
Continuous
 62
     7
370
    15
100
AcDbLine
 10
599.6770855786
 20
726.1610074724
 30
0.0
 11
599.6770855786
 21
727.6610179628
 31
0.0
  0
LINE
  5
EF
330
1F
100
AcDbEntity
  8
0
  6
Continuous
 62
     7
370
    15
100
AcDbLine
 10
599.6770855786
 20
726.1610074724
 30
0.0
 11
598.1932069921
 21
726.1610074724
 31
0.0
  0
LINE
  5
F0
330
1F
100
AcDbEntity
  8
0
  6
Continuous
 62
     7
370
    15
100
AcDbLine
 10
583.88238417
 20
727.6610179628
 30
0.0
 11
598.1932069921
 21
727.6610179628
 31
0.0
  0
ARC
  5
F1
330
1F
100
AcDbEntity
  8
0
  6
Continuous
 62
     7
370
    15
100
AcDbCircle
 10
583.8823842064
 20
729.1610077585
 30
0.0
 40
1.5
100
AcDbArc
 50
229.2038666778
 51
270.0
  0
LINE
  5
F2
330
1F
100
AcDbEntity
  8
0
  6
Continuous
 62
     7
370
    15
100
AcDbLine
 10
582.902329676
 20
728.0254407609
 30
0.0
 11
585.0906667114
 21
730.5610223497
 31
0.0
  0
LINE
  5
F3
330
1F
100
AcDbEntity
  8
0
  6
Continuous
 62
     7
370
    15
100
AcDbLine
 10
585.0906667114
 20
730.5610223497
 30
0.0
 11
596.9849244506
 21
730.5610223497
 31
0.0
  0
LINE
  5
F4
330
1F
100
AcDbEntity
  8
0
  6
Continuous
 62
     7
370
    15
100
AcDbLine
 10
596.9849244506
 20
730.5610223497
 30
0.0
 11
599.1732614861
 21
728.0254407609
 31
0.0
  0
LINE
  5
F5
330
1F
100
AcDbEntity
  8
0
  6
Continuous
 62
     7
370
    15
100
AcDbLine
 10
583.88238417
 20
726.1610074724
 30
0.0
 11
583.88238417
 21
727.6610179628
 31
0.0
  0
LINE
  5
F6
330
1F
100
AcDbEntity
  8
0
  6
Continuous
 62
     7
370
    15
100
AcDbLine
 10
598.1932069921
 20
726.1610074724
 30
0.0
 11
583.88238417
 21
726.1610074724
 31
0.0
  0
LINE
  5
F7
330
1F
100
AcDbEntity
  8
0
  6
Continuous
 62
     7
370
    15
100
AcDbLine
 10
582.3985055835
 20
727.6610179628
 30
0.0
 11
582.3985055835
 21
726.1610074724
 31
0.0
  0
ELLIPSE
  5
F8
330
1F
100
AcDbEntity
  8
0
  6
Continuous
 62
     7
370
    15
100
AcDbEllipse
 10
583.8823842064
 20
729.1610077585
 30
0.0
 11
1.495964298572175
 21
1.495964298572289
 31
0.0
210
0.0
220
0.0
230
1.0
 40
0.0735032601
 41
3.214963968431395
 42
3.926990816986851
  0
LINE
  5
F9
330
1F
100
AcDbEntity
  8
0
  6
Continuous
 62
     7
370
    15
100
AcDbLine
 10
583.88238417
 20
726.1610074724
 30
0.0
 11
582.3985055835
 21
726.1610074724
 31
0.0
  0
LINE
  5
FA
330
1F
100
AcDbEntity
  8
0
  6
Continuous
 62
     7
370
    15
100
AcDbLine
 10
580.0377956406
 20
727.6610179628
 30
0.0
 11
582.3985055835
 21
727.6610179628
 31
0.0
  0
SPLINE
  5
FB
330
1F
100
AcDbEntity
  8
0
  6
Continuous
 62
     7
370
    15
100
AcDbSpline
210
0.0
220
0.0
230
1.0
 70
    24
 71
     1
 72
     4
 73
     2
 74
     0
 42
0.00000001
 43
0.00000001
 40
0.0
 40
0.0
 40
1.0
 40
1.0
 10
580.0377956406462
 20
727.6610179627909
 30
0.0
 10
582.7143720166075
 20
730.5610223496927
 30
0.0
  0
LINE
  5
FC
330
1F
100
AcDbEntity
  8
0
  6
Continuous
 62
     7
370
    15
100
AcDbLine
 10
585.0906667114
 20
730.5610223497
 30
0.0
 11
582.7143720166
 21
730.5610223497
 31
0.0
  0
LINE
  5
FD
330
1F
100
AcDbEntity
  8
0
  6
Continuous
 62
     7
370
    15
100
AcDbLine
 10
596.9849244506
 20
730.5610223497
 30
0.0
 11
599.3612191455
 21
730.5610223497
 31
0.0
  0
SPLINE
  5
FE
330
1F
100
AcDbEntity
  8
0
  6
Continuous
 62
     7
370
    15
100
AcDbSpline
210
0.0
220
0.0
230
1.0
 70
    24
 71
     1
 72
     4
 73
     2
 74
     0
 42
0.00000001
 43
0.00000001
 40
0.0
 40
0.0
 40
1.0
 40
1.0
 10
599.3612191454756
 20
730.5610223496928
 30
0.0
 10
602.0377955214369
 20
727.661017962791
 30
0.0
  0
LINE
  5
FF
330
1F
100
AcDbEntity
  8
0
  6
Continuous
 62
     7
370
    15
100
AcDbLine
 10
599.6770855786
 20
727.6610179628
 30
0.0
 11
602.0377955214
 21
727.6610179628
 31
0.0
  0
LINE
  5
100
330
1F
100
AcDbEntity
  8
0
  6
Continuous
 62
     7
370
    15
100
AcDbLine
 10
580.0377956406
 20
726.1610074724
 30
0.0
 11
580.0377956406
 21
727.6610179628
 31
0.0
  0
LINE
  5
101
330
1F
100
AcDbEntity
  8
0
  6
Continuous
 62
     7
370
    15
100
AcDbLine
 10
582.3985055835
 20
726.1610074724
 30
0.0
 11
580.0377956406
 21
726.1610074724
 31
0.0
  0
LINE
  5
102
330
1F
100
AcDbEntity
  8
0
  6
Continuous
 62
     7
370
    15
100
AcDbLine
 10
602.0377955214
 20
727.6610179628
 30
0.0
 11
602.0377955214
 21
726.1610074724
 31
0.0
  0
LINE
  5
103
330
1F
100
AcDbEntity
  8
0
  6
Continuous
 62
     7
370
    15
100
AcDbLine
 10
602.0377955214
 20
726.1610074724
 30
0.0
 11
599.6770855786
 21
726.1610074724
 31
0.0
  0
LINE
  5
104
330
1F
100
AcDbEntity
  8
0
  6
Continuous
 62
     7
370
    15
100
AcDbLine
 10
703.5377926008
 20
722.3610027517
 30
0.0
 11
535.5377948658
 21
722.3610027517
 31
0.0
  0
LINE
  5
105
330
1F
100
AcDbEntity
  8
0
  6
Continuous
 62
     7
370
    15
100
AcDbLine
 10
703.5377926008
 20
722.3610027517
 30
0.0
 11
703.5377926008
 21
720.7798107351
 31
0.0
  0
LINE
  5
106
330
1F
100
AcDbEntity
  8
0
  6
Continuous
 62
     7
370
    15
100
AcDbLine
 10
535.5377948658
 20
722.3610027517
 30
0.0
 11
535.5377948658
 21
720.7798107351
 31
0.0
  0
ARC
  5
107
330
1F
100
AcDbEntity
  8
0
  6
Continuous
 62
     7
370
    15
100
AcDbCircle
 10
528.537795581
 20
719.7610077585
 30
0.0
 40
2.0
100
AcDbArc
 50
90.0
 51
180.0
  0
LINE
  5
108
330
1F
100
AcDbEntity
  8
0
  6
Continuous
 62
     7
370
    15
100
AcDbLine
 10
528.537795581
 20
721.7610223974
 30
0.0
 11
528.537795581
 21
720.1801880086
 31
0.0
  0
SPLINE
  5
109
330
1F
100
AcDbEntity
  8
0
  6
Continuous
 62
     7
370
    15
100
AcDbSpline
210
0.0
220
0.0
230
1.0
 70
    24
 71
     3
 72
    11
 73
     7
 74
     0
 42
0.00000001
 43
0.00000001
 40
0.0
 40
0.0
 40
0.0
 40
0.0
 40
0.2497217018123481
 40
0.4985225415543444
 40
0.7505358958723001
 40
1.0
 40
1.0
 40
1.0
 40
1.0
 10
526.5377989785063
 20
719.7610183442604
 30
0.0
 10
526.5377989785063
 20
719.7542342894317
 30
0.0
 10
526.5377989785063
 20
719.7406911963374
 30
0.0
 10
526.5377989785063
 20
719.6283760987326
 30
0.0
 10
526.5377989785063
 20
719.4626616028768
 30
0.0
 10
526.5377989785063
 20
719.3100175347302
 30
0.0
 10
526.5377989785063
 20
719.2340834821235
 30
0.0
  0
LINE
  5
10A
330
1F
100
AcDbEntity
  8
0
  6
Continuous
 62
     7
370
    15
100
AcDbLine
 10
528.537795581
 20
721.7610223974
 30
0.0
 11
535.5377948658
 21
721.7610223974
 31
0.0
  0
LINE
  5
10B
330
1F
100
AcDbEntity
  8
0
  6
Continuous
 62
     7
370
    15
100
AcDbLine
 10
703.5377926008
 20
721.7610223974
 30
0.0
 11
710.5377918856
 21
721.7610223974
 31
0.0
  0
LINE
  5
10C
330
1F
100
AcDbEntity
  8
0
  6
Continuous
 62
     7
370
    15
100
AcDbLine
 10
710.5377918856
 20
720.1801880086
 30
0.0
 11
710.5377918856
 21
721.7610223974
 31
0.0
  0
ARC
  5
10D
330
1F
100
AcDbEntity
  8
0
  6
Continuous
 62
     7
370
    15
100
AcDbCircle
 10
710.537795581
 20
719.7610077585
 30
0.0
 40
2.0
100
AcDbArc
 50
0.0
 51
90.0
  0
SPLINE
  5
10E
330
1F
100
AcDbEntity
  8
0
  6
Continuous
 62
     7
370
    15
100
AcDbSpline
210
0.0
220
0.0
230
1.0
 70
    24
 71
     3
 72
    11
 73
     7
 74
     0
 42
0.00000001
 43
0.00000001
 40
0.0
 40
0.0
 40
0.0
 40
0.0
 40
0.2497022081788972
 40
0.4985047623573534
 40
0.7505152705153387
 40
1.0
 40
1.0
 40
1.0
 40
1.0
 10
712.5377959386694
 20
719.2340834821242
 30
0.0
 10
712.5377959386694
 20
719.3100432761814
 30
0.0
 10
712.5377959386694
 20
719.4616891881712
 30
0.0
 10
712.5377959386693
 20
719.6278790008754
 30
0.0
 10
712.5377959386695
 20
719.7408799970389
 30
0.0
 10
712.5377959386694
 20
719.754328139024
 30
0.0
 10
712.5377959386694
 20
719.7610183442611
 30
0.0
  0
LINE
  5
10F
330
1F
100
AcDbEntity
  8
0
  6
Continuous
 62
     7
370
    15
100
AcDbLine
 10
571.7877956853
 20
724.1610034193
 30
0.0
 11
610.2877954767
 21
724.1610034193
 31
0.0
  0
LINE
  5
110
330
1F
100
AcDbEntity
  8
0
  6
Continuous
 62
     7
370
    15
100
AcDbLine
 10
580.0377956406
 20
727.6610179628
 30
0.0
 11
571.7877956853
 21
727.6610179628
 31
0.0
  0
LINE
  5
111
330
1F
100
AcDbEntity
  8
0
  6
Continuous
 62
     7
370
    15
100
AcDbLine
 10
610.2877954767
 20
727.6610179628
 30
0.0
 11
602.0377955214
 21
727.6610179628
 31
0.0
  0
LINE
  5
112
330
1F
100
AcDbEntity
  8
0
  6
Continuous
 62
     7
370
    15
100
AcDbLine
 10
582.7143720166
 20
730.5610223497
 30
0.0
 11
574.687796347
 21
730.5610223497
 31
0.0
  0
LINE
  5
113
330
1F
100
AcDbEntity
  8
0
  6
Continuous
 62
     7
370
    15
100
AcDbLine
 10
607.3877948151
 20
730.5610223497
 30
0.0
 11
599.3612191455
 21
730.5610223497
 31
0.0
  0
LINE
  5
114
330
1F
100
AcDbEntity
  8
0
  6
Continuous
 62
     7
370
    15
100
AcDbLine
 10
603.5377957673
 20
723.1610162939
 30
0.0
 11
578.5377953948
 21
723.1610162939
 31
0.0
  0
LINE
  5
115
330
1F
100
AcDbEntity
  8
0
  6
Continuous
 62
     7
370
    15
100
AcDbLine
 10
591.037795581
 20
723.5609932626
 30
0.0
 11
578.5527952762
 21
723.5609932626
 31
0.0
  0
LINE
  5
116
330
1F
100
AcDbEntity
  8
0
  6
Continuous
 62
     7
370
    15
100
AcDbLine
 10
603.5227958859
 20
723.5609932626
 30
0.0
 11
591.037795581
 21
723.5609932626
 31
0.0
  0
LINE
  5
117
330
1F
100
AcDbEntity
  8
0
  6
Continuous
 62
     7
370
    15
100
AcDbLine
 10
593.037795676
 20
741.8610199178
 30
0.0
 11
593.037795676
 21
738.3610053743
 31
0.0
  0
LWPOLYLINE
  5
118
330
1F
100
AcDbEntity
  8
0
  6
Continuous
 62
     7
370
    15
100
AcDbPolyline
 90
        3
 70
   128
 43
0.0
 10
593.037795676
 20
741.8610199178
 10
593.2882667334
 20
742.1114786352
 10
593.5377955252
 20
742.3610134805
  0
LINE
  5
119
330
1F
100
AcDbEntity
  8
0
  6
Continuous
 62
     7
370
    15
100
AcDbLine
 10
599.037795961
 20
742.3610134805
 30
0.0
 11
593.5377955252
 21
742.3610134805
 31
0.0
  0
LINE
  5
11A
330
1F
100
AcDbEntity
  8
0
  6
Continuous
 62
     7
370
    15
100
AcDbLine
 10
599.037795961
 20
730.5610223497
 30
0.0
 11
599.037795961
 21
742.3610134805
 31
0.0
  0
LINE
  5
11B
330
1F
100
AcDbEntity
  8
0
  6
Continuous
 62
     7
370
    15
100
AcDbLine
 10
583.0377952011
 20
742.3610134805
 30
0.0
 11
583.0377952011
 21
730.5610223497
 31
0.0
  0
LINE
  5
11C
330
1F
100
AcDbEntity
  8
0
  6
Continuous
 62
     7
370
    15
100
AcDbLine
 10
588.5377956369
 20
742.3610134805
 30
0.0
 11
583.0377952011
 21
742.3610134805
 31
0.0
  0
LWPOLYLINE
  5
11D
330
1F
100
AcDbEntity
  8
0
  6
Continuous
 62
     7
370
    15
100
AcDbPolyline
 90
        3
 70
   128
 43
0.0
 10
589.037795486
 20
741.8610199178
 10
588.7873244287
 20
742.1114786352
 10
588.5377956369
 20
742.3610134805
  0
LINE
  5
11E
330
1F
100
AcDbEntity
  8
0
  6
Continuous
 62
     7
370
    15
100
AcDbLine
 10
589.037795486
 20
738.3610053743
 30
0.0
 11
589.037795486
 21
741.8610199178
 31
0.0
  0
LINE
  5
11F
330
1F
100
AcDbEntity
  8
0
  6
Continuous
 62
     7
370
    15
100
AcDbLine
 10
593.037795676
 20
738.3610053743
 30
0.0
 11
589.037795486
 21
738.3610053743
 31
0.0
  0
LINE
  5
120
330
1F
100
AcDbEntity
  8
0
  6
Continuous
 62
     7
370
    15
100
AcDbLine
 10
719.5377952234
 20
671.4610053981
 30
0.0
 11
713.5377979652
 21
671.4610053981
 31
0.0
  0
SPLINE
  5
121
330
1F
100
AcDbEntity
  8
0
  6
Continuous
 62
     7
370
    15
100
AcDbSpline
210
0.0
220
0.0
230
1.0
 70
     8
 71
     3
 72
    11
 73
     7
 74
     0
 42
0.00000001
 43
0.00000001
 40
0.0
 40
0.0
 40
0.0
 40
0.0
 40
0.264535375850856
 40
0.5347687409163405
 40
0.7652637867909836
 40
1.0
 40
1.0
 40
1.0
 40
1.0
 10
719.5377952234139
 20
671.4610053981322
 30
0.0
 10
719.7434780372595
 20
670.7667762400873
 30
0.0
 10
720.1592739928461
 20
669.3633644976651
 30
0.0
 10
720.3115653133303
 20
667.2840174314757
 30
0.0
 10
720.0884680859074
 20
665.2957866981
 30
0.0
 10
719.722465036763
 20
664.0763039961539
 30
0.0
 10
719.5377952234139
 20
663.46100408683
 30
0.0
  0
LINE
  5
122
330
1F
100
AcDbEntity
  8
0
  6
Continuous
 62
     7
370
    15
100
AcDbLine
 10
719.5377952234
 20
663.4610040868
 30
0.0
 11
713.5377979652
 21
663.4610040868
 31
0.0
  0
SPLINE
  5
123
330
1F
100
AcDbEntity
  8
0
  6
Continuous
 62
     7
370
    15
100
AcDbSpline
210
0.0
220
0.0
230
1.0
 70
     8
 71
     3
 72
    11
 73
     7
 74
     0
 42
0.00000001
 43
0.00000001
 40
0.0
 40
0.0
 40
0.0
 40
0.0
 40
0.2645368707583789
 40
0.5347701572579521
 40
0.7652651512727521
 40
1.0
 40
1.0
 40
1.0
 40
1.0
 10
713.5377979652276
 20
663.46100408683
 30
0.0
 10
713.3321101082824
 20
664.1552384240977
 30
0.0
 10
712.9163052063449
 20
665.5586564226933
 30
0.0
 10
712.7640434617938
 20
667.6380064930415
 30
0.0
 10
712.9871201675388
 20
669.6262353838969
 30
0.0
 10
713.3531268366502
 20
670.845710845436
 30
0.0
 10
713.5377979652276
 20
671.4610053981322
 30
0.0
  0
LINE
  5
124
330
1F
100
AcDbEntity
  8
0
  6
Continuous
 62
     7
370
    15
100
AcDbLine
 10
720.53779725
 20
671.4610053981
 30
0.0
 11
720.53779725
 21
678.9610131467
 31
0.0
  0
LINE
  5
125
330
1F
100
AcDbEntity
  8
0
  6
Continuous
 62
     7
370
    15
100
AcDbLine
 10
720.53779725
 20
663.9610125507
 30
0.0
 11
720.53779725
 21
671.4610053981
 31
0.0
  0
SPLINE
  5
126
330
1F
100
AcDbEntity
  8
0
  6
Continuous
 62
     7
370
    15
100
AcDbSpline
210
0.0
220
0.0
230
1.0
 70
    24
 71
     3
 72
     9
 73
     5
 74
     0
 42
0.00000001
 43
0.00000001
 40
0.0
 40
0.0
 40
0.0
 40
0.0
 40
0.528770188490489
 40
1.0
 40
1.0
 40
1.0
 40
1.0
 10
719.5377952234139
 20
663.46100408683
 30
0.0
 10
719.7515381414837
 20
663.46100408683
 30
0.0
 10
720.1557646329204
 20
663.46100408683
 30
0.0
 10
720.2027478659959
 20
663.4610040868301
 30
0.0
 10
720.2248877660622
 20
663.4610040868301
 30
0.0
  0
SPLINE
  5
127
330
1F
100
AcDbEntity
  8
0
  6
Continuous
 62
     7
370
    15
100
AcDbSpline
210
0.0
220
0.0
230
1.0
 70
     8
 71
     3
 72
    11
 73
     7
 74
     0
 42
0.00000001
 43
0.00000001
 40
0.0
 40
0.0
 40
0.0
 40
0.0
 40
0.2645353513200293
 40
0.5347687408907791
 40
0.7652638112476339
 40
1.0
 40
1.0
 40
1.0
 40
1.0
 10
719.5377952234138
 20
679.4610067094344
 30
0.0
 10
719.743478040315
 20
678.7667775197441
 30
0.0
 10
720.1592740406162
 20
677.3633655832757
 30
0.0
 10
720.3115652942889
 20
675.2840187148723
 30
0.0
 10
720.0884681361707
 20
673.2957882401294
 30
0.0
 10
719.7224650408241
 20
672.0763053422003
 30
0.0
 10
719.5377952234139
 20
671.4610053981322
 30
0.0
  0
SPLINE
  5
128
330
1F
100
AcDbEntity
  8
0
  6
Continuous
 62
     7
370
    15
100
AcDbSpline
210
0.0
220
0.0
230
1.0
 70
    24
 71
     3
 72
    10
 73
     6
 74
     0
 42
0.00000001
 43
0.00000001
 40
0.0
 40
0.0
 40
0.0
 40
0.0
 40
0.0690071937406876
 40
0.5302601895774787
 40
0.9999999999999999
 40
0.9999999999999999
 40
0.9999999999999999
 40
0.9999999999999999
 10
720.2248877660621
 20
679.4610067094344
 30
0.0
 10
720.2330349520532
 20
679.4610067094344
 30
0.0
 10
720.2956389814888
 20
679.4610067094344
 30
0.0
 10
720.0665048944977
 20
679.4610067094344
 30
0.0
 10
719.7150995695151
 20
679.4610067094344
 30
0.0
 10
719.5377952234138
 20
679.4610067094344
 30
0.0
  0
LINE
  5
129
330
1F
100
AcDbEntity
  8
0
  6
Continuous
 62
     7
370
    15
100
AcDbLine
 10
719.5377952234
 20
679.4610067094
 30
0.0
 11
713.5377979652
 21
679.4610067094
 31
0.0
  0
SPLINE
  5
12A
330
1F
100
AcDbEntity
  8
0
  6
Continuous
 62
     7
370
    15
100
AcDbSpline
210
0.0
220
0.0
230
1.0
 70
     8
 71
     3
 72
    11
 73
     7
 74
     0
 42
0.00000001
 43
0.00000001
 40
0.0
 40
0.0
 40
0.0
 40
0.0
 40
0.2645368952890732
 40
0.5347701572833761
 40
0.7652651268159603
 40
1.0
 40
1.0
 40
1.0
 40
1.0
 10
713.5377979652276
 20
671.4610053981322
 30
0.0
 10
713.3321101113374
 20
672.1552397037544
 30
0.0
 10
712.9163052541138
 20
673.5586575083046
 30
0.0
 10
712.764043442752
 20
675.6380077764378
 30
0.0
 10
712.9871202178015
 20
677.6262369259267
 30
0.0
 10
713.3531268407108
 20
678.8457121914823
 30
0.0
 10
713.5377979652275
 20
679.4610067094344
 30
0.0
  0
SPLINE
  5
12B
330
1F
100
AcDbEntity
  8
0
  6
Continuous
 62
     7
370
    15
100
AcDbSpline
210
0.0
220
0.0
230
1.0
 70
    24
 71
     3
 72
    10
 73
     6
 74
     0
 42
0.00000001
 43
0.00000001
 40
0.0
 40
0.0
 40
0.0
 40
0.0
 40
0.0690071067578483
 40
0.5302600670129781
 40
1.0
 40
1.0
 40
1.0
 40
1.0
 10
712.8507054225793
 20
663.46100408683
 30
0.0
 10
712.8425609365352
 20
663.46100408683
 30
0.0
 10
712.7799775894225
 20
663.4610040868301
 30
0.0
 10
713.009079151216
 20
663.46100408683
 30
0.0
 10
713.3604905332804
 20
663.46100408683
 30
0.0
 10
713.5377979652276
 20
663.46100408683
 30
0.0
  0
SPLINE
  5
12C
330
1F
100
AcDbEntity
  8
0
  6
Continuous
 62
     7
370
    15
100
AcDbSpline
210
0.0
220
0.0
230
1.0
 70
    24
 71
     3
 72
     9
 73
     5
 74
     0
 42
0.00000001
 43
0.00000001
 40
0.0
 40
0.0
 40
0.0
 40
0.0
 40
0.5287704075067012
 40
1.0
 40
1.0
 40
1.0
 40
1.0
 10
713.5377979652275
 20
679.4610067094344
 30
0.0
 10
713.3240511691163
 20
679.4610067094344
 30
0.0
 10
712.9198175110356
 20
679.4610067094344
 30
0.0
 10
712.8728417780778
 20
679.4610067094345
 30
0.0
 10
712.8507054225792
 20
679.4610067094344
 30
0.0
  0
LINE
  5
12D
330
1F
100
AcDbEntity
  8
0
  6
Continuous
 62
     7
370
    15
100
AcDbLine
 10
722.3377979175
 20
671.4610053981
 30
0.0
 11
722.3377979175
 21
676.4610155309
 31
0.0
  0
LINE
  5
12E
330
1F
100
AcDbEntity
  8
0
  6
Continuous
 62
     7
370
    15
100
AcDbLine
 10
722.3377979175
 20
666.4610101665
 30
0.0
 11
722.3377979175
 21
671.4610053981
 31
0.0
  0
LINE
  5
12F
330
1F
100
AcDbEntity
  8
0
  6
Continuous
 62
     7
370
    15
100
AcDbLine
 10
722.8377914802
 20
671.4610053981
 30
0.0
 11
722.8377914802
 21
675.9610219682
 31
0.0
  0
LINE
  5
130
330
1F
100
AcDbEntity
  8
0
  6
Continuous
 62
     7
370
    15
100
AcDbLine
 10
722.8377914802
 20
666.9610037292
 30
0.0
 11
722.8377914802
 21
671.4610053981
 31
0.0
  0
SPLINE
  5
131
330
1F
100
AcDbEntity
  8
0
  6
Continuous
 62
     7
370
    15
100
AcDbSpline
210
0.0
220
0.0
230
1.0
 70
     8
 71
     3
 72
    18
 73
    14
 74
     0
 42
0.00000001
 43
0.00000001
 40
0.0
 40
0.0
 40
0.0
 40
0.0
 40
0.0391144632626872
 40
0.0780920648847274
 40
0.1389203948749153
 40
0.2382983718108234
 40
0.4914348853207171
 40
0.7614775660460491
 40
0.8314858525157086
 40
0.9019335962456994
 40
0.9480415531049201
 40
0.9875246105546756
 40
1.0
 40
1.0
 40
1.0
 40
1.0
 10
576.54251128447
 20
541.6610061014666
 30
0.0
 10
576.536476112205
 20
541.7787262053553
 30
0.0
 10
576.5244268847638
 20
542.0137545100869
 30
0.0
 10
576.4214122685866
 20
542.3834407186079
 30
0.0
 10
576.2060150762286
 20
542.7964013028961
 30
0.0
 10
575.6448257092638
 20
543.3074783790447
 30
0.0
 10
574.7288696488878
 20
543.453884253082
 30
0.0
 10
573.8489795741539
 20
543.3322597153343
 30
0.0
 10
573.2921704696267
 20
542.8616628905089
 30
0.0
 10
573.0677811802836
 20
542.5276427927721
 30
0.0
 10
572.9337148777086
 20
542.1417039956852
 30
0.0
 10
572.8905314523461
 20
541.8541171814796
 30
0.0
 10
572.8879093111738
 20
541.6983953997949
 30
0.0
 10
572.8872797266836
 20
541.6610061014666
 30
0.0
  0
SPLINE
  5
132
330
1F
100
AcDbEntity
  8
0
  6
Continuous
 62
     7
370
    15
100
AcDbSpline
210
0.0
220
0.0
230
1.0
 70
     8
 71
     3
 72
    18
 73
    14
 74
     0
 42
0.00000001
 43
0.00000001
 40
0.0
 40
0.0
 40
0.0
 40
0.0
 40
0.0391144469836409
 40
0.0780920780202407
 40
0.1389203573573644
 40
0.2382984467249125
 40
0.4914347375495371
 40
0.7614775439535895
 40
0.8314859269464873
 40
0.9019335478162805
 40
0.9480416027152708
 40
0.9875246117305574
 40
1.0
 40
1.0
 40
1.0
 40
1.0
 10
572.8872797266836
 20
541.6610061014666
 30
0.0
 10
572.8748893477774
 20
541.7787262449415
 30
0.0
 10
572.8501519294872
 20
542.0137547660565
 30
0.0
 10
572.6386465405185
 20
542.3834402988008
 30
0.0
 10
572.1964048424373
 20
542.7964019678373
 30
0.0
 10
571.0442032086761
 20
543.3074772475563
 30
0.0
 10
569.1636112960749
 20
543.4538850554723
 30
0.0
 10
567.3570699781098
 20
543.3322587105134
 30
0.0
 10
566.2138654814197
 20
542.8616637298137
 30
0.0
 10
565.7531583613527
 20
542.5276416159217
 30
0.0
 10
565.4778987067988
 20
542.1417048380393
 30
0.0
 10
565.3892445201323
 20
541.8541169988633
 30
0.0
 10
565.3838583190293
 20
541.6983953903833
 30
0.0
 10
565.3825650737876
 20
541.6610061014666
 30
0.0
  0
SPLINE
  5
133
330
1F
100
AcDbEntity
  8
0
  6
Continuous
 62
     7
370
    15
100
AcDbSpline
210
0.0
220
0.0
230
1.0
 70
     8
 71
     3
 72
    18
 73
    14
 74
     0
 42
0.00000001
 43
0.00000001
 40
0.0
 40
0.0
 40
0.0
 40
0.0
 40
0.0344344811766944
 40
0.0724914781671453
 40
0.130634504445363
 40
0.2236188765203637
 40
0.4104356965534847
 40
0.5001956798103662
 40
0.7376504171229558
 40
0.8568702376805756
 40
0.9094909619791697
 40
0.9625694779094625
 40
0.9999999999999999
 40
0.9999999999999999
 40
0.9999999999999999
 40
0.9999999999999999
 10
565.3825650737876
 20
541.6610061014666
 30
0.0
 10
565.377644253432
 20
541.7646002916819
 30
0.0
 10
565.3672849412199
 20
541.9826868061758
 30
0.0
 10
565.2726080765048
 20
542.3379955779835
 30
0.0
 10
565.0645391995827
 20
542.7460573557692
 30
0.0
 10
564.5899636939532
 20
543.1989342751293
 30
0.0
 10
564.020302098805
 20
543.3672413897497
 30
0.0
 10
563.2316177268872
 20
543.4190984450566
 30
0.0
 10
562.5393161765815
 20
543.3200882182974
 30
0.0
 10
561.9399351275845
 20
542.8644255077869
 30
0.0
 10
561.6763258470025
 20
542.4216388426113
 30
0.0
 10
561.5533230530439
 20
542.0460610420918
 30
0.0
 10
561.5390018138033
 20
541.7736593531159
 30
0.0
 10
561.5330791847105
 20
541.6610061014666
 30
0.0
  0
SPLINE
  5
134
330
1F
100
AcDbEntity
  8
0
  6
Continuous
 62
     7
370
    15
100
AcDbSpline
210
0.0
220
0.0
230
1.0
 70
     8
 71
     3
 72
     9
 73
     5
 74
     0
 42
0.00000001
 43
0.00000001
 40
0.0
 40
0.0
 40
0.0
 40
0.0
 40
0.6925334315755821
 40
1.0
 40
1.0
 40
1.0
 40
1.0
 10
561.5330791847105
 20
541.6610061014666
 30
0.0
 10
561.5370478106428
 20
541.7806335747553
 30
0.0
 10
561.5427784017613
 20
541.9533724893466
 30
0.0
 10
561.5854241260421
 20
542.0999446721354
 30
0.0
 10
561.5985362605447
 20
542.1450107182039
 30
0.0
  0
LINE
  5
135
330
1F
100
AcDbEntity
  8
0
  6
Continuous
 62
     7
370
    15
100
AcDbLine
 10
564.311512448
 20
543.6610101546
 30
0.0
 11
563.5322413222
 21
543.6610101546
 31
0.0
  0
LINE
  5
136
330
1F
100
AcDbEntity
  8
0
  6
Continuous
 62
     7
370
    15
100
AcDbLine
 10
574.5433482156
 20
543.6610101546
 30
0.0
 11
564.311512448
 21
543.6610101546
 31
0.0
  0
LINE
  5
137
330
1F
100
AcDbEntity
  8
0
  6
Continuous
 62
     7
370
    15
100
AcDbLine
 10
569.1349214689
 20
538.7610091651
 30
0.0
 11
565.3825650738
 21
538.7610091651
 31
0.0
  0
LINE
  5
138
330
1F
100
AcDbEntity
  8
0
  6
Continuous
 62
     7
370
    15
100
AcDbLine
 10
565.3825650738
 20
541.6610061015
 30
0.0
 11
565.3825650738
 21
538.7610091651
 31
0.0
  0
LINE
  5
139
330
1F
100
AcDbEntity
  8
0
  6
Continuous
 62
     7
370
    15
100
AcDbLine
 10
572.8872797267
 20
541.6610061015
 30
0.0
 11
572.8872797267
 21
538.7610091651
 31
0.0
  0
LINE
  5
13A
330
1F
100
AcDbEntity
  8
0
  6
Continuous
 62
     7
370
    15
100
AcDbLine
 10
572.8872797267
 20
538.7610091651
 30
0.0
 11
569.1349214689
 21
538.7610091651
 31
0.0
  0
LINE
  5
13B
330
1F
100
AcDbEntity
  8
0
  6
Continuous
 62
     7
370
    15
100
AcDbLine
 10
576.5425112845
 20
541.6610061015
 30
0.0
 11
576.5425112845
 21
538.7610091651
 31
0.0
  0
LINE
  5
13C
330
1F
100
AcDbEntity
  8
0
  6
Continuous
 62
     7
370
    15
100
AcDbLine
 10
576.5425112845
 20
538.7610091651
 30
0.0
 11
574.7148959712
 21
538.7610091651
 31
0.0
  0
LINE
  5
13D
330
1F
100
AcDbEntity
  8
0
  6
Continuous
 62
     7
370
    15
100
AcDbLine
 10
574.7148959712
 20
538.7610091651
 30
0.0
 11
572.8872797267
 21
538.7610091651
 31
0.0
  0
LINE
  5
13E
330
1F
100
AcDbEntity
  8
0
  6
Continuous
 62
     7
370
    15
100
AcDbLine
 10
563.4578230606
 20
538.7610091651
 30
0.0
 11
561.5330791847
 21
538.7610091651
 31
0.0
  0
LINE
  5
13F
330
1F
100
AcDbEntity
  8
0
  6
Continuous
 62
     7
370
    15
100
AcDbLine
 10
561.5330791847
 20
541.6610061015
 30
0.0
 11
561.5330791847
 21
538.7610091651
 31
0.0
  0
LINE
  5
140
330
1F
100
AcDbEntity
  8
0
  6
Continuous
 62
     7
370
    15
100
AcDbLine
 10
565.3825650738
 20
538.7610091651
 30
0.0
 11
563.4578230606
 21
538.7610091651
 31
0.0
  0
SPLINE
  5
141
330
1F
100
AcDbEntity
  8
0
  6
Continuous
 62
     7
370
    15
100
AcDbSpline
210
0.0
220
0.0
230
1.0
 70
     8
 71
     3
 72
    18
 73
    14
 74
     0
 42
0.00000001
 43
0.00000001
 40
0.0
 40
0.0
 40
0.0
 40
0.0
 40
0.0391144492618098
 40
0.0780920217935187
 40
0.1389204394180633
 40
0.2382983618621678
 40
0.4914348964263254
 40
0.7614773851521955
 40
0.831485886935825
 40
0.9019336627040976
 40
0.9480415456314524
 40
0.987524621423564
 40
1.0
 40
1.0
 40
1.0
 40
1.0
 10
620.543348305046
 20
541.6610061014668
 30
0.0
 10
620.5371521007403
 20
541.7787261844933
 30
0.0
 10
620.5247813750669
 20
542.0137544020124
 30
0.0
 10
620.4190202580896
 20
542.3834412404776
 30
0.0
 10
620.1978717260603
 20
542.7964006112804
 30
0.0
 10
619.6217070786086
 20
543.3074790158016
 30
0.0
 10
618.6813066499325
 20
543.4538844647062
 30
0.0
 10
617.7779342000242
 20
543.3322583755158
 30
0.0
 10
617.2062691163834
 20
542.8616632443448
 30
0.0
 10
616.975888678124
 20
542.5276434037377
 30
0.0
 10
616.8382448645137
 20
542.1417034598148
 30
0.0
 10
616.7939122294216
 20
541.8541173846035
 30
0.0
 10
616.7912193766721
 20
541.6983954085186
 30
0.0
 10
616.7905728147621
 20
541.6610061014667
 30
0.0
  0
SPLINE
  5
142
330
1F
100
AcDbEntity
  8
0
  6
Continuous
 62
     7
370
    15
100
AcDbSpline
210
0.0
220
0.0
230
1.0
 70
     8
 71
     3
 72
    18
 73
    14
 74
     0
 42
0.00000001
 43
0.00000001
 40
0.0
 40
0.0
 40
0.0
 40
0.0
 40
0.0391144593612799
 40
0.0780921002096901
 40
0.1389204507123036
 40
0.2382983307512878
 40
0.491434793596488
 40
0.7614775272356005
 40
0.8314857919431741
 40
0.9019335509811708
 40
0.9480415909170973
 40
0.9875246045071905
 40
1.0
 40
1.0
 40
1.0
 40
1.0
 10
616.7905728147621
 20
541.6610061014667
 30
0.0
 10
616.7781807866365
 20
541.7787262376193
 30
0.0
 10
616.753440076475
 20
542.0137547365231
 30
0.0
 10
616.5419110124234
 20
542.3834405320359
 30
0.0
 10
616.099619383285
 20
542.7964010334842
 30
0.0
 10
614.9472904101744
 20
543.3074787837766
 30
0.0
 10
613.0664880306232
 20
543.4538840804706
 30
0.0
 10
611.2597445956421
 20
543.3322597931358
 30
0.0
 10
610.1164135826756
 20
542.8616629229283
 30
0.0
 10
609.6556541256986
 20
542.5276422219205
 30
0.0
 10
609.380363326283
 20
542.1417047266749
 30
0.0
 10
609.2917005430427
 20
541.8541169369648
 30
0.0
 10
609.2863119329963
 20
541.69839538901
 30
0.0
 10
609.2850181089038
 20
541.6610061014667
 30
0.0
  0
SPLINE
  5
143
330
1F
100
AcDbEntity
  8
0
  6
Continuous
 62
     7
370
    15
100
AcDbSpline
210
0.0
220
0.0
230
1.0
 70
     8
 71
     3
 72
    18
 73
    14
 74
     0
 42
0.00000001
 43
0.00000001
 40
0.0
 40
0.0
 40
0.0
 40
0.0
 40
0.0344344648942371
 40
0.0724914707186473
 40
0.1306345531679056
 40
0.2236189235215789
 40
0.4104357295875993
 40
0.5001956372306622
 40
0.7376504369015762
 40
0.8568701953987756
 40
0.9094909700747527
 40
0.9625694827382317
 40
1.0
 40
1.0
 40
1.0
 40
1.0
 10
609.2850181089038
 20
541.6610061014667
 30
0.0
 10
609.2802213978218
 20
541.7646003048555
 30
0.0
 10
609.2701233567456
 20
541.9826869277971
 30
0.0
 10
609.1778229639028
 20
542.3379957205245
 30
0.0
 10
608.9749838357333
 20
542.7460570617656
 30
0.0
 10
608.5123300139295
 20
543.1989344064542
 30
0.0
 10
607.9569813993567
 20
543.3672413568861
 30
0.0
 10
607.18810572121
 20
543.4190984213604
 30
0.0
 10
606.5132010854934
 20
543.3200887288706
 30
0.0
 10
605.9288764446048
 20
542.8644250224237
 30
0.0
 10
605.6718903418599
 20
542.4216390783372
 30
0.0
 10
605.55197696387
 20
542.0460610415736
 30
0.0
 10
605.5380155205385
 20
541.7736593498117
 30
0.0
 10
605.5322416872973
 20
541.6610061014667
 30
0.0
  0
LINE
  5
144
330
1F
100
AcDbEntity
  8
0
  6
Continuous
 62
     7
370
    15
100
AcDbLine
 10
608.2698467003
 20
543.6610101546
 30
0.0
 11
607.5322429464
 21
543.6610101546
 31
0.0
  0
LINE
  5
145
330
1F
100
AcDbEntity
  8
0
  6
Continuous
 62
     7
370
    15
100
AcDbLine
 10
618.5433498399
 20
543.6610101546
 30
0.0
 11
608.2698467003
 21
543.6610101546
 31
0.0
  0
LINE
  5
146
330
1F
100
AcDbEntity
  8
0
  6
Continuous
 62
     7
370
    15
100
AcDbLine
 10
613.0377954618
 20
538.7610091651
 30
0.0
 11
609.2850181089
 21
538.7610091651
 31
0.0
  0
LINE
  5
147
330
1F
100
AcDbEntity
  8
0
  6
Continuous
 62
     7
370
    15
100
AcDbLine
 10
609.2850181089
 20
541.6610061015
 30
0.0
 11
609.2850181089
 21
538.7610091651
 31
0.0
  0
LINE
  5
148
330
1F
100
AcDbEntity
  8
0
  6
Continuous
 62
     7
370
    15
100
AcDbLine
 10
616.7905728148
 20
541.6610061015
 30
0.0
 11
616.7905728148
 21
538.7610091651
 31
0.0
  0
LINE
  5
149
330
1F
100
AcDbEntity
  8
0
  6
Continuous
 62
     7
370
    15
100
AcDbLine
 10
616.7905728148
 20
538.7610091651
 30
0.0
 11
613.0377954618
 21
538.7610091651
 31
0.0
  0
LINE
  5
14A
330
1F
100
AcDbEntity
  8
0
  6
Continuous
 62
     7
370
    15
100
AcDbLine
 10
620.543348305
 20
541.6610061015
 30
0.0
 11
620.543348305
 21
538.7610091651
 31
0.0
  0
LINE
  5
14B
330
1F
100
AcDbEntity
  8
0
  6
Continuous
 62
     7
370
    15
100
AcDbLine
 10
620.543348305
 20
538.7610091651
 30
0.0
 11
618.6669605599
 21
538.7610091651
 31
0.0
  0
LINE
  5
14C
330
1F
100
AcDbEntity
  8
0
  6
Continuous
 62
     7
370
    15
100
AcDbLine
 10
618.6669605599
 20
538.7610091651
 30
0.0
 11
616.7905728148
 21
538.7610091651
 31
0.0
  0
LINE
  5
14D
330
1F
100
AcDbEntity
  8
0
  6
Continuous
 62
     7
370
    15
100
AcDbLine
 10
607.4086303638
 20
538.7610091651
 30
0.0
 11
605.5322416873
 21
538.7610091651
 31
0.0
  0
LINE
  5
14E
330
1F
100
AcDbEntity
  8
0
  6
Continuous
 62
     7
370
    15
100
AcDbLine
 10
605.5322416873
 20
541.6610061015
 30
0.0
 11
605.5322416873
 21
538.7610091651
 31
0.0
  0
LINE
  5
14F
330
1F
100
AcDbEntity
  8
0
  6
Continuous
 62
     7
370
    15
100
AcDbLine
 10
609.2850181089
 20
538.7610091651
 30
0.0
 11
607.4086303638
 21
538.7610091651
 31
0.0
  0
LINE
  5
150
330
1F
100
AcDbEntity
  8
0
  6
Continuous
 62
     7
370
    15
100
AcDbLine
 10
576.5433494748
 20
541.6610061015
 30
0.0
 11
576.5433494748
 21
538.7610091651
 31
0.0
  0
LINE
  5
151
330
1F
100
AcDbEntity
  8
0
  6
Continuous
 62
     7
370
    15
100
AcDbLine
 10
576.5433494748
 20
538.7610091651
 30
0.0
 11
576.5425112845
 21
538.7610091651
 31
0.0
  0
LINE
  5
152
330
1F
100
AcDbEntity
  8
0
  6
Continuous
 62
     7
370
    15
100
AcDbLine
 10
561.5330791847
 20
538.7610091651
 30
0.0
 11
561.532242857
 21
538.7610091651
 31
0.0
  0
LINE
  5
153
330
1F
100
AcDbEntity
  8
0
  6
Continuous
 62
     7
370
    15
100
AcDbLine
 10
561.532242857
 20
541.6610061015
 30
0.0
 11
561.532242857
 21
538.7610091651
 31
0.0
  0
LINE
  5
154
330
1F
100
AcDbEntity
  8
0
  6
Continuous
 62
     7
370
    15
100
AcDbLine
 10
571.0377960281
 20
552.8110011304
 30
0.0
 11
611.037795134
 21
552.8110011304
 31
0.0
  0
LINE
  5
155
330
1F
100
AcDbEntity
  8
0
  6
Continuous
 62
     7
370
    15
100
AcDbLine
 10
606.4377954976
 20
300.9110062207
 30
0.0
 11
575.6377956645
 21
300.9110062207
 31
0.0
  0
LINE
  5
156
330
1F
100
AcDbEntity
  8
0
  6
Continuous
 62
     7
370
    15
100
AcDbLine
 10
571.6377950088
 20
304.9110068763
 30
0.0
 11
610.4377961532
 21
304.9110068763
 31
0.0
  0
LINE
  5
157
330
1F
100
AcDbEntity
  8
0
  6
Continuous
 62
     7
370
    15
100
AcDbLine
 10
610.4377961532
 20
308.4110065187
 30
0.0
 11
571.6377950088
 21
308.4110065187
 31
0.0
  0
LINE
  5
158
330
1F
100
AcDbEntity
  8
0
  6
Continuous
 62
     7
370
    15
100
AcDbLine
 10
577.1377959104
 20
310.4110105718
 30
0.0
 11
604.9377952517
 21
310.4110105718
 31
0.0
  0
SPLINE
  5
159
330
1F
100
AcDbEntity
  8
0
  6
Continuous
 62
     7
370
    15
100
AcDbSpline
210
0.0
220
0.0
230
1.0
 70
     8
 71
     3
 72
     8
 73
     4
 74
     0
 42
0.00000001
 43
0.00000001
 40
0.0
 40
0.0
 40
0.0
 40
0.0
 40
0.0000226150302117
 40
0.0000226150302117
 40
0.0000226150302117
 40
0.0000226150302117
 10
600.7422505433324
 20
475.8096303482361
 30
0.0
 10
600.7470019076789
 20
475.8096152125875
 30
0.0
 10
600.751748719331
 20
475.8094515377194
 30
0.0
 10
600.7564854155193
 20
475.8091386943531
 30
0.0
  0
SPLINE
  5
15A
330
1F
100
AcDbEntity
  8
0
  6
Continuous
 62
     7
370
    15
100
AcDbSpline
210
0.0
220
0.0
230
1.0
 70
    24
 71
     3
 72
    14
 73
    10
 74
     0
 42
0.00000001
 43
0.00000001
 40
0.1393700509402417
 40
0.1393700509402417
 40
0.1393700509402417
 40
0.1393700509402417
 40
0.2500000000000002
 40
0.3750000000000002
 40
0.5000000000000003
 40
0.5000000000000003
 40
0.6250000000000002
 40
0.7500000000000002
 40
0.8606299490597574
 40
0.8606299490597574
 40
0.8606299490597574
 40
0.8606299490597574
 10
581.333228707159
 20
475.8110077584757
 30
0.0
 10
582.0494686095475
 20
475.8110077584757
 30
0.0
 10
583.8321370167077
 20
475.8110077584758
 30
0.0
 10
587.1867814346554
 20
475.8110077584758
 30
0.0
 10
589.7540734275447
 20
475.8110077584759
 30
0.0
 10
592.3215177345401
 20
475.8110077584759
 30
0.0
 10
594.8888097274292
 20
475.8110077584759
 30
0.0
 10
598.243454145377
 20
475.8110077584759
 30
0.0
 10
600.0261225525372
 20
475.8110077584759
 30
0.0
 10
600.7423624549257
 20
475.8110077584759
 30
0.0
  0
SPLINE
  5
15B
330
1F
100
AcDbEntity
  8
0
  6
Continuous
 62
     7
370
    15
100
AcDbSpline
210
0.0
220
0.0
230
1.0
 70
     8
 71
     3
 72
     8
 73
     4
 74
     0
 42
0.00000001
 43
0.00000001
 40
0.0
 40
0.0
 40
0.0
 40
0.0
 40
0.0000226150302116
 40
0.0000226150302116
 40
0.0000226150302116
 40
0.0000226150302116
 10
581.3191057465655
 20
475.809138694353
 30
0.0
 10
581.3238424427537
 20
475.8094515377194
 30
0.0
 10
581.3285892544059
 20
475.8096152125875
 30
0.0
 10
581.3333406187522
 20
475.8096303482361
 30
0.0
  0
LINE
  5
15C
330
1F
100
AcDbEntity
  8
0
  6
Continuous
 62
     7
370
    15
100
AcDbLine
 10
581.3191055135
 20
494.4282068695
 30
0.0
 11
581.3191055135
 21
475.8110089983
 31
0.0
  0
SPLINE
  5
15D
330
1F
100
AcDbEntity
  8
0
  6
Continuous
 62
     7
370
    15
100
AcDbSpline
210
0.0
220
0.0
230
1.0
 70
     8
 71
     3
 72
    16
 73
    12
 74
     0
 42
0.00000001
 43
0.00000001
 40
0.0
 40
0.0
 40
0.0
 40
0.0
 40
0.1250000000000006
 40
0.1250000000000006
 40
0.2500000000000012
 40
0.2500000000000012
 40
0.5000000000000008
 40
0.5000000000000008
 40
0.7500000000000003
 40
0.7500000000000003
 40
1.0
 40
1.0
 40
1.0
 40
1.0
 10
578.7871299792406
 20
496.7961743499177
 30
0.0
 10
578.841938901973
 20
496.8053177319724
 30
0.0
 10
578.9050737133264
 20
496.7913125388035
 30
0.0
 10
579.0472832805385
 20
496.7261549185509
 30
0.0
 10
579.1267656193576
 20
496.6745907022952
 30
0.0
 10
579.3857822955356
 20
496.4745986038658
 30
0.0
 10
579.582072339895
 20
496.2850259700996
 30
0.0
 10
580.0157037760132
 20
495.8360792158975
 30
0.0
 10
580.2540685642349
 20
495.5748961788635
 30
0.0
 10
580.7610321054975
 20
495.0211083091198
 30
0.0
 10
581.0316676637593
 20
494.7261142552818
 30
0.0
 10
581.3191057465655
 20
494.428204737249
 30
0.0
  0
SPLINE
  5
15E
330
1F
100
AcDbEntity
  8
0
  6
Continuous
 62
     7
370
    15
100
AcDbSpline
210
0.0
220
0.0
230
1.0
 70
     8
 71
     3
 72
    16
 73
    12
 74
     0
 42
0.00000001
 43
0.00000001
 40
0.0
 40
0.0
 40
0.0
 40
0.0
 40
0.1249999999999994
 40
0.1249999999999994
 40
0.2499999999999988
 40
0.2499999999999988
 40
0.4999999999999992
 40
0.4999999999999992
 40
0.7499999999999996
 40
0.7499999999999996
 40
1.0
 40
1.0
 40
1.0
 40
1.0
 10
603.2884611828439
 20
496.7961743499179
 30
0.0
 10
603.2336522601116
 20
496.8053177319724
 30
0.0
 10
603.1705174487581
 20
496.7913125388035
 30
0.0
 10
603.0283078815461
 20
496.7261549185511
 30
0.0
 10
602.9488255427269
 20
496.6745907022953
 30
0.0
 10
602.689808866549
 20
496.4745986038658
 30
0.0
 10
602.4935188221896
 20
496.2850259700997
 30
0.0
 10
602.0598873860714
 20
495.8360792158977
 30
0.0
 10
601.8215225978497
 20
495.5748961788636
 30
0.0
 10
601.3145590565871
 20
495.0211083091199
 30
0.0
 10
601.043923498318
 20
494.7261142552993
 30
0.0
 10
600.7564854155191
 20
494.428204737249
 30
0.0
  0
LINE
  5
15F
330
1F
100
AcDbEntity
  8
0
  6
Continuous
 62
     7
370
    15
100
AcDbLine
 10
600.7564856486
 20
475.8110089983
 30
0.0
 11
600.7564856486
 21
494.4282068695
 31
0.0
  0
LINE
  5
160
330
1F
100
AcDbEntity
  8
0
  6
Continuous
 62
     7
370
    15
100
AcDbLine
 10
581.9715118782
 20
497.811008879
 30
0.0
 11
600.1040792839
 21
497.811008879
 31
0.0
  0
SPLINE
  5
161
330
1F
100
AcDbEntity
  8
0
  6
Continuous
 62
     7
370
    15
100
AcDbSpline
210
0.0
220
0.0
230
1.0
 70
     8
 71
     3
 72
    16
 73
    12
 74
     0
 42
0.00000001
 43
0.00000001
 40
0.0
 40
0.0
 40
0.0
 40
0.0
 40
0.1250000000000005
 40
0.1250000000000005
 40
0.250000000000001
 40
0.250000000000001
 40
0.5000000000000007
 40
0.5000000000000007
 40
0.7500000000000003
 40
0.7500000000000003
 40
1.0
 40
1.0
 40
1.0
 40
1.0
 10
578.7871299792412
 20
349.9258411670338
 30
0.0
 10
578.8419389019734
 20
349.9166977849792
 30
0.0
 10
578.9050737133269
 20
349.930702978148
 30
0.0
 10
579.047283280539
 20
349.9958605984006
 30
0.0
 10
579.1267656193581
 20
350.0474248146562
 30
0.0
 10
579.3857822955362
 20
350.2474169130858
 30
0.0
 10
579.5820723398955
 20
350.4369895468519
 30
0.0
 10
580.0157037760137
 20
350.885936301054
 30
0.0
 10
580.2540685642355
 20
351.147119338088
 30
0.0
 10
580.7610321054981
 20
351.7009072078317
 30
0.0
 10
581.0316676637706
 20
351.9959012616436
 30
0.0
 10
581.3191057465658
 20
352.2938107797025
 30
0.0
  0
LINE
  5
162
330
1F
100
AcDbEntity
  8
0
  6
Continuous
 62
     7
370
    15
100
AcDbLine
 10
581.3191055135
 20
370.9110065187
 30
0.0
 11
581.3191055135
 21
352.2938086475
 31
0.0
  0
SPLINE
  5
163
330
1F
100
AcDbEntity
  8
0
  6
Continuous
 62
     7
370
    15
100
AcDbSpline
210
0.0
220
0.0
230
1.0
 70
     8
 71
     3
 72
     8
 73
     4
 74
     0
 42
0.00000001
 43
0.00000001
 40
0.0
 40
0.0
 40
0.0
 40
0.0
 40
0.0000226150302116
 40
0.0000226150302116
 40
0.0000226150302116
 40
0.0000226150302116
 10
581.3333406187527
 20
370.9123851687154
 30
0.0
 10
581.3285892544062
 20
370.912400304364
 30
0.0
 10
581.3238424427541
 20
370.9125639792322
 30
0.0
 10
581.3191057465658
 20
370.9128768225985
 30
0.0
  0
SPLINE
  5
164
330
1F
100
AcDbEntity
  8
0
  6
Continuous
 62
     7
370
    15
100
AcDbSpline
210
0.0
220
0.0
230
1.0
 70
    24
 71
     3
 72
    22
 73
    18
 74
     0
 42
0.00000001
 43
0.00000001
 40
0.0
 40
0.0
 40
0.0
 40
0.0
 40
0.1250000000000001
 40
0.1250000000000001
 40
0.2500000000000001
 40
0.2500000000000001
 40
0.3750000000000001
 40
0.3750000000000001
 40
0.5000000000000001
 40
0.5000000000000001
 40
0.6250000000000001
 40
0.6250000000000001
 40
0.7500000000000001
 40
0.7500000000000001
 40
0.8750000000000001
 40
0.8750000000000001
 40
1.0
 40
1.0
 40
1.0
 40
1.0
 10
600.7422522875665
 20
370.9110077584759
 30
0.0
 10
600.1586627567675
 20
370.9110077584759
 30
0.0
 10
599.4949021670776
 20
370.9110077584759
 30
0.0
 10
598.039574389292
 20
370.9110077584759
 30
0.0
 10
597.2480662064183
 20
370.9110077584759
 30
0.0
 10
595.5761585694235
 20
370.9110077584759
 30
0.0
 10
594.6958269015993
 20
370.9110077584759
 30
0.0
 10
592.8895590402979
 20
370.9110077584759
 30
0.0
 10
591.9636960806564
 20
370.9110077584758
 30
0.0
 10
590.1118950814291
 20
370.9110077584758
 30
0.0
 10
589.1860321217875
 20
370.9110077584758
 30
0.0
 10
587.3797642604861
 20
370.9110077584758
 30
0.0
 10
586.499432592662
 20
370.9110077584758
 30
0.0
 10
584.8275249556672
 20
370.9110077584758
 30
0.0
 10
584.0360167727933
 20
370.9110077584758
 30
0.0
 10
582.5806889950079
 20
370.9110077584758
 30
0.0
 10
581.9169284053179
 20
370.9110077584758
 30
0.0
 10
581.3333388745189
 20
370.9110077584758
 30
0.0
  0
SPLINE
  5
165
330
1F
100
AcDbEntity
  8
0
  6
Continuous
 62
     7
370
    15
100
AcDbSpline
210
0.0
220
0.0
230
1.0
 70
     8
 71
     3
 72
     8
 73
     4
 74
     0
 42
0.00000001
 43
0.00000001
 40
0.0
 40
0.0
 40
0.0
 40
0.0
 40
0.0000226150302117
 40
0.0000226150302117
 40
0.0000226150302117
 40
0.0000226150302117
 10
600.7564854155196
 20
370.9128768225987
 30
0.0
 10
600.7517487193313
 20
370.9125639792322
 30
0.0
 10
600.7470019076792
 20
370.9124003043641
 30
0.0
 10
600.7422505433328
 20
370.9123851687155
 30
0.0
  0
LINE
  5
166
330
1F
100
AcDbEntity
  8
0
  6
Continuous
 62
     7
370
    15
100
AcDbLine
 10
600.7564856486
 20
352.2938086475
 30
0.0
 11
600.7564856486
 21
370.9110065187
 31
0.0
  0
SPLINE
  5
167
330
1F
100
AcDbEntity
  8
0
  6
Continuous
 62
     7
370
    15
100
AcDbSpline
210
0.0
220
0.0
230
1.0
 70
     8
 71
     3
 72
    16
 73
    12
 74
     0
 42
0.00000001
 43
0.00000001
 40
0.0
 40
0.0
 40
0.0
 40
0.0
 40
0.1249999999999993
 40
0.1249999999999993
 40
0.2499999999999986
 40
0.2499999999999986
 40
0.499999999999999
 40
0.499999999999999
 40
0.7499999999999994
 40
0.7499999999999994
 40
1.0
 40
1.0
 40
1.0
 40
1.0
 10
603.2884611828445
 20
349.9258411670339
 30
0.0
 10
603.2336522601122
 20
349.9166977849792
 30
0.0
 10
603.1705174487587
 20
349.9307029781481
 30
0.0
 10
603.0283078815467
 20
349.9958605984007
 30
0.0
 10
602.9488255427275
 20
350.0474248146563
 30
0.0
 10
602.6898088665495
 20
350.2474169130858
 30
0.0
 10
602.49351882219
 20
350.436989546852
 30
0.0
 10
602.059887386072
 20
350.885936301054
 30
0.0
 10
601.8215225978502
 20
351.1471193380881
 30
0.0
 10
601.3145590565874
 20
351.7009072078318
 30
0.0
 10
601.0439234983228
 20
351.9959012616626
 30
0.0
 10
600.7564854155197
 20
352.2938107797026
 30
0.0
  0
LINE
  5
168
330
1F
100
AcDbEntity
  8
0
  6
Continuous
 62
     7
370
    15
100
AcDbLine
 10
581.9715118782
 20
348.9110066379
 30
0.0
 11
600.1040792839
 21
348.9110066379
 31
0.0
  0
SPLINE
  5
169
330
1F
100
AcDbEntity
  8
0
  6
Continuous
 62
     7
370
    15
100
AcDbSpline
210
0.0
220
0.0
230
1.0
 70
     8
 71
     3
 72
    44
 73
    40
 74
     0
 42
0.00000001
 43
0.00000001
 40
0.0
 40
0.0
 40
0.0
 40
0.0
 40
0.0624999999999998
 40
0.0624999999999998
 40
0.1249999999999996
 40
0.1249999999999996
 40
0.1874999999999994
 40
0.1874999999999994
 40
0.2499999999999993
 40
0.2499999999999993
 40
0.2812499999999995
 40
0.2812499999999995
 40
0.3124999999999997
 40
0.3124999999999997
 40
0.3749999999999997
 40
0.3749999999999997
 40
0.4062499999999997
 40
0.4062499999999997
 40
0.4374999999999997
 40
0.4374999999999997
 40
0.4999999999999998
 40
0.4999999999999998
 40
0.5624999999999998
 40
0.5624999999999998
 40
0.6249999999999999
 40
0.6249999999999999
 40
0.6874999999999999
 40
0.6874999999999999
 40
0.7187499999999999
 40
0.7187499999999999
 40
0.7499999999999999
 40
0.7499999999999999
 40
0.8125
 40
0.8125
 40
0.8749999999999999
 40
0.8749999999999999
 40
0.9375
 40
0.9375
 40
1.0
 40
1.0
 40
1.0
 40
1.0
 10
581.333228699834
 20
475.8110077584757
 30
0.0
 10
581.4052171794724
 20
475.1849395776558
 30
0.0
 10
581.5231811719883
 20
474.5620979301513
 30
0.0
 10
581.8437137492425
 20
473.3489789846626
 30
0.0
 10
582.0465724143577
 20
472.7580839938101
 30
0.0
 10
582.5456555867163
 20
471.6104970989729
 30
0.0
 10
582.8454837696214
 20
471.0492334334107
 30
0.0
 10
583.5278104590521
 20
470.0032834848228
 30
0.0
 10
583.9120861957612
 20
469.516305369717
 30
0.0
 10
584.5542372400386
 20
468.8407189924002
 30
0.0
 10
584.7792853294771
 20
468.6247049143089
 30
0.0
 10
585.2523731021056
 20
468.2118695439584
 30
0.0
 10
585.501406421745
 20
468.0145376507975
 30
0.0
 10
586.2663427069324
 20
467.4662755078455
 30
0.0
 10
586.8047635375541
 20
467.1536476379126
 30
0.0
 10
587.657252331806
 20
466.7680102113384
 30
0.0
 10
587.9488745660468
 20
466.6533139880841
 30
0.0
 10
588.5477657823595
 20
466.4529420944546
 30
0.0
 10
588.8526190149244
 20
466.3682299056013
 30
0.0
 10
589.771175633167
 20
466.1639687674528
 30
0.0
 10
590.3936479877955
 20
466.0917055046933
 30
0.0
 10
591.6611947716384
 20
466.0901172223492
 30
0.0
 10
592.283214120779
 20
466.1609417753836
 30
0.0
 10
593.5050214665953
 20
466.429323622998
 30
0.0
 10
594.1107237609764
 20
466.6305560300601
 30
0.0
 10
595.2532376757986
 20
467.1440499854899
 30
0.0
 10
595.7940987051596
 20
467.4567059673561
 30
0.0
 10
596.5621363321769
 20
468.0052819852228
 30
0.0
 10
596.8112470251771
 20
468.202088666666
 30
0.0
 10
597.2848412578768
 20
468.6140670966893
 30
0.0
 10
597.5106880302828
 20
468.830127948537
 30
0.0
 10
598.1563906145514
 20
469.507600971417
 30
0.0
 10
598.5445866571456
 20
469.9981652421542
 30
0.0
 10
599.2355594387675
 20
471.0578137292082
 30
0.0
 10
599.52954398856
 20
471.6099707397699
 30
0.0
 10
600.0271714656756
 20
472.7534639997023
 30
0.0
 10
600.2307352467204
 20
473.3448331501396
 30
0.0
 10
600.5530778430095
 20
474.5644488926796
 30
0.0
 10
600.6703739785437
 20
475.1849395781471
 30
0.0
 10
600.7423624622513
 20
475.8110077584759
 30
0.0
  0
SPLINE
  5
16A
330
1F
100
AcDbEntity
  8
0
  6
Continuous
 62
     7
370
    15
100
AcDbSpline
210
0.0
220
0.0
230
1.0
 70
     8
 71
     3
 72
    44
 73
    40
 74
     0
 42
0.00000001
 43
0.00000001
 40
0.0
 40
0.0
 40
0.0
 40
0.0
 40
0.0625000000000005
 40
0.0625000000000005
 40
0.125000000000001
 40
0.125000000000001
 40
0.1875000000000015
 40
0.1875000000000015
 40
0.2500000000000019
 40
0.2500000000000019
 40
0.2812500000000019
 40
0.2812500000000019
 40
0.312500000000002
 40
0.312500000000002
 40
0.3750000000000019
 40
0.3750000000000019
 40
0.4375000000000019
 40
0.4375000000000019
 40
0.5000000000000018
 40
0.5000000000000018
 40
0.5625000000000017
 40
0.5625000000000017
 40
0.5937500000000017
 40
0.5937500000000017
 40
0.6250000000000016
 40
0.6250000000000016
 40
0.6875000000000013
 40
0.6875000000000013
 40
0.7187500000000013
 40
0.7187500000000013
 40
0.7500000000000012
 40
0.7500000000000012
 40
0.8125000000000009
 40
0.8125000000000009
 40
0.8750000000000007
 40
0.8750000000000007
 40
0.9375000000000003
 40
0.9375000000000003
 40
1.0
 40
1.0
 40
1.0
 40
1.0
 10
600.7423624622517
 20
370.9110077584759
 30
0.0
 10
600.6704216023176
 20
371.5366617613788
 30
0.0
 10
600.5530778507498
 20
372.1575665883654
 30
0.0
 10
600.2307352567537
 20
373.3771823354734
 30
0.0
 10
600.027171476654
 20
373.9685514881056
 30
0.0
 10
599.5295440011001
 20
375.1120447522842
 30
0.0
 10
599.2355594519182
 20
375.6642017648951
 30
0.0
 10
598.5445866712081
 20
376.7238502559136
 30
0.0
 10
598.1563906283506
 20
377.2144145292966
 30
0.0
 10
597.5106880437276
 20
377.891887555189
 30
0.0
 10
597.2848412711514
 20
378.1079484079929
 30
0.0
 10
596.8112470380154
 20
378.5199268398401
 30
0.0
 10
596.5621363447184
 20
378.7167335221836
 30
0.0
 10
595.7940987163747
 20
379.2653095427606
 30
0.0
 10
595.2532376859782
 20
379.5779655261553
 30
0.0
 10
594.1107237687955
 20
380.0914594841089
 30
0.0
 10
593.5050214729531
 20
380.2926918922055
 30
0.0
 10
592.283214124045
 20
380.5610737412022
 30
0.0
 10
591.6611947733026
 20
380.6318982946045
 30
0.0
 10
590.3936479861316
 20
380.6303100122562
 30
0.0
 10
589.7711756298975
 20
380.5580467491253
 30
0.0
 10
588.8526190093244
 20
380.3537856099281
 30
0.0
 10
588.5477657759467
 20
380.2690734206222
 30
0.0
 10
587.9488745583088
 20
380.0687015260076
 30
0.0
 10
587.6572523234421
 20
379.9540053021926
 30
0.0
 10
586.8047635274236
 20
379.5683678737299
 30
0.0
 10
586.2663426957671
 20
379.2557400022726
 30
0.0
 10
585.5014064092527
 20
378.7074778566154
 30
0.0
 10
585.252373089261
 20
378.5101459625077
 30
0.0
 10
584.7792853162377
 20
378.0973105903658
 30
0.0
 10
584.5542372266494
 20
377.881296511339
 30
0.0
 10
583.9120861820759
 20
377.2057101310881
 30
0.0
 10
583.5278104454086
 20
376.7187320138265
 30
0.0
 10
582.8454837563934
 20
375.6727820606503
 30
0.0
 10
582.5456555740982
 20
375.1115183929105
 30
0.0
 10
582.0465724033897
 20
373.9639314939751
 30
0.0
 10
581.8437137392491
 20
373.3730365010184
 30
0.0
 10
581.5231811643093
 20
372.1599175511837
 30
0.0
 10
581.4051695550047
 20
371.5366617619538
 30
0.0
 10
581.3332286998343
 20
370.9110077584758
 30
0.0
  0
SPLINE
  5
16B
330
1F
100
AcDbEntity
  8
0
  6
Continuous
 62
     7
370
    15
100
AcDbSpline
210
0.0
220
0.0
230
1.0
 70
     8
 71
     3
 72
    18
 73
    14
 74
     0
 42
0.00000001
 43
0.00000001
 40
0.0
 40
0.0
 40
0.0
 40
0.0
 40
0.2500000000000003
 40
0.2500000000000003
 40
0.5000000000000007
 40
0.5000000000000007
 40
0.750000000000001
 40
0.750000000000001
 40
0.8750000000000009
 40
0.8750000000000009
 40
0.9375000000000004
 40
0.9375000000000004
 40
1.0
 40
1.0
 40
1.0
 40
1.0
 10
581.3191057465658
 20
370.9128768225985
 30
0.0
 10
580.848050689697
 20
370.943988475931
 30
0.0
 10
580.321409592133
 20
370.9788950231747
 30
0.0
 10
579.1613405913865
 20
371.0562197071352
 30
0.0
 10
578.5201994957627
 20
371.0991604686711
 30
0.0
 10
577.1863601563655
 20
371.1890876718555
 30
0.0
 10
576.4891659763321
 20
371.2363680653827
 30
0.0
 10
575.3964840777704
 20
371.3110188186275
 30
0.0
 10
575.028489407538
 20
371.3362483882451
 30
0.0
 10
574.4741323392336
 20
371.3743972647771
 30
0.0
 10
574.288778878505
 20
371.3871761738679
 30
0.0
 10
573.91693156937
 20
371.41286132407
 30
0.0
 10
573.7284665723151
 20
371.4259066721659
 30
0.0
 10
573.5441538789829
 20
371.4386842944498
 30
0.0
  0
SPLINE
  5
16C
330
1F
100
AcDbEntity
  8
0
  6
Continuous
 62
     7
370
    15
100
AcDbSpline
210
0.0
220
0.0
230
1.0
 70
     8
 71
     3
 72
    58
 73
    54
 74
     0
 42
0.00000001
 43
0.00000001
 40
0.0
 40
0.0
 40
0.0
 40
0.0
 40
0.0156250000000003
 40
0.0156250000000003
 40
0.0312500000000005
 40
0.0312500000000005
 40
0.0625000000000007
 40
0.0625000000000007
 40
0.1250000000000014
 40
0.1250000000000014
 40
0.1562500000000015
 40
0.1562500000000015
 40
0.1875000000000017
 40
0.1875000000000017
 40
0.2500000000000019
 40
0.2500000000000019
 40
0.2812500000000021
 40
0.2812500000000021
 40
0.3125000000000022
 40
0.3125000000000022
 40
0.3750000000000022
 40
0.3750000000000022
 40
0.4062500000000021
 40
0.4062500000000021
 40
0.437500000000002
 40
0.437500000000002
 40
0.5000000000000018
 40
0.5000000000000018
 40
0.5625000000000016
 40
0.5625000000000016
 40
0.5937500000000014
 40
0.5937500000000014
 40
0.6250000000000013
 40
0.6250000000000013
 40
0.687500000000001
 40
0.687500000000001
 40
0.718750000000001
 40
0.718750000000001
 40
0.7500000000000009
 40
0.7500000000000009
 40
0.8125000000000006
 40
0.8125000000000006
 40
0.8437500000000006
 40
0.8437500000000006
 40
0.8750000000000004
 40
0.8750000000000004
 40
0.9375000000000004
 40
0.9375000000000004
 40
0.9687500000000003
 40
0.9687500000000003
 40
0.9843750000000002
 40
0.9843750000000002
 40
1.0
 40
1.0
 40
1.0
 40
1.0
 10
573.5441538789843
 20
371.4386842944499
 30
0.0
 10
573.5827281480397
 20
371.7155056710357
 30
0.0
 10
573.6174546517445
 20
371.9930007546142
 30
0.0
 10
573.7002473798761
 20
372.545655263977
 30
0.0
 10
573.747357647475
 20
372.820982068679
 30
0.0
 10
573.9055191500802
 20
373.6440155878683
 30
0.0
 10
574.0337464473366
 20
374.189959962564
 30
0.0
 10
574.4809120443748
 20
375.8002320752649
 30
0.0
 10
574.8621490283018
 20
376.8413180591324
 30
0.0
 10
575.5617380737137
 20
378.353116514878
 30
0.0
 10
575.8166946817321
 20
378.849234335302
 30
0.0
 10
576.3705397869685
 20
379.8215423436809
 30
0.0
 10
576.6661621216831
 20
380.2920757054236
 30
0.0
 10
577.6087293799261
 20
381.6571472402654
 30
0.0
 10
578.3108504737328
 20
382.505594650218
 30
0.0
 10
579.47880850945
 20
383.6823886571407
 30
0.0
 10
579.8873606841174
 20
384.0585874088656
 30
0.0
 10
580.7451862909309
 20
384.7769688901083
 30
0.0
 10
581.1898656633413
 20
385.1150793898956
 30
0.0
 10
582.5583346407716
 20
386.057206355717
 30
0.0
 10
583.5214209204755
 20
386.593744522329
 30
0.0
 10
585.0450179342578
 20
387.2561706712178
 30
0.0
 10
585.5677194331621
 20
387.453655263002
 30
0.0
 10
586.6341468676376
 20
387.7957865155925
 30
0.0
 10
587.1719587660751
 20
387.9387140224314
 30
0.0
 10
588.799028892093
 20
388.2840619797545
 30
0.0
 10
589.9017549180797
 20
388.4040675570735
 30
0.0
 10
592.146103979919
 20
388.4060522698362
 30
0.0
 10
593.2478720985827
 20
388.2879045853277
 30
0.0
 10
594.8710091842771
 20
387.9467137324076
 30
0.0
 10
595.407173816592
 20
387.8053963961992
 30
0.0
 10
596.4696730075921
 20
387.4672035889932
 30
0.0
 10
596.9966533305197
 20
387.2696568000358
 30
0.0
 10
598.5281159305483
 20
386.6074827322373
 30
0.0
 10
599.4955158681031
 20
386.0704635646369
 30
0.0
 10
600.869381767384
 20
385.1271612253324
 30
0.0
 10
601.3164333617706
 20
384.7878971774952
 30
0.0
 10
602.1735310096525
 20
384.0716440668771
 30
0.0
 10
602.5826815260903
 20
383.6958022447076
 30
0.0
 10
603.7544959509021
 20
382.5174668553384
 30
0.0
 10
604.4619298903835
 20
381.6645351951525
 30
0.0
 10
605.4139202846898
 20
380.2854482009306
 30
0.0
 10
605.7115469772956
 20
379.8106336634423
 30
0.0
 10
606.260995784111
 20
378.8450463500306
 30
0.0
 10
606.5141415400734
 20
378.3524116784112
 30
0.0
 10
607.2113017912228
 20
376.8461060201208
 30
0.0
 10
607.59395478025
 20
375.8032290538334
 30
0.0
 10
608.0429811336357
 20
374.18567284572
 30
0.0
 10
608.1704659565781
 20
373.6421280909974
 30
0.0
 10
608.3283562459109
 20
372.8202619113787
 30
0.0
 10
608.3754142228117
 20
372.5452118745071
 30
0.0
 10
608.458151121326
 20
371.9928763837572
 30
0.0
 10
608.4928772168606
 20
371.7154037470623
 30
0.0
 10
608.5314372831012
 20
371.4386842944501
 30
0.0
  0
SPLINE
  5
16D
330
1F
100
AcDbEntity
  8
0
  6
Continuous
 62
     7
370
    15
100
AcDbSpline
210
0.0
220
0.0
230
1.0
 70
     8
 71
     3
 72
    18
 73
    14
 74
     0
 42
0.00000001
 43
0.00000001
 40
0.0
 40
0.0
 40
0.0
 40
0.0
 40
0.2499999999999999
 40
0.2499999999999999
 40
0.4999999999999998
 40
0.4999999999999998
 40
0.7499999999999997
 40
0.7499999999999997
 40
0.8749999999999999
 40
0.8749999999999999
 40
0.9375
 40
0.9375
 40
1.0
 40
1.0
 40
1.0
 40
1.0
 10
600.7564854155196
 20
370.9128768225987
 30
0.0
 10
601.2275419613854
 20
370.9439885742744
 30
0.0
 10
601.754182778659
 20
370.9788951042395
 30
0.0
 10
602.9142450051183
 20
371.0562193356621
 30
0.0
 10
603.5553882648525
 20
371.0991602396171
 30
0.0
 10
604.889232445709
 20
371.1890877686674
 30
0.0
 10
605.5864207194354
 20
371.236367767184
 30
0.0
 10
606.679077129803
 20
371.3110167687016
 30
0.0
 10
607.0470900301508
 20
371.3362475827028
 30
0.0
 10
607.6014534021808
 20
371.3743968911217
 30
0.0
 10
607.7868085760304
 20
371.3871759179784
 30
0.0
 10
608.1586585168474
 20
371.4128612495453
 30
0.0
 10
608.3471252368836
 20
371.4259067171555
 30
0.0
 10
608.5314372831022
 20
371.4386842944501
 30
0.0
  0
SPLINE
  5
16E
330
1F
100
AcDbEntity
  8
0
  6
Continuous
 62
     7
370
    15
100
AcDbSpline
210
0.0
220
0.0
230
1.0
 70
     8
 71
     3
 72
    18
 73
    14
 74
     0
 42
0.00000001
 43
0.00000001
 40
0.0
 40
0.0
 40
0.0
 40
0.0
 40
0.2500000000000002
 40
0.2500000000000002
 40
0.5000000000000004
 40
0.5000000000000004
 40
0.7500000000000007
 40
0.7500000000000007
 40
0.875000000000001
 40
0.875000000000001
 40
0.9375000000000004
 40
0.9375000000000004
 40
1.0
 40
1.0
 40
1.0
 40
1.0
 10
600.7564854155193
 20
475.8091386943531
 30
0.0
 10
601.2275404723881
 20
475.7780270410206
 30
0.0
 10
601.7541815699519
 20
475.7431204937768
 30
0.0
 10
602.9142505706985
 20
475.6657958098164
 30
0.0
 10
603.5553916663223
 20
475.6228550482805
 30
0.0
 10
604.8892310057195
 20
475.5329278450963
 30
0.0
 10
605.586425185753
 20
475.4856474515692
 30
0.0
 10
606.6791070843145
 20
475.4109966983244
 30
0.0
 10
607.0471017545465
 20
475.3857671286979
 30
0.0
 10
607.601458822851
 20
475.3476182521631
 30
0.0
 10
607.7868122835807
 20
475.3348393430867
 30
0.0
 10
608.1586595927163
 20
475.3091541928876
 30
0.0
 10
608.3471245897636
 20
475.2961088447032
 30
0.0
 10
608.5314372831015
 20
475.2833312225018
 30
0.0
  0
SPLINE
  5
16F
330
1F
100
AcDbEntity
  8
0
  6
Continuous
 62
     7
370
    15
100
AcDbSpline
210
0.0
220
0.0
230
1.0
 70
     8
 71
     3
 72
    58
 73
    54
 74
     0
 42
0.00000001
 43
0.00000001
 40
0.0
 40
0.0
 40
0.0
 40
0.0
 40
0.0156249999999998
 40
0.0156249999999998
 40
0.0312499999999997
 40
0.0312499999999997
 40
0.0624999999999997
 40
0.0624999999999997
 40
0.1249999999999997
 40
0.1249999999999997
 40
0.1562499999999997
 40
0.1562499999999997
 40
0.1874999999999997
 40
0.1874999999999997
 40
0.2499999999999997
 40
0.2499999999999997
 40
0.2812499999999997
 40
0.2812499999999997
 40
0.3124999999999997
 40
0.3124999999999997
 40
0.3749999999999994
 40
0.3749999999999994
 40
0.4062499999999993
 40
0.4062499999999993
 40
0.4374999999999992
 40
0.4374999999999992
 40
0.4999999999999991
 40
0.4999999999999991
 40
0.562499999999999
 40
0.562499999999999
 40
0.593749999999999
 40
0.593749999999999
 40
0.624999999999999
 40
0.624999999999999
 40
0.687499999999999
 40
0.687499999999999
 40
0.718749999999999
 40
0.718749999999999
 40
0.7499999999999989
 40
0.7499999999999989
 40
0.8124999999999989
 40
0.8124999999999989
 40
0.8437499999999991
 40
0.8437499999999991
 40
0.8749999999999993
 40
0.8749999999999993
 40
0.9374999999999997
 40
0.9374999999999997
 40
0.9687499999999999
 40
0.9687499999999999
 40
0.984375
 40
0.984375
 40
1.0
 40
1.0
 40
1.0
 40
1.0
 10
608.5314372831009
 20
475.2833312225017
 30
0.0
 10
608.4928641495455
 20
475.0065179946302
 30
0.0
 10
608.4581315308745
 20
474.728988116005
 30
0.0
 10
608.3753696557993
 20
474.1765263725447
 30
0.0
 10
608.3282982512595
 20
473.9014246208999
 30
0.0
 10
608.1703688172155
 20
473.0794360517677
 30
0.0
 10
608.0428593832326
 20
472.5358532575245
 30
0.0
 10
607.5937935728838
 20
470.9183074532714
 30
0.0
 10
607.2111248513052
 20
469.8754661027223
 30
0.0
 10
606.5139365586892
 20
468.3691915149822
 30
0.0
 10
606.2607817187675
 20
467.8765670801813
 30
0.0
 10
605.711315011903
 20
466.911000118244
 30
0.0
 10
605.4136785998337
 20
466.4361946444426
 30
0.0
 10
604.4616690818156
 20
465.057147648412
 30
0.0
 10
603.7542241585087
 20
464.204241041534
 30
0.0
 10
602.582394646998
 20
463.0259419636034
 30
0.0
 10
602.1732393350944
 20
462.6501120320663
 30
0.0
 10
601.316132346848
 20
461.9338824738851
 30
0.0
 10
600.8690799839993
 20
461.5946329701125
 30
0.0
 10
599.4952107061137
 20
460.6513706721956
 30
0.0
 10
598.5278095587473
 20
460.1143763390309
 30
0.0
 10
596.9963460762202
 20
459.4522378599505
 30
0.0
 10
596.4693660891403
 20
459.2547030343101
 30
0.0
 10
595.4068737925942
 20
458.9165348314115
 30
0.0
 10
594.8707127274002
 20
458.7752291197316
 30
0.0
 10
593.247586611073
 20
458.4340716256808
 30
0.0
 10
592.1458196708563
 20
458.3159441863978
 30
0.0
 10
589.9014994129271
 20
458.3179675026075
 30
0.0
 10
588.7987871789295
 20
458.4379886490245
 30
0.0
 10
587.1717371953916
 20
458.7833566218384
 30
0.0
 10
586.6339319172303
 20
458.9262902259949
 30
0.0
 10
585.5675175730115
 20
459.2684327535021
 30
0.0
 10
585.0448264267526
 20
459.4659209734107
 30
0.0
 10
583.5212542496666
 20
460.128357734319
 30
0.0
 10
582.5581832302057
 20
460.664900636079
 30
0.0
 10
581.1897356525254
 20
461.6070320169972
 30
0.0
 10
580.7450622520793
 20
461.9451443431036
 30
0.0
 10
579.8872526074431
 20
462.6635247774017
 30
0.0
 10
579.4787078762458
 20
463.039722556561
 30
0.0
 10
578.3107708218357
 20
464.2165125188295
 30
0.0
 10
577.6086619367392
 20
465.0649557464233
 30
0.0
 10
576.6661108280729
 20
466.4300192004828
 30
0.0
 10
576.3704935060318
 20
466.9005495591231
 30
0.0
 10
575.8166577055462
 20
467.8728509593554
 30
0.0
 10
575.5617059688865
 20
468.3689639834697
 30
0.0
 10
574.8621291050424
 20
469.8807493054244
 30
0.0
 10
574.4808984098527
 20
470.9218258186244
 30
0.0
 10
574.0337398204986
 20
472.5320827791356
 30
0.0
 10
573.9055144729198
 20
473.0780218455135
 30
0.0
 10
573.7473552309028
 20
473.9010472347515
 30
0.0
 10
573.700245605751
 20
474.1763713100203
 30
0.0
 10
573.6174539366901
 20
474.7290203209773
 30
0.0
 10
573.5827277614579
 20
475.0065126201487
 30
0.0
 10
573.5441538789838
 20
475.2833312225016
 30
0.0
  0
SPLINE
  5
170
330
1F
100
AcDbEntity
  8
0
  6
Continuous
 62
     7
370
    15
100
AcDbSpline
210
0.0
220
0.0
230
1.0
 70
     8
 71
     3
 72
    18
 73
    14
 74
     0
 42
0.00000001
 43
0.00000001
 40
0.0
 40
0.0
 40
0.0
 40
0.0
 40
0.2500000000000004
 40
0.2500000000000004
 40
0.5000000000000008
 40
0.5000000000000008
 40
0.7500000000000011
 40
0.7500000000000011
 40
0.8750000000000011
 40
0.8750000000000011
 40
0.9375000000000006
 40
0.9375000000000006
 40
1.0
 40
1.0
 40
1.0
 40
1.0
 10
581.3191057465655
 20
475.809138694353
 30
0.0
 10
580.8480492006997
 20
475.7780269426771
 30
0.0
 10
580.3214083834262
 20
475.7431204127121
 30
0.0
 10
579.161346156967
 20
475.6657961812895
 30
0.0
 10
578.5202028972329
 20
475.6228552773346
 30
0.0
 10
577.1863587163766
 20
475.5329277482842
 30
0.0
 10
576.4891704426503
 20
475.4856477497675
 30
0.0
 10
575.3965140322829
 20
475.4109987482498
 30
0.0
 10
575.0285011319343
 20
475.3857679342601
 30
0.0
 10
574.4741377599041
 20
475.3476186258449
 30
0.0
 10
574.2887825860554
 20
475.3348395989746
 30
0.0
 10
573.9169326452386
 20
475.3091542674089
 30
0.0
 10
573.7284659251965
 20
475.2961087998816
 30
0.0
 10
573.544153878984
 20
475.2833312225015
 30
0.0
  0
SPLINE
  5
171
330
1F
100
AcDbEntity
  8
0
  6
Continuous
 62
     7
370
    15
100
AcDbSpline
210
0.0
220
0.0
230
1.0
 70
     8
 71
     3
 72
    16
 73
    12
 74
     0
 42
0.00000001
 43
0.00000001
 40
0.0
 40
0.0
 40
0.0
 40
0.0
 40
0.2499999999999999
 40
0.2499999999999999
 40
0.3750000000000002
 40
0.3750000000000002
 40
0.5000000000000006
 40
0.5000000000000006
 40
0.7500000000000002
 40
0.7500000000000002
 40
1.0
 40
1.0
 40
1.0
 40
1.0
 10
608.5314372831008
 20
492.6363641271009
 30
0.0
 10
607.8047551845553
 20
492.8749195385562
 30
0.0
 10
607.0850238795847
 20
493.0906444896902
 30
0.0
 10
606.0167408028904
 20
493.3823532180149
 30
0.0
 10
605.6625567417886
 20
493.4742667893908
 30
0.0
 10
604.9584970152732
 20
493.6477582832192
 30
0.0
 10
604.6126619258757
 20
493.728310317873
 30
0.0
 10
603.6060245937216
 20
493.9505540329469
 30
0.0
 10
602.9705135617053
 20
494.0742042348021
 30
0.0
 10
601.7772371742908
 20
494.2820580132981
 30
0.0
 10
601.2361563124575
 20
494.3633952105795
 30
0.0
 10
600.7564854155191
 20
494.4282047372491
 30
0.0
  0
LINE
  5
172
330
1F
100
AcDbEntity
  8
0
  6
Continuous
 62
     7
370
    15
100
AcDbLine
 10
608.531436585
 20
492.6363645876
 30
0.0
 11
608.531436585
 21
475.2833328033
 31
0.0
  0
SPLINE
  5
173
330
1F
100
AcDbEntity
  8
0
  6
Continuous
 62
     7
370
    15
100
AcDbSpline
210
0.0
220
0.0
230
1.0
 70
     8
 71
     3
 72
    10
 73
     6
 74
     0
 42
0.00000001
 43
0.00000001
 40
0.0
 40
0.0
 40
0.0
 40
0.0
 40
0.5
 40
0.5
 40
1.0
 40
1.0
 40
1.0
 40
1.0
 10
578.7871299792412
 20
349.9258411670338
 30
0.0
 10
577.8409984649999
 20
350.0836775461732
 30
0.0
 10
576.8478555937364
 20
350.2686587011351
 30
0.0
 10
574.8479017528551
 20
350.6854738739868
 30
0.0
 10
573.8349835470901
 20
350.9180362159566
 30
0.0
 10
572.8096412812772
 20
351.1769590300764
 30
0.0
  0
LWPOLYLINE
  5
174
330
1F
100
AcDbEntity
  8
0
  6
Continuous
 62
     7
370
    15
100
AcDbPolyline
 90
        9
 70
   128
 43
0.0
 10
572.8096409516
 20
351.1769591654
 10
572.8237542139
 20
351.2328459705
 10
572.865551971
 20
351.398368069
 10
572.9334286229
 20
351.6671626652
 10
573.0247746037
 20
352.0288958038
 10
573.1360806898
 20
352.4696721519
 10
573.2630683855
 20
352.9725416387
 10
573.4008575605
 20
353.5181923593
 10
573.5441545771
 20
354.0856509293
  0
SPLINE
  5
175
330
1F
100
AcDbEntity
  8
0
  6
Continuous
 62
     7
370
    15
100
AcDbSpline
210
0.0
220
0.0
230
1.0
 70
     8
 71
     3
 72
    16
 73
    12
 74
     0
 42
0.00000001
 43
0.00000001
 40
0.0
 40
0.0
 40
0.0
 40
0.0
 40
0.2499999999999999
 40
0.2499999999999999
 40
0.3750000000000002
 40
0.3750000000000002
 40
0.5000000000000006
 40
0.5000000000000006
 40
0.7500000000000002
 40
0.7500000000000002
 40
1.0
 40
1.0
 40
1.0
 40
1.0
 10
573.5441538789843
 20
354.0856513898507
 30
0.0
 10
574.2708359775298
 20
353.8470959783954
 30
0.0
 10
574.9905672825004
 20
353.6313710272614
 30
0.0
 10
576.0588503591948
 20
353.3396622989367
 30
0.0
 10
576.4130344202964
 20
353.2477487275609
 30
0.0
 10
577.1170941468118
 20
353.0742572337324
 30
0.0
 10
577.4629292362094
 20
352.9937051990786
 30
0.0
 10
578.4695665683635
 20
352.7714614840048
 30
0.0
 10
579.1050776003799
 20
352.6478112821495
 30
0.0
 10
580.2983539877943
 20
352.4399575036535
 30
0.0
 10
580.8394348496275
 20
352.3586203063721
 30
0.0
 10
581.3191057465658
 20
352.2938107797025
 30
0.0
  0
SPLINE
  5
176
330
1F
100
AcDbEntity
  8
0
  6
Continuous
 62
     7
370
    15
100
AcDbSpline
210
0.0
220
0.0
230
1.0
 70
     8
 71
     3
 72
    10
 73
     6
 74
     0
 42
0.00000001
 43
0.00000001
 40
0.0
 40
0.0
 40
0.0
 40
0.0
 40
0.5
 40
0.5
 40
1.0
 40
1.0
 40
1.0
 40
1.0
 10
603.2884611828439
 20
496.7961743499179
 30
0.0
 10
604.2345926970851
 20
496.6383379707783
 30
0.0
 10
605.2277355683487
 20
496.4533568158166
 30
0.0
 10
607.2276894092299
 20
496.0365416429648
 30
0.0
 10
608.2406076149949
 20
495.803979300995
 30
0.0
 10
609.265949880808
 20
495.5450564868752
 30
0.0
  0
LWPOLYLINE
  5
177
330
1F
100
AcDbEntity
  8
0
  6
Continuous
 62
     7
370
    15
100
AcDbPolyline
 90
        9
 70
   128
 43
0.0
 10
609.2659502105
 20
495.5450563515
 10
609.2518369482
 20
495.4891695465
 10
609.2100391911
 20
495.3236474479
 10
609.1421625392
 20
495.0548528517
 10
609.0508165584
 20
494.6931197132
 10
608.9395104722
 20
494.2523433651
 10
608.8125227765
 20
493.7494738782
 10
608.6747336016
 20
493.2038231576
 10
608.531436585
 20
492.6363645876
  0
LINE
  5
178
330
1F
100
AcDbEntity
  8
0
  6
Continuous
 62
     7
370
    15
100
AcDbLine
 10
573.5441545771
 20
354.0856509293
 30
0.0
 11
573.5441545771
 21
371.4386827136
 31
0.0
  0
LINE
  5
179
330
1F
100
AcDbEntity
  8
0
  6
Continuous
 62
     7
370
    15
100
AcDbLine
 10
608.531436585
 20
371.4386827136
 30
0.0
 11
608.531436585
 21
354.0856509293
 31
0.0
  0
SPLINE
  5
17A
330
1F
100
AcDbEntity
  8
0
  6
Continuous
 62
     7
370
    15
100
AcDbSpline
210
0.0
220
0.0
230
1.0
 70
     8
 71
     3
 72
    16
 73
    12
 74
     0
 42
0.00000001
 43
0.00000001
 40
0.0
 40
0.0
 40
0.0
 40
0.0
 40
0.2500000000000004
 40
0.2500000000000004
 40
0.5000000000000008
 40
0.5000000000000008
 40
0.6250000000000006
 40
0.6250000000000006
 40
0.7500000000000002
 40
0.7500000000000002
 40
1.0
 40
1.0
 40
1.0
 40
1.0
 10
600.7564854155197
 20
352.2938107797026
 30
0.0
 10
601.236175353007
 20
352.3586228789881
 30
0.0
 10
601.7776495466186
 20
352.4400259985868
 30
0.0
 10
602.9705616309352
 20
352.6478229916475
 30
0.0
 10
603.6057165171832
 20
352.7714080603473
 30
0.0
 10
604.6114942634159
 20
352.9934401223929
 30
0.0
 10
604.9564224130554
 20
353.0737611273173
 30
0.0
 10
605.6612013191118
 20
353.2473996947409
 30
0.0
 10
606.0156887260536
 20
353.3393822595942
 30
0.0
 10
607.0847140283868
 20
353.6312719547125
 30
0.0
 10
607.8047180309128
 20
353.8470837815867
 30
0.0
 10
608.5314372831012
 20
354.0856513898508
 30
0.0
  0
SPLINE
  5
17B
330
1F
100
AcDbEntity
  8
0
  6
Continuous
 62
     7
370
    15
100
AcDbSpline
210
0.0
220
0.0
230
1.0
 70
     8
 71
     3
 72
    10
 73
     6
 74
     0
 42
0.00000001
 43
0.00000001
 40
0.0
 40
0.0
 40
0.0
 40
0.0
 40
0.4999999999999996
 40
0.4999999999999996
 40
1.0
 40
1.0
 40
1.0
 40
1.0
 10
609.2659498808084
 20
351.1769590300765
 30
0.0
 10
608.2409141095949
 20
350.9181136129849
 30
0.0
 10
607.2279715532976
 20
350.68553197412
 30
0.0
 10
605.227355356463
 20
350.2685801624872
 30
0.0
 10
604.23428951334
 20
350.0836269681893
 30
0.0
 10
603.2884611828445
 20
349.9258411670339
 30
0.0
  0
LWPOLYLINE
  5
17C
330
1F
100
AcDbEntity
  8
0
  6
Continuous
 62
     7
370
    15
100
AcDbPolyline
 90
        9
 70
   128
 43
0.0
 10
609.2659502105
 20
351.1769591654
 10
609.2518369482
 20
351.2328459705
 10
609.2100391911
 20
351.398368069
 10
609.1421625392
 20
351.6671626652
 10
609.0508165584
 20
352.0288958038
 10
608.9395104722
 20
352.4696721519
 10
608.8125227765
 20
352.9725416387
 10
608.6747336016
 20
353.5181923593
 10
608.531436585
 20
354.0856509293
  0
SPLINE
  5
17D
330
1F
100
AcDbEntity
  8
0
  6
Continuous
 62
     7
370
    15
100
AcDbSpline
210
0.0
220
0.0
230
1.0
 70
     8
 71
     3
 72
    10
 73
     6
 74
     0
 42
0.00000001
 43
0.00000001
 40
0.0
 40
0.0
 40
0.0
 40
0.0
 40
0.5
 40
0.5
 40
1.0
 40
1.0
 40
1.0
 40
1.0
 10
572.8096412812766
 20
495.5450564868751
 30
0.0
 10
573.8346770524903
 20
495.8039019039667
 30
0.0
 10
574.8476196087875
 20
496.0364835428316
 30
0.0
 10
576.848235805622
 20
496.4534353544644
 30
0.0
 10
577.8413016487451
 20
496.6383885487624
 30
0.0
 10
578.7871299792406
 20
496.7961743499177
 30
0.0
  0
SPLINE
  5
17E
330
1F
100
AcDbEntity
  8
0
  6
Continuous
 62
     7
370
    15
100
AcDbSpline
210
0.0
220
0.0
230
1.0
 70
     8
 71
     3
 72
    16
 73
    12
 74
     0
 42
0.00000001
 43
0.00000001
 40
0.0
 40
0.0
 40
0.0
 40
0.0
 40
0.2499999999999998
 40
0.2499999999999998
 40
0.4999999999999997
 40
0.4999999999999997
 40
0.6249999999999996
 40
0.6249999999999996
 40
0.7499999999999996
 40
0.7499999999999996
 40
1.0
 40
1.0
 40
1.0
 40
1.0
 10
581.3191057465654
 20
494.428204737249
 30
0.0
 10
580.8394158090781
 20
494.3633926379635
 30
0.0
 10
580.2979416154665
 20
494.2819895183648
 30
0.0
 10
579.1050295311499
 20
494.0741925253042
 30
0.0
 10
578.4698746449019
 20
493.9506074566044
 30
0.0
 10
577.4640968986693
 20
493.7285753945587
 30
0.0
 10
577.1191687490297
 20
493.6482543896344
 30
0.0
 10
576.4143898429733
 20
493.4746158222107
 30
0.0
 10
576.0599024360315
 20
493.3826332573574
 30
0.0
 10
574.9908771336982
 20
493.0907435622391
 30
0.0
 10
574.2708731311723
 20
492.8749317353649
 30
0.0
 10
573.5441538789838
 20
492.6363641271008
 30
0.0
  0
LWPOLYLINE
  5
17F
330
1F
100
AcDbEntity
  8
0
  6
Continuous
 62
     7
370
    15
100
AcDbPolyline
 90
        9
 70
   128
 43
0.0
 10
572.8096409516
 20
495.5450563515
 10
572.8237542139
 20
495.4891695465
 10
572.865551971
 20
495.3236474479
 10
572.9334286229
 20
495.0548528517
 10
573.0247746037
 20
494.6931197132
 10
573.1360806898
 20
494.2523433651
 10
573.2630683855
 20
493.7494738782
 10
573.4008575605
 20
493.2038231576
 10
573.5441545771
 20
492.6363645876
  0
LINE
  5
180
330
1F
100
AcDbEntity
  8
0
  6
Continuous
 62
     7
370
    15
100
AcDbLine
 10
573.5441545771
 20
475.2833328033
 30
0.0
 11
573.5441545771
 21
492.6363645876
 31
0.0
  0
ARC
  5
181
330
1F
100
AcDbEntity
  8
0
  6
Continuous
 62
     7
370
    15
100
AcDbCircle
 10
591.037795581
 20
423.3610077585
 30
0.0
 40
74.45000000000002
100
AcDbArc
 50
104.1722326151
 51
255.8277673849
  0
ARC
  5
182
330
1F
100
AcDbEntity
  8
0
  6
Continuous
 62
     7
370
    15
100
AcDbCircle
 10
591.037795581
 20
423.3610077585
 30
0.0
 40
71.45
100
AcDbArc
 50
104.1722326151
 51
255.8277673849
  0
ARC
  5
183
330
1F
100
AcDbEntity
  8
0
  6
Continuous
 62
     7
370
    15
100
AcDbCircle
 10
591.037795581
 20
423.3610077585
 30
0.0
 40
74.45000000000002
100
AcDbArc
 50
284.1722326151
 51
75.8277673849
  0
ARC
  5
184
330
1F
100
AcDbEntity
  8
0
  6
Continuous
 62
     7
370
    15
100
AcDbCircle
 10
591.037795581
 20
423.3610077585
 30
0.0
 40
71.45000000000003
100
AcDbArc
 50
284.1722326151
 51
75.8277673849
  0
CIRCLE
  5
185
330
1F
100
AcDbEntity
  8
0
  6
Continuous
 62
     7
370
    15
100
AcDbCircle
 10
525.2768649307
 20
489.1219384088
 30
0.0
 40
5.5
  0
CIRCLE
  5
186
330
1F
100
AcDbEntity
  8
0
  6
Continuous
 62
     7
370
    15
100
AcDbCircle
 10
525.2768649307
 20
357.6000771081
 30
0.0
 40
5.499999999999943
  0
CIRCLE
  5
187
330
1F
100
AcDbEntity
  8
0
  6
Continuous
 62
     7
370
    15
100
AcDbCircle
 10
656.7987262314
 20
357.6000771081
 30
0.0
 40
5.5
  0
CIRCLE
  5
188
330
1F
100
AcDbEntity
  8
0
  6
Continuous
 62
     7
370
    15
100
AcDbCircle
 10
656.7987262314
 20
489.1219384088
 30
0.0
 40
5.5
  0
CIRCLE
  5
189
330
1F
100
AcDbEntity
  8
0
  6
Continuous
 62
     7
370
    15
100
AcDbCircle
 10
591.037795581
 20
423.3610077585
 30
0.0
 40
75.49999999999972
  0
CIRCLE
  5
18A
330
1F
100
AcDbEntity
  8
0
  6
Continuous
 62
     7
370
    15
100
AcDbCircle
 10
591.037795581
 20
423.3610077585
 30
0.0
 40
102.0
  0
CIRCLE
  5
18B
330
1F
100
AcDbEntity
  8
0
  6
Continuous
 62
     7
370
    15
100
AcDbCircle
 10
591.037795581
 20
423.3610077585
 30
0.0
 40
75.0
  0
CIRCLE
  5
18C
330
1F
100
AcDbEntity
  8
0
  6
Continuous
 62
     7
370
    15
100
AcDbCircle
 10
525.2768649307
 20
357.6000771081
 30
0.0
 40
4.0
  0
ARC
  5
18D
330
1F
100
AcDbEntity
  8
0
  6
Continuous
 62
     7
370
    15
100
AcDbCircle
 10
591.037795581
 20
423.3610077585
 30
0.0
 40
105.4999999999999
100
AcDbArc
 50
110.6355827602
 51
165.7179136818
  0
LINE
  5
18E
330
1F
100
AcDbEntity
  8
0
  6
Continuous
 62
     7
370
    15
100
AcDbLine
 10
481.0377961771
 20
443.3610073114
 30
0.0
 11
481.0377961771
 21
403.3610082055
 31
0.0
  0
ARC
  5
18F
330
1F
100
AcDbEntity
  8
0
  6
Continuous
 62
     7
370
    15
100
AcDbCircle
 10
481.0457504141
 20
395.3610077585
 30
0.0
 40
8.000000000000057
100
AcDbArc
 50
14.2820863182
 51
90.0
  0
ARC
  5
190
330
1F
100
AcDbEntity
  8
0
  6
Continuous
 62
     7
370
    15
100
AcDbCircle
 10
481.0457504141
 20
451.3610077585
 30
0.0
 40
8.000000000000014
100
AcDbArc
 50
270.0
 51
345.7179136818
  0
LINE
  5
191
330
1F
100
AcDbEntity
  8
0
  6
Continuous
 62
     7
370
    15
100
AcDbLine
 10
701.0298377649
 20
403.3610082055
 30
0.0
 11
701.037794985
 21
403.3610082055
 31
0.0
  0
CIRCLE
  5
192
330
1F
100
AcDbEntity
  8
0
  6
Continuous
 62
     7
370
    15
100
AcDbCircle
 10
656.7987262314
 20
489.1219384088
 30
0.0
 40
4.0
  0
ARC
  5
193
330
1F
100
AcDbEntity
  8
0
  6
Continuous
 62
     7
370
    15
100
AcDbCircle
 10
701.029840748
 20
451.3610077585
 30
0.0
 40
8.000000000000043
100
AcDbArc
 50
194.2820863182
 51
270.0
  0
LINE
  5
194
330
1F
100
AcDbEntity
  8
0
  6
Continuous
 62
     7
370
    15
100
AcDbLine
 10
612.0377952979
 20
313.3610083545
 30
0.0
 11
612.0377952979
 21
313.6283798898
 31
0.0
  0
LINE
  5
195
330
1F
100
AcDbEntity
  8
0
  6
Continuous
 62
     7
370
    15
100
AcDbLine
 10
559.0377940611
 20
533.3610071624
 30
0.0
 11
559.0377940611
 21
529.5789434398
 31
0.0
  0
ARC
  5
196
330
1F
100
AcDbEntity
  8
0
  6
Continuous
 62
     7
370
    15
100
AcDbCircle
 10
591.037795581
 20
423.3610077585
 30
0.0
 40
105.5000000000001
100
AcDbArc
 50
284.8036061155
 51
345.7179136818
  0
ARC
  5
197
330
1F
100
AcDbEntity
  8
0
  6
Continuous
 62
     7
370
    15
100
AcDbCircle
 10
701.029840748
 20
395.3610077585
 30
0.0
 40
8.000000000000028
100
AcDbArc
 50
90.0
 51
165.7179136818
  0
LINE
  5
198
330
1F
100
AcDbEntity
  8
0
  6
Continuous
 62
     7
370
    15
100
AcDbLine
 10
570.0377958642
 20
313.3610083545
 30
0.0
 11
612.0377952979
 21
313.3610083545
 31
0.0
  0
LINE
  5
199
330
1F
100
AcDbEntity
  8
0
  6
Continuous
 62
     7
370
    15
100
AcDbLine
 10
623.037797101
 20
529.5789434398
 30
0.0
 11
623.037797101
 21
533.3610071624
 31
0.0
  0
ARC
  5
19A
330
1F
100
AcDbEntity
  8
0
  6
Continuous
 62
     7
370
    15
100
AcDbCircle
 10
620.037795581
 20
313.6283781536
 30
0.0
 40
8.000000000000098
100
AcDbArc
 50
104.8036061155
 51
180.0
  0
ARC
  5
19B
330
1F
100
AcDbEntity
  8
0
  6
Continuous
 62
     7
370
    15
100
AcDbCircle
 10
591.037795581
 20
423.3610077585
 30
0.0
 40
105.5000000000001
100
AcDbArc
 50
14.2820863182
 51
69.3644172398
  0
LINE
  5
19C
330
1F
100
AcDbEntity
  8
0
  6
Continuous
 62
     7
370
    15
100
AcDbLine
 10
701.037794985
 20
443.3610073114
 30
0.0
 11
701.0298377649
 21
443.3610073114
 31
0.0
  0
ARC
  5
19D
330
1F
100
AcDbEntity
  8
0
  6
Continuous
 62
     7
370
    15
100
AcDbCircle
 10
562.037795581
 20
313.6283781536
 30
0.0
 40
8.00000000000007
100
AcDbArc
 50
0.0
 51
75.1963938845
  0
LINE
  5
19E
330
1F
100
AcDbEntity
  8
0
  6
Continuous
 62
     7
370
    15
100
AcDbLine
 10
481.0457533972
 20
443.3610073114
 30
0.0
 11
481.0377961771
 21
443.3610073114
 31
0.0
  0
LINE
  5
19F
330
1F
100
AcDbEntity
  8
0
  6
Continuous
 62
     7
370
    15
100
AcDbLine
 10
481.0377961771
 20
403.3610082055
 30
0.0
 11
481.0457533972
 21
403.3610082055
 31
0.0
  0
ARC
  5
1A0
330
1F
100
AcDbEntity
  8
0
  6
Continuous
 62
     7
370
    15
100
AcDbCircle
 10
631.037795581
 20
529.5789440969
 30
0.0
 40
8.000000000000037
100
AcDbArc
 50
180.0
 51
249.3644172398
  0
CIRCLE
  5
1A1
330
1F
100
AcDbEntity
  8
0
  6
Continuous
 62
     7
370
    15
100
AcDbCircle
 10
656.7987262314
 20
357.6000771081
 30
0.0
 40
4.0
  0
ARC
  5
1A2
330
1F
100
AcDbEntity
  8
0
  6
Continuous
 62
     7
370
    15
100
AcDbCircle
 10
551.037795581
 20
529.5789440969
 30
0.0
 40
8.000000000000037
100
AcDbArc
 50
290.6355827602
 51
0.0
  0
CIRCLE
  5
1A3
330
1F
100
AcDbEntity
  8
0
  6
Continuous
 62
     7
370
    15
100
AcDbCircle
 10
525.2768649307
 20
489.1219384088
 30
0.0
 40
4.0
  0
LINE
  5
1A4
330
1F
100
AcDbEntity
  8
0
  6
Continuous
 62
     7
370
    15
100
AcDbLine
 10
570.0377958642
 20
313.6283798898
 30
0.0
 11
570.0377958642
 21
313.3610083545
 31
0.0
  0
ARC
  5
1A5
330
1F
100
AcDbEntity
  8
0
  6
Continuous
 62
     7
370
    15
100
AcDbCircle
 10
591.037795581
 20
423.3610077585
 30
0.0
 40
105.5
100
AcDbArc
 50
194.2820863182
 51
255.1963938845
  0
LINE
  5
1A6
330
1F
100
AcDbEntity
  8
0
  6
Continuous
 62
     7
370
    15
100
AcDbLine
 10
701.037794985
 20
403.3610082055
 30
0.0
 11
701.037794985
 21
443.3610073114
 31
0.0
  0
ARC
  5
1A7
330
1F
100
AcDbEntity
  8
0
  6
Continuous
 62
     7
370
    15
100
AcDbCircle
 10
238.1250709165
 20
603.9610077585
 30
0.0
 40
2.000000000000066
100
AcDbArc
 50
249.7066760883
 51
270.0
  0
ARC
  5
1A8
330
1F
100
AcDbEntity
  8
0
  6
Continuous
 62
     7
370
    15
100
AcDbCircle
 10
325.874980069
 20
603.9610077585
 30
0.0
 40
2.000000000000027
100
AcDbArc
 50
270.0
 51
290.1615189104
  0
LINE
  5
1A9
330
1F
100
AcDbEntity
  8
0
  6
Continuous
 62
     7
370
    15
100
AcDbLine
 10
301.2500253884
 20
724.1610034193
 30
0.0
 11
301.2500253884
 21
727.6610179628
 31
0.0
  0
LINE
  5
1AA
330
1F
100
AcDbEntity
  8
0
  6
Continuous
 62
     7
370
    15
100
AcDbLine
 10
262.750025597
 20
726.1610074724
 30
0.0
 11
262.750025597
 21
724.1610034193
 31
0.0
  0
LINE
  5
1AB
330
1F
100
AcDbEntity
  8
0
  6
Continuous
 62
     7
370
    15
100
AcDbLine
 10
301.2500253884
 20
727.6610179628
 30
0.0
 11
298.3500247268
 21
730.5610223497
 31
0.0
  0
LINE
  5
1AC
330
1F
100
AcDbEntity
  8
0
  6
Continuous
 62
     7
370
    15
100
AcDbLine
 10
294.500025679
 20
722.3610027517
 30
0.0
 11
294.500025679
 21
723.1610162939
 31
0.0
  0
LINE
  5
1AD
330
1F
100
AcDbEntity
  8
0
  6
Continuous
 62
     7
370
    15
100
AcDbLine
 10
269.5000253065
 20
723.1610162939
 30
0.0
 11
269.5000253065
 21
722.3610027517
 31
0.0
  0
LINE
  5
1AE
330
1F
100
AcDbEntity
  8
0
  6
Continuous
 62
     7
370
    15
100
AcDbLine
 10
269.5150251879
 20
723.5609932626
 30
0.0
 11
269.5150251879
 21
723.1610162939
 31
0.0
  0
LINE
  5
1AF
330
1F
100
AcDbEntity
  8
0
  6
Continuous
 62
     7
370
    15
100
AcDbLine
 10
294.4850257976
 20
723.1610162939
 30
0.0
 11
294.4850257976
 21
723.5609932626
 31
0.0
  0
LINE
  5
1B0
330
1F
100
AcDbEntity
  8
0
  6
Continuous
 62
     7
370
    15
100
AcDbLine
 10
293.8500258518
 20
723.5609932626
 30
0.0
 11
293.8500258518
 21
724.1610034193
 31
0.0
  0
LINE
  5
1B1
330
1F
100
AcDbEntity
  8
0
  6
Continuous
 62
     7
370
    15
100
AcDbLine
 10
270.1500251336
 20
724.1610034193
 30
0.0
 11
270.1500251336
 21
723.5609932626
 31
0.0
  0
LINE
  5
1B2
330
1F
100
AcDbEntity
  8
0
  6
Continuous
 62
     7
370
    15
100
AcDbLine
 10
294.4250253407
 20
730.5610223497
 30
0.0
 11
294.4250253407
 21
738.3610053743
 31
0.0
  0
LINE
  5
1B3
330
1F
100
AcDbEntity
  8
0
  6
Continuous
 62
     7
370
    15
100
AcDbLine
 10
269.5750256447
 20
738.3610053743
 30
0.0
 11
269.5750256447
 21
730.5610223497
 31
0.0
  0
LINE
  5
1B4
330
1F
100
AcDbEntity
  8
0
  6
Continuous
 62
     7
370
    15
100
AcDbLine
 10
262.6000249205
 20
304.9110068763
 30
0.0
 11
266.6000255762
 21
300.9110062207
 31
0.0
  0
LINE
  5
1B5
330
1F
100
AcDbEntity
  8
0
  6
Continuous
 62
     7
370
    15
100
AcDbLine
 10
297.4000254093
 20
300.9110062207
 30
0.0
 11
301.4000260649
 21
304.9110068763
 31
0.0
  0
LINE
  5
1B6
330
1F
100
AcDbEntity
  8
0
  6
Continuous
 62
     7
370
    15
100
AcDbLine
 10
301.4000260649
 20
304.9110068763
 30
0.0
 11
301.4000260649
 21
308.4110065187
 31
0.0
  0
LINE
  5
1B7
330
1F
100
AcDbEntity
  8
0
  6
Continuous
 62
     7
370
    15
100
AcDbLine
 10
262.6000249205
 20
308.4110065187
 30
0.0
 11
262.6000249205
 21
304.9110068763
 31
0.0
  0
LINE
  5
1B8
330
1F
100
AcDbEntity
  8
0
  6
Continuous
 62
     7
370
    15
100
AcDbLine
 10
297.9000264226
 20
308.4110065187
 30
0.0
 11
295.9000251634
 21
310.4110105718
 31
0.0
  0
LINE
  5
1B9
330
1F
100
AcDbEntity
  8
0
  6
Continuous
 62
     7
370
    15
100
AcDbLine
 10
268.100025822
 20
310.4110105718
 30
0.0
 11
266.1000245629
 21
308.4110065187
 31
0.0
  0
LINE
  5
1BA
330
1F
100
AcDbEntity
  8
0
  6
Continuous
 62
     7
370
    15
100
AcDbLine
 10
274.0000251128
 20
313.3610083545
 30
0.0
 11
274.0000251128
 21
310.4110105718
 31
0.0
  0
LINE
  5
1BB
330
1F
100
AcDbEntity
  8
0
  6
Continuous
 62
     7
370
    15
100
AcDbLine
 10
290.0000258727
 20
310.4110105718
 30
0.0
 11
290.0000258727
 21
313.3610083545
 31
0.0
  0
LINE
  5
1BC
330
1F
100
AcDbEntity
  8
0
  6
Continuous
 62
     7
370
    15
100
AcDbLine
 10
306.800026205
 20
525.3610058511
 30
0.0
 11
303.0000252096
 21
525.3610058511
 31
0.0
  0
LINE
  5
1BD
330
1F
100
AcDbEntity
  8
0
  6
Continuous
 62
     7
370
    15
100
AcDbLine
 10
303.0000252096
 20
321.3610096658
 30
0.0
 11
306.800026205
 21
321.3610096658
 31
0.0
  0
LINE
  5
1BE
330
1F
100
AcDbEntity
  8
0
  6
Continuous
 62
     7
370
    15
100
AcDbLine
 10
261.0000257759
 20
525.3610058511
 30
0.0
 11
257.2000247805
 21
525.3610058511
 31
0.0
  0
LINE
  5
1BF
330
1F
100
AcDbEntity
  8
0
  6
Continuous
 62
     7
370
    15
100
AcDbLine
 10
257.2000247805
 20
321.3610096658
 30
0.0
 11
261.0000257759
 21
321.3610096658
 31
0.0
  0
LINE
  5
1C0
330
1F
100
AcDbEntity
  8
0
  6
Continuous
 62
     7
370
    15
100
AcDbLine
 10
261.2000254361
 20
504.3610079969
 30
0.0
 11
261.0000257759
 21
504.3610079969
 31
0.0
  0
LINE
  5
1C1
330
1F
100
AcDbEntity
  8
0
  6
Continuous
 62
     7
370
    15
100
AcDbLine
 10
303.0000252096
 20
504.3610079969
 30
0.0
 11
302.8000255494
 21
504.3610079969
 31
0.0
  0
LINE
  5
1C2
330
1F
100
AcDbEntity
  8
0
  6
Continuous
 62
     7
370
    15
100
AcDbLine
 10
302.8000255494
 20
342.3610075201
 30
0.0
 11
303.0000252096
 21
342.3610075201
 31
0.0
  0
LINE
  5
1C3
330
1F
100
AcDbEntity
  8
0
  6
Continuous
 62
     7
370
    15
100
AcDbLine
 10
261.0000257759
 20
342.3610075201
 30
0.0
 11
261.2000254361
 21
342.3610075201
 31
0.0
  0
SPLINE
  5
1C4
330
1F
100
AcDbEntity
  8
0
  6
Continuous
 62
     7
370
    15
100
AcDbSpline
210
0.0
220
0.0
230
1.0
 70
     8
 71
     3
 72
    14
 73
    10
 74
     0
 42
0.00000001
 43
0.00000001
 40
0.0
 40
0.0
 40
0.0
 40
0.0
 40
0.1952471649432636
 40
0.5120209330695674
 40
0.7021756035529345
 40
0.8186060535099807
 40
0.9017359118937673
 40
0.9668368276993587
 40
1.0
 40
1.0
 40
1.0
 40
1.0
 10
237.4400251923238
 20
602.100391575195
 30
0.0
 10
237.4399344705602
 20
602.0981810325583
 30
0.0
 10
237.4396965595918
 20
602.0923840515688
 30
0.0
 10
237.4393723594462
 20
602.2370608156439
 30
0.0
 10
237.439095536132
 20
602.5923112854089
 30
0.0
 10
237.4389389795962
 20
602.9964055025412
 30
0.0
 10
237.4388641411019
 20
603.3850467431831
 30
0.0
 10
237.4388278619199
 20
603.7119191522787
 30
0.0
 10
237.4388262072744
 20
603.89815678131
 30
0.0
 10
237.4388256488477
 20
603.9610101665036
 30
0.0
  0
SPLINE
  5
1C5
330
1F
100
AcDbEntity
  8
0
  6
Continuous
 62
     7
370
    15
100
AcDbSpline
210
0.0
220
0.0
230
1.0
 70
     8
 71
     3
 72
    12
 73
     8
 74
     0
 42
0.00000001
 43
0.00000001
 40
0.0
 40
0.0
 40
0.0
 40
0.0
 40
0.155592074297349
 40
0.310589396421701
 40
0.559899878903543
 40
0.9803808665950978
 40
1.0
 40
1.0
 40
1.0
 40
1.0
 10
237.4388256488477
 20
603.9610101665036
 30
0.0
 10
237.4497049837895
 20
603.8428264496656
 30
0.0
 10
237.4714220673125
 20
603.6069107743629
 30
0.0
 10
237.6575040193774
 20
603.2284575482307
 30
0.0
 10
238.0606893408634
 20
602.8125670031297
 30
0.0
 10
238.4667704578407
 20
602.5242199403958
 30
0.0
 10
238.7526855748513
 20
602.4783623461217
 30
0.0
 10
238.7654313264524
 20
602.4763180697934
 30
0.0
  0
LINE
  5
1C6
330
1F
100
AcDbEntity
  8
0
  6
Continuous
 62
     7
370
    15
100
AcDbLine
 10
238.1250725506
 20
601.9610061134
 30
0.0
 11
238.9200271485
 21
601.9610061134
 31
0.0
  0
LINE
  5
1C7
330
1F
100
AcDbEntity
  8
0
  6
Continuous
 62
     7
370
    15
100
AcDbLine
 10
237.4388256488
 20
603.9610101665
 30
0.0
 11
237.4388256488
 21
606.8983419622
 31
0.0
  0
SPLINE
  5
1C8
330
1F
100
AcDbEntity
  8
0
  6
Continuous
 62
     7
370
    15
100
AcDbSpline
210
0.0
220
0.0
230
1.0
 70
     8
 71
     3
 72
    12
 73
     8
 74
     0
 42
0.00000001
 43
0.00000001
 40
0.0
 40
0.0
 40
0.0
 40
0.0
 40
0.3191545896614078
 40
0.5433566886457303
 40
0.7691746178054205
 40
0.9306845402039121
 40
1.0
 40
1.0
 40
1.0
 40
1.0
 10
325.2511860249674
 20
602.5315417731778
 30
0.0
 10
325.4516079140027
 20
602.5955246367743
 30
0.0
 10
325.7928236680167
 20
602.7044546600921
 30
0.0
 10
326.1961970476756
 20
603.0528098869233
 30
0.0
 10
326.4511433858115
 20
603.4086903037827
 30
0.0
 10
326.552803430841
 20
603.7372860645764
 30
0.0
 10
326.5598619424086
 20
603.9093426263925
 30
0.0
 10
326.5619815705454
 20
603.9610101665036
 30
0.0
  0
SPLINE
  5
1C9
330
1F
100
AcDbEntity
  8
0
  6
Continuous
 62
     7
370
    15
100
AcDbSpline
210
0.0
220
0.0
230
1.0
 70
     8
 71
     3
 72
    13
 73
     9
 74
     0
 42
0.00000001
 43
0.00000001
 40
0.0
 40
0.0
 40
0.0
 40
0.0
 40
0.0623164522752811
 40
0.1243947648150156
 40
0.2242463219902746
 40
0.3926542877452786
 40
0.870230822319496
 40
1.0
 40
1.0
 40
1.0
 40
1.0
 10
326.5619815705454
 20
603.9610101665036
 30
0.0
 10
326.5619760077891
 20
603.8427036779068
 30
0.0
 10
326.5619649035344
 20
603.6065428040483
 30
0.0
 10
326.5618774439144
 20
603.2302937711005
 30
0.0
 10
326.5616967244755
 20
602.797321075142
 30
0.0
 10
326.5611687113424
 20
602.2146723837654
 30
0.0
 10
326.560583074875
 20
602.0774208639998
 30
0.0
 10
326.560123902665
 20
602.0962984670932
 30
0.0
 10
326.5600257931387
 20
602.1003319705502
 30
0.0
  0
LINE
  5
1CA
330
1F
100
AcDbEntity
  8
0
  6
Continuous
 62
     7
370
    15
100
AcDbLine
 10
325.0800238369
 20
601.9610061134
 30
0.0
 11
325.8749784349
 21
601.9610061134
 31
0.0
  0
LINE
  5
1CB
330
1F
100
AcDbEntity
  8
0
  6
Continuous
 62
     7
370
    15
100
AcDbLine
 10
326.5619815705
 20
603.9610101665
 30
0.0
 11
326.5619815705
 21
606.9008602584
 31
0.0
  0
LINE
  5
1CC
330
1F
100
AcDbEntity
  8
0
  6
Continuous
 62
     7
370
    15
100
AcDbLine
 10
237.3587617098
 20
603.9610101665
 30
0.0
 11
237.3587617098
 21
607.1652217592
 31
0.0
  0
LINE
  5
1CD
330
1F
100
AcDbEntity
  8
0
  6
Continuous
 62
     7
370
    15
100
AcDbLine
 10
326.5772552608
 20
603.9610101665
 30
0.0
 11
326.5772552608
 21
606.9517775262
 31
0.0
  0
LINE
  5
1CE
330
1F
100
AcDbEntity
  8
0
  6
Continuous
 62
     7
370
    15
100
AcDbLine
 10
255.9000251262
 20
545.3610091294
 30
0.0
 11
308.1000258593
 21
545.3610091294
 31
0.0
  0
LINE
  5
1CF
330
1F
100
AcDbEntity
  8
0
  6
Continuous
 62
     7
370
    15
100
AcDbLine
 10
239.1000257252
 20
601.3610108579
 30
0.0
 11
255.9000251262
 21
545.3610091294
 31
0.0
  0
LINE
  5
1D0
330
1F
100
AcDbEntity
  8
0
  6
Continuous
 62
     7
370
    15
100
AcDbLine
 10
239.1000257252
 20
601.3610108579
 30
0.0
 11
324.9000252603
 21
601.3610108579
 31
0.0
  0
LINE
  5
1D1
330
1F
100
AcDbEntity
  8
0
  6
Continuous
 62
     7
370
    15
100
AcDbLine
 10
308.1000258593
 20
545.3610091294
 30
0.0
 11
324.9000252603
 21
601.3610108579
 31
0.0
  0
LINE
  5
1D2
330
1F
100
AcDbEntity
  8
0
  6
Continuous
 62
     7
370
    15
100
AcDbLine
 10
259.5000245987
 20
533.3610071624
 30
0.0
 11
304.5000263868
 21
533.3610071624
 31
0.0
  0
LWPOLYLINE
  5
1D3
330
1F
100
AcDbEntity
  8
0
  6
Continuous
 62
     7
370
    15
100
AcDbPolyline
 90
       10
 70
   128
 43
0.0
 10
255.9000251262
 20
545.3610091294
 10
256.5251586406
 20
543.277230748
 10
257.1312987624
 20
541.2567674006
 10
257.7000257937
 20
539.3610044206
 10
258.2140599756
 20
537.6475571478
 10
258.657784891
 20
536.1684753383
 10
259.0177168517
 20
534.9687008942
 10
259.2829184054
 20
534.084696957
 10
259.4453336118
 20
533.5433154191
 10
259.5000245987
 20
533.3610071624
  0
LWPOLYLINE
  5
1D4
330
1F
100
AcDbEntity
  8
0
  6
Continuous
 62
     7
370
    15
100
AcDbPolyline
 90
       10
 70
   128
 43
0.0
 10
304.5000263868
 20
533.3610071624
 10
304.5547173737
 20
533.5433154191
 10
304.7171325801
 20
534.084696957
 10
304.9823341338
 20
534.9687008942
 10
305.3422660945
 20
536.1684753383
 10
305.7859910099
 20
537.6475571478
 10
306.3000251917
 20
539.3610044206
 10
306.8687522231
 20
541.2567674006
 10
307.4748923449
 20
543.277230748
 10
308.1000258593
 20
545.3610091294
  0
LINE
  5
1D5
330
1F
100
AcDbEntity
  8
0
  6
Continuous
 62
     7
370
    15
100
AcDbLine
 10
235.50002439
 20
613.3610053743
 30
0.0
 11
240.237300974
 21
613.3610053743
 31
0.0
  0
LINE
  5
1D6
330
1F
100
AcDbEntity
  8
0
  6
Continuous
 62
     7
370
    15
100
AcDbLine
 10
323.7627500115
 20
613.3610053743
 30
0.0
 11
328.5000265954
 21
613.3610053743
 31
0.0
  0
LWPOLYLINE
  5
1D7
330
1F
100
AcDbEntity
  8
0
  6
Continuous
 62
     7
370
    15
100
AcDbPolyline
 90
       10
 70
   128
 43
0.0
 10
235.50002439
 20
613.3610053743
 10
235.5547191022
 20
613.1787045682
 10
235.7171305833
 20
612.6373155797
 10
235.9823339997
 20
611.7533190931
 10
236.3422640978
 20
610.5535371984
 10
236.7859908758
 20
609.0744628395
 10
237.3000250576
 20
607.3610081161
 10
237.8687539516
 20
605.4652525867
 10
238.4748922108
 20
603.4447892393
 10
239.1000257252
 20
601.3610108579
  0
LWPOLYLINE
  5
1D8
330
1F
100
AcDbEntity
  8
0
  6
Continuous
 62
     7
370
    15
100
AcDbPolyline
 90
       10
 70
   128
 43
0.0
 10
324.9000252603
 20
601.3610108579
 10
325.5251587747
 20
603.4447892393
 10
326.1312970338
 20
605.4652525867
 10
326.7000259278
 20
607.3610081161
 10
327.2140601097
 20
609.0744628395
 10
327.6577868877
 20
610.5535371984
 10
328.0177169858
 20
611.7533190931
 10
328.2829204021
 20
612.6373155797
 10
328.4453318833
 20
613.1787045682
 10
328.5000265954
 20
613.3610053743
  0
LINE
  5
1D9
330
1F
100
AcDbEntity
  8
0
  6
Continuous
 62
     7
370
    15
100
AcDbLine
 10
282.9571059468
 20
668.7375350679
 30
0.0
 11
280.1199649606
 21
669.2704154933
 31
0.0
  0
LINE
  5
1DA
330
1F
100
AcDbEntity
  8
0
  6
Continuous
 62
     7
370
    15
100
AcDbLine
 10
284.8371665372
 20
670.9281249727
 30
0.0
 11
282.9571059468
 21
668.7375350679
 31
0.0
  0
LINE
  5
1DB
330
1F
100
AcDbEntity
  8
0
  6
Continuous
 62
     7
370
    15
100
AcDbLine
 10
283.8800860249
 20
673.6516102041
 30
0.0
 11
284.8371665372
 21
670.9281249727
 31
0.0
  0
LINE
  5
1DC
330
1F
100
AcDbEntity
  8
0
  6
Continuous
 62
     7
370
    15
100
AcDbLine
 10
281.0429450386
 20
674.1844757284
 30
0.0
 11
283.8800860249
 21
673.6516102041
 31
0.0
  0
LINE
  5
1DD
330
1F
100
AcDbEntity
  8
0
  6
Continuous
 62
     7
370
    15
100
AcDbLine
 10
279.1628844483
 20
671.9938858236
 30
0.0
 11
281.0429450386
 21
674.1844757284
 31
0.0
  0
LINE
  5
1DE
330
1F
100
AcDbEntity
  8
0
  6
Continuous
 62
     7
370
    15
100
AcDbLine
 10
280.1199649606
 20
669.2704154933
 30
0.0
 11
279.1628844483
 21
671.9938858236
 31
0.0
  0
CIRCLE
  5
1DF
330
1F
100
AcDbEntity
  8
0
  6
Continuous
 62
     7
370
    15
100
AcDbCircle
 10
282.0000254927
 20
671.4610077585
 30
0.0
 40
4.500000000007276
  0
CIRCLE
  5
1E0
330
1F
100
AcDbEntity
  8
0
  6
Continuous
 62
     7
370
    15
100
AcDbCircle
 10
282.0000254927
 20
671.4610077585
 30
0.0
 40
5.0
  0
CIRCLE
  5
1E1
330
1F
100
AcDbEntity
  8
0
  6
Continuous
 62
     7
370
    15
100
AcDbCircle
 10
282.0000254927
 20
671.4610077585
 30
0.0
 40
7.5
  0
SPLINE
  5
1E2
330
1F
100
AcDbEntity
  8
0
  6
Continuous
 62
     7
370
    15
100
AcDbSpline
210
0.0
220
0.0
230
1.0
 70
    24
 71
     3
 72
    11
 73
     7
 74
     0
 42
0.00000001
 43
0.00000001
 40
0.0
 40
0.0
 40
0.0
 40
0.0
 40
0.2645362268753856
 40
0.5347696924125747
 40
0.7652643554067822
 40
1.0
 40
1.0
 40
1.0
 40
1.0
 10
277.3812233848604
 20
663.46100408683
 30
0.0
 10
278.1828539803714
 20
663.4610040868301
 30
0.0
 10
279.8033796529928
 20
663.46100408683
 30
0.0
 10
282.2044033916504
 20
663.46100408683
 30
0.0
 10
284.5002104428693
 20
663.46100408683
 30
0.0
 10
285.9083430940091
 20
663.46100408683
 30
0.0
 10
286.6188276006015
 20
663.46100408683
 30
0.0
  0
SPLINE
  5
1E3
330
1F
100
AcDbEntity
  8
0
  6
Continuous
 62
     7
370
    15
100
AcDbSpline
210
0.0
220
0.0
230
1.0
 70
     8
 71
     3
 72
    11
 73
     7
 74
     0
 42
0.00000001
 43
0.00000001
 40
0.0
 40
0.0
 40
0.0
 40
0.0
 40
0.264535375850856
 40
0.5347687409163405
 40
0.7652637867909836
 40
1.0
 40
1.0
 40
1.0
 40
1.0
 10
272.7624212769898
 20
671.4610053981322
 30
0.0
 10
273.163237042313
 20
670.7667762400873
 30
0.0
 10
273.9735019888138
 20
669.3633644976651
 30
0.0
 10
275.1740120791568
 20
667.2840174314757
 30
0.0
 10
276.3219152936861
 20
665.2957866981
 30
0.0
 10
277.0259812060639
 20
664.0763039961539
 30
0.0
 10
277.3812233848604
 20
663.46100408683
 30
0.0
  0
SPLINE
  5
1E4
330
1F
100
AcDbEntity
  8
0
  6
Continuous
 62
     7
370
    15
100
AcDbSpline
210
0.0
220
0.0
230
1.0
 70
     8
 71
     3
 72
    11
 73
     7
 74
     0
 42
0.00000001
 43
0.00000001
 40
0.0
 40
0.0
 40
0.0
 40
0.0
 40
0.2645353513200293
 40
0.5347687408907791
 40
0.7652638112476339
 40
1.0
 40
1.0
 40
1.0
 40
1.0
 10
277.3812233848604
 20
679.4610067094344
 30
0.0
 10
276.9804078297105
 20
678.7667775197441
 30
0.0
 10
276.1701432329853
 20
677.3633655832757
 30
0.0
 10
274.969632633051
 20
675.2840187148723
 30
0.0
 10
273.8217287964994
 20
673.2957882401294
 30
0.0
 10
273.117663239464
 20
672.0763053422003
 30
0.0
 10
272.7624212769898
 20
671.4610053981322
 30
0.0
  0
SPLINE
  5
1E5
330
1F
100
AcDbEntity
  8
0
  6
Continuous
 62
     7
370
    15
100
AcDbSpline
210
0.0
220
0.0
230
1.0
 70
    24
 71
     3
 72
    11
 73
     7
 74
     0
 42
0.00000001
 43
0.00000001
 40
0.0
 40
0.0
 40
0.0
 40
0.0
 40
0.2645362268753856
 40
0.5347696924125747
 40
0.7652643554067822
 40
1.0
 40
1.0
 40
1.0
 40
1.0
 10
286.6188276006015
 20
679.4610067094344
 30
0.0
 10
285.8171970050905
 20
679.4610067094344
 30
0.0
 10
284.1966713324691
 20
679.4610067094344
 30
0.0
 10
281.7956475938116
 20
679.4610067094344
 30
0.0
 10
279.4998405425926
 20
679.4610067094344
 30
0.0
 10
278.0917078914527
 20
679.4610067094344
 30
0.0
 10
277.3812233848604
 20
679.4610067094344
 30
0.0
  0
SPLINE
  5
1E6
330
1F
100
AcDbEntity
  8
0
  6
Continuous
 62
     7
370
    15
100
AcDbSpline
210
0.0
220
0.0
230
1.0
 70
     8
 71
     3
 72
    11
 73
     7
 74
     0
 42
0.00000001
 43
0.00000001
 40
0.0
 40
0.0
 40
0.0
 40
0.0
 40
0.2645367192042419
 40
0.5347700836376432
 40
0.7652651289731524
 40
1.0
 40
1.0
 40
1.0
 40
1.0
 10
291.2376297084721
 20
671.4610053981322
 30
0.0
 10
290.8368145496659
 20
672.1552399027856
 30
0.0
 10
290.0265529094567
 20
673.5586588505761
 30
0.0
 10
288.8260380290336
 20
675.6380076301267
 30
0.0
 10
287.6781394575224
 20
677.6262365876771
 30
0.0
 10
286.9740703736544
 20
678.845712146545
 30
0.0
 10
286.6188276006015
 20
679.4610067094344
 30
0.0
  0
SPLINE
  5
1E7
330
1F
100
AcDbEntity
  8
0
  6
Continuous
 62
     7
370
    15
100
AcDbSpline
210
0.0
220
0.0
230
1.0
 70
     8
 71
     3
 72
    11
 73
     7
 74
     0
 42
0.00000001
 43
0.00000001
 40
0.0
 40
0.0
 40
0.0
 40
0.0
 40
0.264536694673541
 40
0.5347700836122118
 40
0.7652651534299357
 40
1.0
 40
1.0
 40
1.0
 40
1.0
 10
286.6188276006015
 20
663.46100408683
 30
0.0
 10
287.019642549234
 20
664.1552386231289
 30
0.0
 10
287.8299038396675
 20
665.5586577649652
 30
0.0
 10
289.0304192296823
 20
667.6380063467303
 30
0.0
 10
290.1783184232153
 20
669.6262350456474
 30
0.0
 10
290.8823871517412
 20
670.8457108004989
 30
0.0
 10
291.2376297084721
 20
671.4610053981322
 30
0.0
  0
LINE
  5
1E8
330
1F
100
AcDbEntity
  8
0
  6
Continuous
 62
     7
370
    15
100
AcDbLine
 10
305.1079360215
 20
716.1186977113
 30
0.0
 11
305.7395887939
 21
713.8973518098
 31
0.0
  0
LINE
  5
1E9
330
1F
100
AcDbEntity
  8
0
  6
Continuous
 62
     7
370
    15
100
AcDbLine
 10
302.8683734505
 20
716.6823490346
 30
0.0
 11
305.1079360215
 21
716.1186977113
 31
0.0
  0
LINE
  5
1EA
330
1F
100
AcDbEntity
  8
0
  6
Continuous
 62
     7
370
    15
100
AcDbLine
 10
301.2604636518
 20
715.0246544565
 30
0.0
 11
302.8683734505
 21
716.6823490346
 31
0.0
  0
LINE
  5
1EB
330
1F
100
AcDbEntity
  8
0
  6
Continuous
 62
     7
370
    15
100
AcDbLine
 10
301.8921145616
 20
712.803308555
 30
0.0
 11
301.2604636518
 21
715.0246544565
 31
0.0
  0
LINE
  5
1EC
330
1F
100
AcDbEntity
  8
0
  6
Continuous
 62
     7
370
    15
100
AcDbLine
 10
304.1316771327
 20
712.2396572317
 30
0.0
 11
301.8921145616
 21
712.803308555
 31
0.0
  0
LINE
  5
1ED
330
1F
100
AcDbEntity
  8
0
  6
Continuous
 62
     7
370
    15
100
AcDbLine
 10
305.7395887939
 20
713.8973518098
 30
0.0
 11
304.1316771327
 21
712.2396572317
 31
0.0
  0
SPLINE
  5
1EE
330
1F
100
AcDbEntity
  8
0
  6
Continuous
 62
     7
370
    15
100
AcDbSpline
210
0.0
220
0.0
230
1.0
 70
     8
 71
     3
 72
    19
 73
    15
 74
     0
 42
0.00000001
 43
0.00000001
 40
0.0
 40
0.0
 40
0.0
 40
0.0
 40
0.0903186566072542
 40
0.2045637114264084
 40
0.2714184814050916
 40
0.3439346123780251
 40
0.4207855383017527
 40
0.4999992739775447
 40
0.5792157041358157
 40
0.6560635088201211
 40
0.7285799439107996
 40
0.7954366842640206
 40
0.9096814817077278
 40
1.0
 40
1.0
 40
1.0
 40
1.0
 10
304.2322189925345
 20
717.3702760423201
 30
0.0
 10
304.501502991943
 20
717.2781859326916
 30
0.0
 10
305.1114072621789
 20
717.0696100379763
 30
0.0
 10
305.7672087136635
 20
716.4857806527918
 30
0.0
 10
306.2027549935194
 20
715.8179834084377
 30
0.0
 10
306.4416443835992
 20
715.1773374049046
 30
0.0
 10
306.5301868358945
 20
714.4601834330032
 30
0.0
 10
306.4394577791222
 20
713.7212224370098
 30
0.0
 10
306.1695904403276
 20
713.0273518706728
 30
0.0
 10
305.7521029409382
 20
712.4375603910928
 30
0.0
 10
305.2384154263173
 20
711.9863253716998
 30
0.0
 10
304.5386512243815
 20
711.60423086926
 30
0.0
 10
303.6846015798876
 20
711.4004121800618
 30
0.0
 10
303.0486264632965
 20
711.505383450669
 30
0.0
 10
302.7678315905961
 20
711.5517302239913
 30
0.0
  0
SPLINE
  5
1EF
330
1F
100
AcDbEntity
  8
0
  6
Continuous
 62
     7
370
    15
100
AcDbSpline
210
0.0
220
0.0
230
1.0
 70
     8
 71
     3
 72
    19
 73
    15
 74
     0
 42
0.00000001
 43
0.00000001
 40
0.0
 40
0.0
 40
0.0
 40
0.0
 40
0.0903185780002046
 40
0.2045635333884437
 40
0.2714207977970412
 40
0.3439369349789907
 40
0.4207846214170545
 40
0.49999826398323
 40
0.5792146970584642
 40
0.6560649096608788
 40
0.7285791888009424
 40
0.7954360447847938
 40
0.909681426087986
 40
0.9999999999999999
 40
0.9999999999999999
 40
0.9999999999999999
 40
0.9999999999999999
 10
302.7678315905961
 20
711.5517302239913
 30
0.0
 10
302.4985482384094
 20
711.6438207458093
 30
0.0
 10
301.8886454340731
 20
711.852397574096
 30
0.0
 10
301.2328265442089
 20
712.4362252721621
 30
0.0
 10
300.7973068795947
 20
713.1040493704284
 30
0.0
 10
300.5584068809738
 20
713.7446877435978
 30
0.0
 10
300.4698674328421
 20
714.4618324115187
 30
0.0
 10
300.5605896193945
 20
715.2007860611368
 30
0.0
 10
300.8304734873048
 20
715.8946550274871
 30
0.0
 10
301.2479269319028
 20
716.4844748845112
 30
0.0
 10
301.7616466732856
 20
716.9356804630553
 30
0.0
 10
302.4614013388369
 20
717.3177708221745
 30
0.0
 10
303.3154490740998
 20
717.5216419724376
 30
0.0
 10
303.95142463051
 20
717.4166374018336
 30
0.0
 10
304.2322189925345
 20
717.3702760423201
 30
0.0
  0
LINE
  5
1F0
330
1F
100
AcDbEntity
  8
0
  6
Continuous
 62
     7
370
    15
100
AcDbLine
 10
310.3453253774
 20
629.4610096897
 30
0.0
 11
309.1906250833
 21
631.4610137428
 31
0.0
  0
LINE
  5
1F1
330
1F
100
AcDbEntity
  8
0
  6
Continuous
 62
     7
370
    15
100
AcDbLine
 10
312.6547259657
 20
629.4610096897
 30
0.0
 11
310.3453253774
 21
629.4610096897
 31
0.0
  0
LINE
  5
1F2
330
1F
100
AcDbEntity
  8
0
  6
Continuous
 62
     7
370
    15
100
AcDbLine
 10
313.8094262598
 20
631.4610137428
 30
0.0
 11
312.6547259657
 21
629.4610096897
 31
0.0
  0
LINE
  5
1F3
330
1F
100
AcDbEntity
  8
0
  6
Continuous
 62
     7
370
    15
100
AcDbLine
 10
312.6547259657
 20
633.4610028947
 30
0.0
 11
313.8094262598
 21
631.4610137428
 31
0.0
  0
LINE
  5
1F4
330
1F
100
AcDbEntity
  8
0
  6
Continuous
 62
     7
370
    15
100
AcDbLine
 10
310.3453253774
 20
633.4610028947
 30
0.0
 11
312.6547259657
 21
633.4610028947
 31
0.0
  0
LINE
  5
1F5
330
1F
100
AcDbEntity
  8
0
  6
Continuous
 62
     7
370
    15
100
AcDbLine
 10
309.1906250833
 20
631.4610137428
 30
0.0
 11
310.3453253774
 21
633.4610028947
 31
0.0
  0
SPLINE
  5
1F6
330
1F
100
AcDbEntity
  8
0
  6
Continuous
 62
     7
370
    15
100
AcDbSpline
210
0.0
220
0.0
230
1.0
 70
     8
 71
     3
 72
    19
 73
    15
 74
     0
 42
0.00000001
 43
0.00000001
 40
0.0
 40
0.0
 40
0.0
 40
0.0
 40
0.0903184544387955
 40
0.2045629830185154
 40
0.2714193911622029
 40
0.3439367205307755
 40
0.4207851671979468
 40
0.5000007002027279
 40
0.5792146593572967
 40
0.6560645851677641
 40
0.7285806088377971
 40
0.7954370169814846
 40
0.9096815455612044
 40
1.0
 40
1.0
 40
1.0
 40
1.0
 10
311.5000256715449
 20
628.4610076631087
 30
0.0
 10
311.2164095878246
 20
628.4845893429887
 30
0.0
 10
310.5740452728199
 20
628.5379996765778
 30
0.0
 10
309.7955714945864
 20
628.9441064124336
 30
0.0
 10
309.210220327681
 20
629.4854314021105
 30
0.0
 10
308.8221988646822
 20
630.0484020160259
 30
0.0
 10
308.561294444965
 20
630.7222576360141
 30
0.0
 10
308.4689248602575
 20
631.4610092933649
 30
0.0
 10
308.561299718714
 20
632.1997626705603
 30
0.0
 10
308.8221903613859
 20
632.8736203681111
 30
0.0
 10
309.2102257235483
 20
633.4365824426447
 30
0.0
 10
309.7955703736184
 20
633.9779068902659
 30
0.0
 10
310.5740455314848
 20
634.3840127420787
 30
0.0
 10
311.2164096670504
 20
634.4374231906489
 30
0.0
 10
311.5000256715449
 20
634.4610049212951
 30
0.0
  0
SPLINE
  5
1F7
330
1F
100
AcDbEntity
  8
0
  6
Continuous
 62
     7
370
    15
100
AcDbSpline
210
0.0
220
0.0
230
1.0
 70
     8
 71
     3
 72
    19
 73
    15
 74
     0
 42
0.00000001
 43
0.00000001
 40
0.0
 40
0.0
 40
0.0
 40
0.0
 40
0.0903182675242943
 40
0.2045629852689135
 40
0.271419545623158
 40
0.3439353516839022
 40
0.4207853570258709
 40
0.4999992997942398
 40
0.5792148164134725
 40
0.6560633426133695
 40
0.7285804543768419
 40
0.7954370147310864
 40
0.9096817324757056
 40
1.0
 40
1.0
 40
1.0
 40
1.0
 10
311.5000256715449
 20
634.4610049212951
 30
0.0
 10
311.7836410808272
 20
634.4374231040426
 30
0.0
 10
312.4260052047343
 20
634.3840123481956
 30
0.0
 10
313.2044799502292
 20
633.9779062355268
 30
0.0
 10
313.7898280286905
 20
633.4365842437655
 30
0.0
 10
314.1778576867924
 20
632.8736185488045
 30
0.0
 10
314.4387533539611
 20
632.1997634412413
 30
0.0
 10
314.5311227778315
 20
631.4610092933574
 30
0.0
 10
314.4387586277088
 20
630.7222568653245
 30
0.0
 10
314.1778491835024
 20
630.0484038353002
 30
0.0
 10
313.7898334245823
 20
629.4854296010011
 30
0.0
 10
313.20447882926
 20
628.9441070671661
 30
0.0
 10
312.4260054633982
 20
628.5380000704629
 30
0.0
 10
311.7836411600526
 20
628.4845894295958
 30
0.0
 10
311.5000256715449
 20
628.4610076631087
 30
0.0
  0
LINE
  5
1F8
330
1F
100
AcDbEntity
  8
0
  6
Continuous
 62
     7
370
    15
100
AcDbLine
 10
251.3453250198
 20
629.4610096897
 30
0.0
 11
250.1906247256
 21
631.4610137428
 31
0.0
  0
LINE
  5
1F9
330
1F
100
AcDbEntity
  8
0
  6
Continuous
 62
     7
370
    15
100
AcDbLine
 10
253.6547256081
 20
629.4610096897
 30
0.0
 11
251.3453250198
 21
629.4610096897
 31
0.0
  0
LINE
  5
1FA
330
1F
100
AcDbEntity
  8
0
  6
Continuous
 62
     7
370
    15
100
AcDbLine
 10
254.8094259022
 20
631.4610137428
 30
0.0
 11
253.6547256081
 21
629.4610096897
 31
0.0
  0
LINE
  5
1FB
330
1F
100
AcDbEntity
  8
0
  6
Continuous
 62
     7
370
    15
100
AcDbLine
 10
253.6547256081
 20
633.4610028947
 30
0.0
 11
254.8094259022
 21
631.4610137428
 31
0.0
  0
LINE
  5
1FC
330
1F
100
AcDbEntity
  8
0
  6
Continuous
 62
     7
370
    15
100
AcDbLine
 10
251.3453250198
 20
633.4610028947
 30
0.0
 11
253.6547256081
 21
633.4610028947
 31
0.0
  0
LINE
  5
1FD
330
1F
100
AcDbEntity
  8
0
  6
Continuous
 62
     7
370
    15
100
AcDbLine
 10
250.1906247256
 20
631.4610137428
 30
0.0
 11
251.3453250198
 21
633.4610028947
 31
0.0
  0
SPLINE
  5
1FE
330
1F
100
AcDbEntity
  8
0
  6
Continuous
 62
     7
370
    15
100
AcDbSpline
210
0.0
220
0.0
230
1.0
 70
     8
 71
     3
 72
    19
 73
    15
 74
     0
 42
0.00000001
 43
0.00000001
 40
0.0
 40
0.0
 40
0.0
 40
0.0
 40
0.0903182675242943
 40
0.2045629852689135
 40
0.271419545623158
 40
0.3439366573866304
 40
0.4207851835865274
 40
0.50000070020576
 40
0.579214642974129
 40
0.6560646483160978
 40
0.7285804543768419
 40
0.7954370147310864
 40
0.9096817324757056
 40
1.0
 40
1.0
 40
1.0
 40
1.0
 10
252.500025313917
 20
628.4610076631087
 30
0.0
 10
252.2164098254094
 20
628.4845894295958
 30
0.0
 10
251.5740455220638
 20
628.5380000704629
 30
0.0
 10
250.7955721562018
 20
628.9441070671661
 30
0.0
 10
250.2102175608797
 20
629.4854296010011
 30
0.0
 10
249.8222018019596
 20
630.0484038353002
 30
0.0
 10
249.5612923577531
 20
630.7222568653245
 30
0.0
 10
249.4689282076304
 20
631.4610092933574
 30
0.0
 10
249.5612976315008
 20
632.1997634412414
 30
0.0
 10
249.8221932986695
 20
632.8736185488045
 30
0.0
 10
250.2102229567714
 20
633.4365842437655
 30
0.0
 10
250.7955710352327
 20
633.9779062355269
 30
0.0
 10
251.5740457807277
 20
634.3840123481956
 30
0.0
 10
252.2164099046347
 20
634.4374231040426
 30
0.0
 10
252.500025313917
 20
634.4610049212951
 30
0.0
  0
SPLINE
  5
1FF
330
1F
100
AcDbEntity
  8
0
  6
Continuous
 62
     7
370
    15
100
AcDbSpline
210
0.0
220
0.0
230
1.0
 70
     8
 71
     3
 72
    19
 73
    15
 74
     0
 42
0.00000001
 43
0.00000001
 40
0.0
 40
0.0
 40
0.0
 40
0.0
 40
0.0903184544387955
 40
0.2045629830185154
 40
0.2714193911622029
 40
0.3439354148322359
 40
0.4207853406427033
 40
0.4999992997972721
 40
0.5792148328020531
 40
0.6560632794692245
 40
0.7285806088377971
 40
0.7954370169814845
 40
0.9096815455612044
 40
1.0
 40
1.0
 40
1.0
 40
1.0
 10
252.500025313917
 20
634.4610049212951
 30
0.0
 10
252.7836413184116
 20
634.4374231906488
 30
0.0
 10
253.4260054539772
 20
634.3840127420785
 30
0.0
 10
254.2044806118435
 20
633.9779068902659
 30
0.0
 10
254.7898252619137
 20
633.4365824426447
 30
0.0
 10
255.177860624076
 20
632.8736203681111
 30
0.0
 10
255.4387512667479
 20
632.1997626705604
 30
0.0
 10
255.5311261252045
 20
631.4610092933648
 30
0.0
 10
255.4387565404969
 20
630.7222576360142
 30
0.0
 10
255.1778521207798
 20
630.048402016026
 30
0.0
 10
254.7898306577809
 20
629.4854314021105
 30
0.0
 10
254.2044794908755
 20
628.9441064124336
 30
0.0
 10
253.426005712642
 20
628.5379996765778
 30
0.0
 10
252.7836413976373
 20
628.4845893429887
 30
0.0
 10
252.500025313917
 20
628.4610076631087
 30
0.0
  0
LINE
  5
200
330
1F
100
AcDbEntity
  8
0
  6
Continuous
 62
     7
370
    15
100
AcDbLine
 10
259.3453244684
 20
712.46099908
 30
0.0
 11
258.1906241743
 21
714.4610031332
 31
0.0
  0
LINE
  5
201
330
1F
100
AcDbEntity
  8
0
  6
Continuous
 62
     7
370
    15
100
AcDbLine
 10
261.6547269194
 20
712.46099908
 30
0.0
 11
259.3453244684
 21
712.46099908
 31
0.0
  0
LINE
  5
202
330
1F
100
AcDbEntity
  8
0
  6
Continuous
 62
     7
370
    15
100
AcDbLine
 10
262.8094272135
 20
714.4610031332
 30
0.0
 11
261.6547269194
 21
712.46099908
 31
0.0
  0
LINE
  5
203
330
1F
100
AcDbEntity
  8
0
  6
Continuous
 62
     7
370
    15
100
AcDbLine
 10
261.6547269194
 20
716.4610071863
 30
0.0
 11
262.8094272135
 21
714.4610031332
 31
0.0
  0
LINE
  5
204
330
1F
100
AcDbEntity
  8
0
  6
Continuous
 62
     7
370
    15
100
AcDbLine
 10
259.3453244684
 20
716.4610071863
 30
0.0
 11
261.6547269194
 21
716.4610071863
 31
0.0
  0
LINE
  5
205
330
1F
100
AcDbEntity
  8
0
  6
Continuous
 62
     7
370
    15
100
AcDbLine
 10
258.1906241743
 20
714.4610031332
 30
0.0
 11
259.3453244684
 21
716.4610071863
 31
0.0
  0
SPLINE
  5
206
330
1F
100
AcDbEntity
  8
0
  6
Continuous
 62
     7
370
    15
100
AcDbSpline
210
0.0
220
0.0
230
1.0
 70
     8
 71
     3
 72
    19
 73
    15
 74
     0
 42
0.00000001
 43
0.00000001
 40
0.0
 40
0.0
 40
0.0
 40
0.0
 40
0.0903180851749805
 40
0.204564097319747
 40
0.2714206887222013
 40
0.3439353353292949
 40
0.42078382564486
 40
0.499999403642493
 40
0.579214981640126
 40
0.6560634719556911
 40
0.7285807299542185
 40
0.7954373213566728
 40
0.9096819148250195
 40
1.0
 40
1.0
 40
1.0
 40
1.0
 10
260.5000247625741
 20
711.4610119546431
 30
0.0
 10
260.2164082558676
 20
711.4845857409975
 30
0.0
 10
259.5740368574151
 20
711.5379787056139
 30
0.0
 10
258.7955769229006
 20
711.9441282757058
 30
0.0
 10
258.2102287172635
 20
712.4854452242635
 30
0.0
 10
257.8221915864772
 20
713.0483961438343
 30
0.0
 10
257.5612963821156
 20
713.7222480889616
 30
0.0
 10
257.4689267431298
 20
714.4610028449104
 30
0.0
 10
257.5612948475842
 20
715.1997593131061
 30
0.0
 10
257.8222003531095
 20
715.8736140655521
 30
0.0
 10
258.2102191642506
 20
716.4365868990091
 30
0.0
 10
258.795572959743
 20
716.9779086219244
 30
0.0
 10
259.5740440755192
 20
717.3840219746905
 30
0.0
 10
260.2164091021936
 20
717.43741870098
 30
0.0
 10
260.5000247625741
 20
717.4609943116684
 30
0.0
  0
SPLINE
  5
207
330
1F
100
AcDbEntity
  8
0
  6
Continuous
 62
     7
370
    15
100
AcDbSpline
210
0.0
220
0.0
230
1.0
 70
     8
 71
     3
 72
    19
 73
    15
 74
     0
 42
0.00000001
 43
0.00000001
 40
0.0
 40
0.0
 40
0.0
 40
0.0
 40
0.0903182459916569
 40
0.2045627946143925
 40
0.271419359772938
 40
0.3439365893055166
 40
0.4207850494549496
 40
0.500000596357273
 40
0.5792161432595964
 40
0.6560646034090294
 40
0.7285792215511991
 40
0.7954357867097447
 40
0.9096817540083432
 40
1.0
 40
1.0
 40
1.0
 40
1.0
 10
260.5000247625741
 20
717.4609943116684
 30
0.0
 10
260.7836410587491
 20
717.4374187761238
 30
0.0
 10
261.426006745845
 20
717.3840222848324
 30
0.0
 10
262.2044784286173
 20
716.9779086192536
 30
0.0
 10
262.7898322234147
 20
716.4365868996115
 30
0.0
 10
263.1778510347218
 20
715.873614065375
 30
0.0
 10
263.4387565401977
 20
715.1997593131531
 30
0.0
 10
263.5311246446694
 20
714.4610028449102
 30
0.0
 10
263.4387550056662
 20
713.7222480889147
 30
0.0
 10
263.1778598013541
 20
713.0483961440115
 30
0.0
 10
262.7898226704017
 20
712.485445223661
 30
0.0
 10
262.2044744654604
 20
711.9441282783752
 30
0.0
 10
261.4260139639562
 20
711.5379783954556
 30
0.0
 10
260.7836419050779
 20
711.4845856658477
 30
0.0
 10
260.5000247625741
 20
711.4610119546433
 30
0.0
  0
CIRCLE
  5
208
330
1F
100
AcDbEntity
  8
0
  6
Continuous
 62
     7
370
    15
100
AcDbCircle
 10
303.5000254927
 20
714.4610077585
 30
0.0
 40
4.85000000000872
  0
CIRCLE
  5
209
330
1F
100
AcDbEntity
  8
0
  6
Continuous
 62
     7
370
    15
100
AcDbCircle
 10
260.5000254927
 20
714.4610077585
 30
0.0
 40
4.850000000009459
  0
CIRCLE
  5
20A
330
1F
100
AcDbEntity
  8
0
  6
Continuous
 62
     7
370
    15
100
AcDbCircle
 10
252.5000254927
 20
631.4610077585
 30
0.0
 40
4.850000000003661
  0
CIRCLE
  5
20B
330
1F
100
AcDbEntity
  8
0
  6
Continuous
 62
     7
370
    15
100
AcDbCircle
 10
311.5000254927
 20
631.4610077585
 30
0.0
 40
4.850000000004286
  0
LINE
  5
20C
330
1F
100
AcDbEntity
  8
0
  6
Continuous
 62
     7
370
    15
100
AcDbLine
 10
243.1736902712
 20
695.9735794748
 30
0.0
 11
255.6632754771
 21
719.2340834821
 31
0.0
  0
SPLINE
  5
20D
330
1F
100
AcDbEntity
  8
0
  6
Continuous
 62
     7
370
    15
100
AcDbSpline
210
0.0
220
0.0
230
1.0
 70
     8
 71
     3
 72
    11
 73
     7
 74
     0
 42
0.00000001
 43
0.00000001
 40
0.0
 40
0.0
 40
0.0
 40
0.0
 40
0.2497022081788972
 40
0.4985047623573534
 40
0.7505152705153387
 40
1.0
 40
1.0
 40
1.0
 40
1.0
 10
255.6632754771145
 20
719.2340834821242
 30
0.0
 10
255.7117587954888
 20
719.3100432761814
 30
0.0
 10
255.8085507513178
 20
719.4616891881712
 30
0.0
 10
256.0252815663696
 20
719.6278790008754
 30
0.0
 10
256.2740240575386
 20
719.7408799970389
 30
0.0
 10
256.4545129680016
 20
719.754328139024
 30
0.0
 10
256.5443029074105
 20
719.7610183442611
 30
0.0
  0
LINE
  5
20E
330
1F
100
AcDbEntity
  8
0
  6
Continuous
 62
     7
370
    15
100
AcDbLine
 10
256.5443029074
 20
719.7610183443
 30
0.0
 11
307.4557480781
 21
719.7610183443
 31
0.0
  0
SPLINE
  5
20F
330
1F
100
AcDbEntity
  8
0
  6
Continuous
 62
     7
370
    15
100
AcDbSpline
210
0.0
220
0.0
230
1.0
 70
     8
 71
     3
 72
    11
 73
     7
 74
     0
 42
0.00000001
 43
0.00000001
 40
0.0
 40
0.0
 40
0.0
 40
0.0
 40
0.2497217018123481
 40
0.4985225415543444
 40
0.7505358958723001
 40
1.0
 40
1.0
 40
1.0
 40
1.0
 10
307.4557480780514
 20
719.7610183442611
 30
0.0
 10
307.5456129056282
 20
719.7542342894324
 30
0.0
 10
307.7250111794458
 20
719.7406911963379
 30
0.0
 10
307.9739720555642
 20
719.6283760987332
 30
0.0
 10
308.1911750568303
 20
719.4626616028775
 30
0.0
 10
308.2884067829917
 20
719.3100175347308
 30
0.0
 10
308.3367755083474
 20
719.2340834821242
 30
0.0
  0
LINE
  5
210
330
1F
100
AcDbEntity
  8
0
  6
Continuous
 62
     7
370
    15
100
AcDbLine
 10
308.3367755083
 20
719.2340834821
 30
0.0
 11
320.8263607143
 21
695.9735794748
 31
0.0
  0
SPLINE
  5
211
330
1F
100
AcDbEntity
  8
0
  6
Continuous
 62
     7
370
    15
100
AcDbSpline
210
0.0
220
0.0
230
1.0
 70
     8
 71
     3
 72
    12
 73
     8
 74
     0
 42
0.00000001
 43
0.00000001
 40
0.0
 40
0.0
 40
0.0
 40
0.0
 40
0.248613453565826
 40
0.4998768742409178
 40
0.6674293350063903
 40
0.8341993394279126
 40
1.0
 40
1.0
 40
1.0
 40
1.0
 10
320.82636071426
 20
695.9735794747847
 30
0.0
 10
322.182192503094
 20
693.1737696460222
 30
0.0
 10
324.908307871663
 20
687.5443068571136
 30
0.0
 10
327.1215472614134
 20
679.4552430245519
 30
0.0
 10
328.2420327078454
 20
672.2225522187855
 30
0.0
 10
328.6250270702908
 20
665.9704384130696
 30
0.0
 10
328.3726652647073
 20
661.820622540348
 30
0.0
 10
328.2468521414431
 20
659.7517623389739
 30
0.0
  0
LINE
  5
212
330
1F
100
AcDbEntity
  8
0
  6
Continuous
 62
     7
370
    15
100
AcDbLine
 10
328.2468521414
 20
659.751762339
 30
0.0
 11
324.4008698879
 21
616.4724870409
 31
0.0
  0
ARC
  5
213
330
1F
100
AcDbEntity
  8
0
  6
Continuous
 62
     7
370
    15
100
AcDbCircle
 10
323.4047962249
 20
616.5610077585
 30
0.0
 40
1.000000000000033
100
AcDbArc
 50
270.0
 51
354.9217933762
  0
LINE
  5
214
330
1F
100
AcDbEntity
  8
0
  6
Continuous
 62
     7
370
    15
100
AcDbLine
 10
323.4047980426
 20
615.561012813
 30
0.0
 11
240.5952529429
 21
615.561012813
 31
0.0
  0
ARC
  5
215
330
1F
100
AcDbEntity
  8
0
  6
Continuous
 62
     7
370
    15
100
AcDbCircle
 10
240.5952547605
 20
616.5610077585
 30
0.0
 40
1.000000000000005
100
AcDbArc
 50
185.0782066238
 51
270.0
  0
LINE
  5
216
330
1F
100
AcDbEntity
  8
0
  6
Continuous
 62
     7
370
    15
100
AcDbLine
 10
239.5991810976
 20
616.4724870409
 30
0.0
 11
235.753198844
 21
659.751762339
 31
0.0
  0
SPLINE
  5
217
330
1F
100
AcDbEntity
  8
0
  6
Continuous
 62
     7
370
    15
100
AcDbSpline
210
0.0
220
0.0
230
1.0
 70
    24
 71
     1
 72
     4
 73
     2
 74
     0
 42
0.00000001
 43
0.00000001
 40
0.0
 40
0.0
 40
1.0
 40
1.0
 10
235.7531988440188
 20
659.7517623389739
 30
0.0
 10
235.500024390045
 20
665.4610081399459
 30
0.0
  0
SPLINE
  5
218
330
1F
100
AcDbEntity
  8
0
  6
Continuous
 62
     7
370
    15
100
AcDbSpline
210
0.0
220
0.0
230
1.0
 70
     8
 71
     3
 72
    11
 73
     7
 74
     0
 42
0.00000001
 43
0.00000001
 40
0.0
 40
0.0
 40
0.0
 40
0.0
 40
0.2490490463418547
 40
0.5000002716651235
 40
0.7509511890315117
 40
1.0
 40
1.0
 40
1.0
 40
1.0
 10
235.500024390045
 20
665.4610081399459
 30
0.0
 10
235.5928212956846
 20
668.0999759177704
 30
0.0
 10
235.7791238682541
 20
673.3980672986
 30
0.0
 10
237.3102619835808
 20
681.2269719119489
 30
0.0
 10
239.6648491912875
 20
688.8487839498343
 30
0.0
 10
242.0070466520277
 20
693.6046784479798
 30
0.0
 10
243.1736902712019
 20
695.9735794747847
 30
0.0
  0
LWPOLYLINE
  5
219
330
1F
100
AcDbEntity
  8
0
  6
Continuous
 62
     7
370
    15
100
AcDbPolyline
 90
        9
 70
   128
 43
0.0
 10
330.2389995573
 20
659.574736544
 10
330.2007221995
 20
659.5781340087
 10
330.0873578904
 20
659.5882071937
 10
329.9032614945
 20
659.6045686687
 10
329.6555147885
 20
659.6265776838
 10
329.3536284385
 20
659.6534146751
 10
329.0092141746
 20
659.6840216602
 10
328.6355005024
 20
659.7172214473
 10
328.2468521414
 20
659.751762339
  0
LINE
  5
21A
330
1F
100
AcDbEntity
  8
0
  6
Continuous
 62
     7
370
    15
100
AcDbLine
 10
330.2389995573
 20
659.574736544
 30
0.0
 11
326.3930210291
 21
616.2954612459
 31
0.0
  0
LWPOLYLINE
  5
21B
330
1F
100
AcDbEntity
  8
0
  6
Continuous
 62
     7
370
    15
100
AcDbPolyline
 90
        9
 70
   128
 43
0.0
 10
326.3930210291
 20
616.2954612459
 10
326.3547436712
 20
616.2988587106
 10
326.2413756369
 20
616.3089318956
 10
326.0572829662
 20
616.3252933706
 10
325.8095325349
 20
616.3473172868
 10
325.5076499103
 20
616.374139377
 10
325.163231921
 20
616.4047463621
 10
324.7895219741
 20
616.4379610504
 10
324.4008698879
 20
616.4724870409
  0
LINE
  5
21C
330
1F
100
AcDbEntity
  8
0
  6
Continuous
 62
     7
370
    15
100
AcDbLine
 10
233.7610514281
 20
659.574736544
 30
0.0
 11
237.6070299564
 21
616.2954612459
 31
0.0
  0
LWPOLYLINE
  5
21D
330
1F
100
AcDbEntity
  8
0
  6
Continuous
 62
     7
370
    15
100
AcDbPolyline
 90
        9
 70
   128
 43
0.0
 10
233.7610514281
 20
659.574736544
 10
233.799328786
 20
659.5781340087
 10
233.912693095
 20
659.5882071937
 10
234.096789491
 20
659.6045686687
 10
234.344536197
 20
659.6265776838
 10
234.6464225469
 20
659.6534146751
 10
234.9908368109
 20
659.6840216602
 10
235.3645504831
 20
659.7172214473
 10
235.753198844
 20
659.751762339
  0
LWPOLYLINE
  5
21E
330
1F
100
AcDbEntity
  8
0
  6
Continuous
 62
     7
370
    15
100
AcDbPolyline
 90
        9
 70
   128
 43
0.0
 10
237.6070299564
 20
616.2954612459
 10
237.6453073142
 20
616.2988587106
 10
237.7586753486
 20
616.3089318956
 10
237.9427680193
 20
616.3252933706
 10
238.1905184506
 20
616.3473172868
 10
238.4924010752
 20
616.374139377
 10
238.8368190644
 20
616.4047463621
 10
239.2105290113
 20
616.4379610504
 10
239.5991810976
 20
616.4724870409
  0
LWPOLYLINE
  5
21F
330
1F
100
AcDbEntity
  8
0
  6
Continuous
 62
     7
370
    15
100
AcDbPolyline
 90
        9
 70
   128
 43
0.0
 10
310.0988322316
 20
720.1801880086
 10
310.0649749307
 20
720.162008592
 10
309.9647031544
 20
720.1081855978
 10
309.8018725781
 20
720.0207455839
 10
309.5827379642
 20
719.9030860151
 10
309.3157221941
 20
719.7597070421
 10
309.01108658
 20
719.5961518968
 10
308.6805359839
 20
719.4186492647
 10
308.3367755083
 20
719.2340834821
  0
LINE
  5
220
330
1F
100
AcDbEntity
  8
0
  6
Continuous
 62
     7
370
    15
100
AcDbLine
 10
310.0988322316
 20
720.1801880086
 30
0.0
 11
322.5884193001
 21
696.9197138036
 31
0.0
  0
LWPOLYLINE
  5
221
330
1F
100
AcDbEntity
  8
0
  6
Continuous
 62
     7
370
    15
100
AcDbPolyline
 90
        9
 70
   128
 43
0.0
 10
322.5884193001
 20
696.9197138036
 10
322.5545601366
 20
696.901534387
 10
322.4542902229
 20
696.8476815904
 10
322.291457784
 20
696.7602713789
 10
322.0723213075
 20
696.6426118101
 10
321.8053074001
 20
696.4992328371
 10
321.5006717859
 20
696.3356478895
 10
321.1701193271
 20
696.1581750597
 10
320.8263607143
 20
695.9735794748
  0
LWPOLYLINE
  5
222
330
1F
100
AcDbEntity
  8
0
  6
Continuous
 62
     7
370
    15
100
AcDbPolyline
 90
        9
 70
   128
 43
0.0
 10
241.4116316853
 20
696.9197138036
 10
241.4454908488
 20
696.901534387
 10
241.5457607625
 20
696.8476815904
 10
241.7085932015
 20
696.7602713789
 10
241.927729678
 20
696.6426118101
 10
242.1947435854
 20
696.4992328371
 10
242.4993791996
 20
696.3356478895
 10
242.8299316583
 20
696.1581750597
 10
243.1736902712
 20
695.9735794748
  0
LINE
  5
223
330
1F
100
AcDbEntity
  8
0
  6
Continuous
 62
     7
370
    15
100
AcDbLine
 10
253.9012187539
 20
720.1801880086
 30
0.0
 11
241.4116316853
 21
696.9197138036
 31
0.0
  0
LWPOLYLINE
  5
224
330
1F
100
AcDbEntity
  8
0
  6
Continuous
 62
     7
370
    15
100
AcDbPolyline
 90
        9
 70
   128
 43
0.0
 10
253.9012187539
 20
720.1801880086
 10
253.9350760548
 20
720.162008592
 10
254.0353478311
 20
720.1081855978
 10
254.1981784074
 20
720.0207455839
 10
254.4173130212
 20
719.9030860151
 10
254.6843287913
 20
719.7597070421
 10
254.9889644055
 20
719.5961518968
 10
255.3195150016
 20
719.4186492647
 10
255.6632754771
 20
719.2340834821
  0
CIRCLE
  5
225
330
1F
100
AcDbEntity
  8
0
  6
Continuous
 62
     7
370
    15
100
AcDbCircle
 10
303.5000254927
 20
714.4610077585
 30
0.0
 40
4.0
  0
CIRCLE
  5
226
330
1F
100
AcDbEntity
  8
0
  6
Continuous
 62
     7
370
    15
100
AcDbCircle
 10
311.5000254927
 20
631.4610077585
 30
0.0
 40
4.0
  0
CIRCLE
  5
227
330
1F
100
AcDbEntity
  8
0
  6
Continuous
 62
     7
370
    15
100
AcDbCircle
 10
252.5000254927
 20
631.4610077585
 30
0.0
 40
4.0
  0
CIRCLE
  5
228
330
1F
100
AcDbEntity
  8
0
  6
Continuous
 62
     7
370
    15
100
AcDbCircle
 10
260.5000254927
 20
714.4610077585
 30
0.0
 40
4.0
  0
ARC
  5
229
330
1F
100
AcDbEntity
  8
0
  6
Continuous
 62
     7
370
    15
100
AcDbCircle
 10
264.0000254927
 20
665.4610077585
 30
0.0
 40
66.50000000000014
100
AcDbArc
 50
354.9217933762
 51
28.2333248793
  0
ARC
  5
22A
330
1F
100
AcDbEntity
  8
0
  6
Continuous
 62
     7
370
    15
100
AcDbCircle
 10
300.0000254927
 20
665.4610077585
 30
0.0
 40
66.50000000000003
100
AcDbArc
 50
151.7666751207
 51
185.0782066238
  0
ARC
  5
22B
330
1F
100
AcDbEntity
  8
0
  6
Continuous
 62
     7
370
    15
100
AcDbCircle
 10
323.4047962249
 20
616.5610077585
 30
0.0
 40
3.000000000000043
100
AcDbArc
 50
270.0
 51
354.9217933762
  0
LINE
  5
22C
330
1F
100
AcDbEntity
  8
0
  6
Continuous
 62
     7
370
    15
100
AcDbLine
 10
323.4047980426
 20
615.561012813
 30
0.0
 11
323.4047980426
 21
613.5610087598
 31
0.0
  0
LINE
  5
22D
330
1F
100
AcDbEntity
  8
0
  6
Continuous
 62
     7
370
    15
100
AcDbLine
 10
323.4047980426
 20
613.5610087598
 30
0.0
 11
240.5952529429
 21
613.5610087598
 31
0.0
  0
LINE
  5
22E
330
1F
100
AcDbEntity
  8
0
  6
Continuous
 62
     7
370
    15
100
AcDbLine
 10
240.5952529429
 20
613.5610087598
 30
0.0
 11
240.5952529429
 21
615.561012813
 31
0.0
  0
CIRCLE
  5
22F
330
1F
100
AcDbEntity
  8
0
  6
Continuous
 62
     7
370
    15
100
AcDbCircle
 10
311.5000254927
 20
631.4610077585
 30
0.0
 40
4.500365940291658
  0
CIRCLE
  5
230
330
1F
100
AcDbEntity
  8
0
  6
Continuous
 62
     7
370
    15
100
AcDbCircle
 10
252.5000254927
 20
631.4610077585
 30
0.0
 40
4.500365940279949
  0
ARC
  5
231
330
1F
100
AcDbEntity
  8
0
  6
Continuous
 62
     7
370
    15
100
AcDbCircle
 10
240.5952547605
 20
616.5610077585
 30
0.0
 40
3.000000000000015
100
AcDbArc
 50
185.0782066238
 51
270.0
  0
CIRCLE
  5
232
330
1F
100
AcDbEntity
  8
0
  6
Continuous
 62
     7
370
    15
100
AcDbCircle
 10
303.5000254927
 20
714.4610077585
 30
0.0
 40
4.500365940284894
  0
LINE
  5
233
330
1F
100
AcDbEntity
  8
0
  6
Continuous
 62
     7
370
    15
100
AcDbLine
 10
307.4557480781
 20
721.7610223974
 30
0.0
 11
307.4557480781
 21
719.7610183443
 31
0.0
  0
ARC
  5
234
330
1F
100
AcDbEntity
  8
0
  6
Continuous
 62
     7
370
    15
100
AcDbCircle
 10
307.4557472673
 20
718.7610077585
 30
0.0
 40
2.999999999999988
100
AcDbArc
 50
28.2333248793
 51
90.0
  0
LINE
  5
235
330
1F
100
AcDbEntity
  8
0
  6
Continuous
 62
     7
370
    15
100
AcDbLine
 10
256.5443029074
 20
721.7610223974
 30
0.0
 11
256.5443029074
 21
719.7610183443
 31
0.0
  0
LINE
  5
236
330
1F
100
AcDbEntity
  8
0
  6
Continuous
 62
     7
370
    15
100
AcDbLine
 10
256.5443029074
 20
721.7610223974
 30
0.0
 11
307.4557480781
 21
721.7610223974
 31
0.0
  0
CIRCLE
  5
237
330
1F
100
AcDbEntity
  8
0
  6
Continuous
 62
     7
370
    15
100
AcDbCircle
 10
260.5000254927
 20
714.4610077585
 30
0.0
 40
4.50036594028569
  0
ARC
  5
238
330
1F
100
AcDbEntity
  8
0
  6
Continuous
 62
     7
370
    15
100
AcDbCircle
 10
256.5443037181
 20
718.7610077585
 30
0.0
 40
3.000000000000013
100
AcDbArc
 50
90.0
 51
151.7666751207
  0
LINE
  5
239
330
1F
100
AcDbEntity
  8
0
  6
Continuous
 62
     7
370
    15
100
AcDbLine
 10
253.6513076542
 20
720.7798107351
 30
0.0
 11
240.9665824292
 21
697.1477909769
 31
0.0
  0
ARC
  5
23A
330
1F
100
AcDbEntity
  8
0
  6
Continuous
 62
     7
370
    15
100
AcDbCircle
 10
256.2945952249
 20
719.3610077585
 30
0.0
 40
2.999999999999958
100
AcDbArc
 50
90.0
 51
151.774875858
  0
LINE
  5
23B
330
1F
100
AcDbEntity
  8
0
  6
Continuous
 62
     7
370
    15
100
AcDbLine
 10
307.7054561494
 20
722.3610027517
 30
0.0
 11
256.2945948361
 21
722.3610027517
 31
0.0
  0
ARC
  5
23C
330
1F
100
AcDbEntity
  8
0
  6
Continuous
 62
     7
370
    15
100
AcDbCircle
 10
307.7054557605
 20
719.3610077585
 30
0.0
 40
2.999999999999958
100
AcDbArc
 50
28.225124142
 51
90.0
  0
LINE
  5
23D
330
1F
100
AcDbEntity
  8
0
  6
Continuous
 62
     7
370
    15
100
AcDbLine
 10
323.0334685562
 20
697.1477909769
 30
0.0
 11
310.3487433313
 21
720.7798107351
 31
0.0
  0
ARC
  5
23E
330
1F
100
AcDbEntity
  8
0
  6
Continuous
 62
     7
370
    15
100
AcDbCircle
 10
264.0000254927
 20
665.4610077585
 30
0.0
 40
67.00000000000007
100
AcDbArc
 50
354.7562578805
 51
28.225124142
  0
LINE
  5
23F
330
1F
100
AcDbEntity
  8
0
  6
Continuous
 62
     7
370
    15
100
AcDbLine
 10
326.7501944123
 20
616.086830088
 30
0.0
 11
330.7196253358
 21
659.3376888717
 31
0.0
  0
ARC
  5
240
330
1F
100
AcDbEntity
  8
0
  6
Continuous
 62
     7
370
    15
100
AcDbCircle
 10
323.7627483235
 20
616.3610077585
 30
0.0
 40
3.000000000000027
100
AcDbArc
 50
270.0
 51
354.7562578805
  0
LINE
  5
241
330
1F
100
AcDbEntity
  8
0
  6
Continuous
 62
     7
370
    15
100
AcDbLine
 10
240.237300974
 20
613.3610053743
 30
0.0
 11
323.7627500115
 21
613.3610053743
 31
0.0
  0
ARC
  5
242
330
1F
100
AcDbEntity
  8
0
  6
Continuous
 62
     7
370
    15
100
AcDbCircle
 10
240.2373026619
 20
616.3610077585
 30
0.0
 40
3.000000000000038
100
AcDbArc
 50
185.2437421195
 51
270.0
  0
LINE
  5
243
330
1F
100
AcDbEntity
  8
0
  6
Continuous
 62
     7
370
    15
100
AcDbLine
 10
236.3054917572
 20
626.3766183342
 30
0.0
 11
237.2498565732
 21
616.086830088
 31
0.0
  0
ARC
  5
244
330
1F
100
AcDbEntity
  8
0
  6
Continuous
 62
     7
370
    15
100
AcDbCircle
 10
231.3264178841
 20
625.9196539508
 30
0.0
 40
4.999999999999961
100
AcDbArc
 50
5.2437421195
 51
85.0
  0
LINE
  5
245
330
1F
100
AcDbEntity
  8
0
  6
Continuous
 62
     7
370
    15
100
AcDbLine
 10
229.2385564564
 20
631.1214162792
 30
0.0
 11
231.7621947644
 21
630.9006257738
 31
0.0
  0
ARC
  5
246
330
1F
100
AcDbEntity
  8
0
  6
Continuous
 62
     7
370
    15
100
AcDbCircle
 10
229.5000254927
 20
634.1100012805
 30
0.0
 40
3.0
100
AcDbArc
 50
180.0
 51
265.0
  0
LINE
  5
247
330
1F
100
AcDbEntity
  8
0
  6
Continuous
 62
     7
370
    15
100
AcDbLine
 10
226.5000247775
 20
674.4120164598
 30
0.0
 11
226.5000247775
 21
634.1100080694
 31
0.0
  0
ARC
  5
248
330
1F
100
AcDbEntity
  8
0
  6
Continuous
 62
     7
370
    15
100
AcDbCircle
 10
229.5000254927
 20
674.4120142364
 30
0.0
 40
3.000000000000205
100
AcDbArc
 50
95.0
 51
180.0
  0
LINE
  5
249
330
1F
100
AcDbEntity
  8
0
  6
Continuous
 62
     7
370
    15
100
AcDbLine
 10
229.2385564564
 20
677.4005933488
 30
0.0
 11
230.478593838
 21
677.5090738023
 31
0.0
  0
ARC
  5
24A
330
1F
100
AcDbEntity
  8
0
  6
Continuous
 62
     7
370
    15
100
AcDbCircle
 10
230.0428146322
 20
682.4900608332
 30
0.0
 40
5.000000000000099
100
AcDbArc
 50
275.0
 51
346.3190783769
  0
ARC
  5
24B
330
1F
100
AcDbEntity
  8
0
  6
Continuous
 62
     7
370
    15
100
AcDbCircle
 10
300.0000254927
 20
665.4610077585
 30
0.0
 40
67.0
100
AcDbArc
 50
151.774875858
 51
166.3190783769
  0
LINE
  5
24C
330
1F
100
AcDbEntity
  8
0
  6
Continuous
 62
     7
370
    15
100
AcDbLine
 10
266.2024774967
 20
727.6610179628
 30
0.0
 11
266.2024774967
 21
726.1610074724
 31
0.0
  0
LINE
  5
24D
330
1F
100
AcDbEntity
  8
0
  6
Continuous
 62
     7
370
    15
100
AcDbLine
 10
301.2500253884
 20
727.6610179628
 30
0.0
 11
266.2024774967
 21
727.6610179628
 31
0.0
  0
LINE
  5
24E
330
1F
100
AcDbEntity
  8
0
  6
Continuous
 62
     7
370
    15
100
AcDbLine
 10
262.750025597
 20
724.1610034193
 30
0.0
 11
301.2500253884
 21
724.1610034193
 31
0.0
  0
SPLINE
  5
24F
330
1F
100
AcDbEntity
  8
0
  6
Continuous
 62
     7
370
    15
100
AcDbSpline
210
0.0
220
0.0
230
1.0
 70
    24
 71
     1
 72
     4
 73
     2
 74
     0
 42
0.00000001
 43
0.00000001
 40
0.0
 40
0.0
 40
1.0
 40
1.0
 10
267.9272459266818
 20
730.5610223496928
 30
0.0
 10
266.2024774966872
 20
727.661017962791
 30
0.0
  0
LINE
  5
250
330
1F
100
AcDbEntity
  8
0
  6
Continuous
 62
     7
370
    15
100
AcDbLine
 10
298.3500247268
 20
730.5610223497
 30
0.0
 11
267.9272459267
 21
730.5610223497
 31
0.0
  0
LINE
  5
251
330
1F
100
AcDbEntity
  8
0
  6
Continuous
 62
     7
370
    15
100
AcDbLine
 10
294.500025679
 20
723.1610162939
 30
0.0
 11
269.5000253065
 21
723.1610162939
 31
0.0
  0
LINE
  5
252
330
1F
100
AcDbEntity
  8
0
  6
Continuous
 62
     7
370
    15
100
AcDbLine
 10
294.4850257976
 20
723.5609932626
 30
0.0
 11
269.5150251879
 21
723.5609932626
 31
0.0
  0
LINE
  5
253
330
1F
100
AcDbEntity
  8
0
  6
Continuous
 62
     7
370
    15
100
AcDbLine
 10
251.8500254868
 20
730.5610223497
 30
0.0
 11
249.3144662498
 21
728.0254407609
 31
0.0
  0
LINE
  5
254
330
1F
100
AcDbEntity
  8
0
  6
Continuous
 62
     7
370
    15
100
AcDbLine
 10
250.2307013987
 20
727.6610179628
 30
0.0
 11
266.2024774967
 21
727.6610179628
 31
0.0
  0
ELLIPSE
  5
255
330
1F
100
AcDbEntity
  8
0
  6
Continuous
 62
     7
370
    15
100
AcDbEllipse
 10
250.4500254927
 20
729.1610077585
 30
0.0
 11
1.135558726259148
 21
1.135558726259205
 31
0.0
210
0.0
220
0.0
230
1.0
 40
0.8630590836
 41
3.141592653589764
 42
3.853619502145421
  0
LINE
  5
256
330
1F
100
AcDbEntity
  8
0
  6
Continuous
 62
     7
370
    15
100
AcDbLine
 10
251.8500254868
 20
730.5610223497
 30
0.0
 11
267.9272459267
 21
730.5610223497
 31
0.0
  0
LINE
  5
257
330
1F
100
AcDbEntity
  8
0
  6
Continuous
 62
     7
370
    15
100
AcDbLine
 10
266.2024774967
 20
726.1610074724
 30
0.0
 11
250.2307013987
 21
726.1610074724
 31
0.0
  0
LINE
  5
258
330
1F
100
AcDbEntity
  8
0
  6
Continuous
 62
     7
370
    15
100
AcDbLine
 10
250.2307013987
 20
726.1610074724
 30
0.0
 11
250.2307013987
 21
727.6610179628
 31
0.0
  0
LINE
  5
259
330
1F
100
AcDbEntity
  8
0
  6
Continuous
 62
     7
370
    15
100
AcDbLine
 10
248.9500248252
 20
727.6610179628
 30
0.0
 11
248.9500248252
 21
726.1610074724
 31
0.0
  0
LWPOLYLINE
  5
25A
330
1F
100
AcDbEntity
  8
0
  6
Continuous
 62
     7
370
    15
100
AcDbPolyline
 90
        5
 70
   128
 43
0.0
 10
249.3144662498
 20
728.0254407609
 10
249.1588720499
 20
727.8698428358
 10
249.0440846799
 20
727.7550740922
 10
248.9737288473
 20
727.6847108091
 10
248.9500248252
 20
727.6610179628
  0
LINE
  5
25B
330
1F
100
AcDbEntity
  8
0
  6
Continuous
 62
     7
370
    15
100
AcDbLine
 10
250.2307013987
 20
726.1610074724
 30
0.0
 11
248.9500248252
 21
726.1610074724
 31
0.0
  0
LINE
  5
25C
330
1F
100
AcDbEntity
  8
0
  6
Continuous
 62
     7
370
    15
100
AcDbLine
 10
272.4931526376
 20
742.3610134805
 30
0.0
 11
291.5068983479
 21
742.3610134805
 31
0.0
  0
LINE
  5
25D
330
1F
100
AcDbEntity
  8
0
  6
Continuous
 62
     7
370
    15
100
AcDbLine
 10
291.5068983479
 20
742.3610134805
 30
0.0
 11
291.5068983479
 21
730.5610223497
 31
0.0
  0
LINE
  5
25E
330
1F
100
AcDbEntity
  8
0
  6
Continuous
 62
     7
370
    15
100
AcDbLine
 10
272.4931526376
 20
730.5610223497
 30
0.0
 11
272.4931526376
 21
742.3610134805
 31
0.0
  0
LINE
  5
25F
330
1F
100
AcDbEntity
  8
0
  6
Continuous
 62
     7
370
    15
100
AcDbLine
 10
294.1709177015
 20
742.3610134805
 30
0.0
 11
291.5068983479
 21
742.3610134805
 31
0.0
  0
ARC
  5
260
330
1F
100
AcDbEntity
  8
0
  6
Continuous
 62
     7
370
    15
100
AcDbCircle
 10
282.0000254927
 20
739.8610077585
 30
0.0
 40
12.42500000000001
100
AcDbArc
 50
9.2629588366
 51
11.6075642206
  0
LINE
  5
261
330
1F
100
AcDbEntity
  8
0
  6
Continuous
 62
     7
370
    15
100
AcDbLine
 10
294.2630031524
 20
738.3610053743
 30
0.0
 11
294.2630031524
 21
741.8610199178
 31
0.0
  0
LINE
  5
262
330
1F
100
AcDbEntity
  8
0
  6
Continuous
 62
     7
370
    15
100
AcDbLine
 10
294.4250253407
 20
738.3610053743
 30
0.0
 11
294.2630031524
 21
738.3610053743
 31
0.0
  0
LINE
  5
263
330
1F
100
AcDbEntity
  8
0
  6
Continuous
 62
     7
370
    15
100
AcDbLine
 10
269.737047833
 20
741.8610199178
 30
0.0
 11
269.737047833
 21
738.3610053743
 31
0.0
  0
ARC
  5
264
330
1F
100
AcDbEntity
  8
0
  6
Continuous
 62
     7
370
    15
100
AcDbCircle
 10
282.0000254927
 20
739.8610077585
 30
0.0
 40
12.42500000000006
100
AcDbArc
 50
168.3924357794
 51
170.7370411634
  0
LINE
  5
265
330
1F
100
AcDbEntity
  8
0
  6
Continuous
 62
     7
370
    15
100
AcDbLine
 10
269.737047833
 20
738.3610053743
 30
0.0
 11
269.5750256447
 21
738.3610053743
 31
0.0
  0
LINE
  5
266
330
1F
100
AcDbEntity
  8
0
  6
Continuous
 62
     7
370
    15
100
AcDbLine
 10
272.4931526376
 20
742.3610134805
 30
0.0
 11
269.8291332839
 21
742.3610134805
 31
0.0
  0
LINE
  5
267
330
1F
100
AcDbEntity
  8
0
  6
Continuous
 62
     7
370
    15
100
AcDbLine
 10
282.0000254927
 20
300.9110062207
 30
0.0
 11
266.6000255762
 21
300.9110062207
 31
0.0
  0
LINE
  5
268
330
1F
100
AcDbEntity
  8
0
  6
Continuous
 62
     7
370
    15
100
AcDbLine
 10
297.4000254093
 20
300.9110062207
 30
0.0
 11
282.0000254927
 21
300.9110062207
 31
0.0
  0
LINE
  5
269
330
1F
100
AcDbEntity
  8
0
  6
Continuous
 62
     7
370
    15
100
AcDbLine
 10
282.0000254927
 20
304.9110068763
 30
0.0
 11
301.4000260649
 21
304.9110068763
 31
0.0
  0
LINE
  5
26A
330
1F
100
AcDbEntity
  8
0
  6
Continuous
 62
     7
370
    15
100
AcDbLine
 10
262.6000249205
 20
304.9110068763
 30
0.0
 11
282.0000254927
 21
304.9110068763
 31
0.0
  0
LINE
  5
26B
330
1F
100
AcDbEntity
  8
0
  6
Continuous
 62
     7
370
    15
100
AcDbLine
 10
282.0000254927
 20
308.4110065187
 30
0.0
 11
262.6000249205
 21
308.4110065187
 31
0.0
  0
LINE
  5
26C
330
1F
100
AcDbEntity
  8
0
  6
Continuous
 62
     7
370
    15
100
AcDbLine
 10
301.4000260649
 20
308.4110065187
 30
0.0
 11
282.0000254927
 21
308.4110065187
 31
0.0
  0
LINE
  5
26D
330
1F
100
AcDbEntity
  8
0
  6
Continuous
 62
     7
370
    15
100
AcDbLine
 10
268.100025822
 20
310.4110105718
 30
0.0
 11
295.9000251634
 21
310.4110105718
 31
0.0
  0
LINE
  5
26E
330
1F
100
AcDbEntity
  8
0
  6
Continuous
 62
     7
370
    15
100
AcDbLine
 10
303.0000252096
 20
525.3610058511
 30
0.0
 11
303.0000252096
 21
321.3610096658
 31
0.0
  0
LINE
  5
26F
330
1F
100
AcDbEntity
  8
0
  6
Continuous
 62
     7
370
    15
100
AcDbLine
 10
306.800026205
 20
525.3610058511
 30
0.0
 11
306.800026205
 21
321.3610096658
 31
0.0
  0
LINE
  5
270
330
1F
100
AcDbEntity
  8
0
  6
Continuous
 62
     7
370
    15
100
AcDbLine
 10
261.0000257759
 20
525.3610058511
 30
0.0
 11
261.0000257759
 21
321.3610096658
 31
0.0
  0
LINE
  5
271
330
1F
100
AcDbEntity
  8
0
  6
Continuous
 62
     7
370
    15
100
AcDbLine
 10
257.2000247805
 20
525.3610058511
 30
0.0
 11
257.2000247805
 21
321.3610096658
 31
0.0
  0
LINE
  5
272
330
1F
100
AcDbEntity
  8
0
  6
Continuous
 62
     7
370
    15
100
AcDbLine
 10
261.2000254361
 20
443.3610073114
 30
0.0
 11
302.8000255494
 21
443.3610073114
 31
0.0
  0
LINE
  5
273
330
1F
100
AcDbEntity
  8
0
  6
Continuous
 62
     7
370
    15
100
AcDbLine
 10
261.2000254361
 20
403.3610082055
 30
0.0
 11
302.8000255494
 21
403.3610082055
 31
0.0
  0
LINE
  5
274
330
1F
100
AcDbEntity
  8
0
  6
Continuous
 62
     7
370
    15
100
AcDbLine
 10
261.2000254361
 20
403.3610082055
 30
0.0
 11
261.2000254361
 21
443.3610073114
 31
0.0
  0
LINE
  5
275
330
1F
100
AcDbEntity
  8
0
  6
Continuous
 62
     7
370
    15
100
AcDbLine
 10
302.8000255494
 20
403.3610082055
 30
0.0
 11
302.8000255494
 21
443.3610073114
 31
0.0
  0
LINE
  5
276
330
1F
100
AcDbEntity
  8
0
  6
Continuous
 62
     7
370
    15
100
AcDbLine
 10
302.8000255494
 20
397.3345762874
 30
0.0
 11
261.2000254361
 21
397.3345762874
 31
0.0
  0
LINE
  5
277
330
1F
100
AcDbEntity
  8
0
  6
Continuous
 62
     7
370
    15
100
AcDbLine
 10
261.2000254361
 20
397.3345762874
 30
0.0
 11
261.2000254361
 21
403.3610082055
 31
0.0
  0
LINE
  5
278
330
1F
100
AcDbEntity
  8
0
  6
Continuous
 62
     7
370
    15
100
AcDbLine
 10
302.8000255494
 20
403.3610082055
 30
0.0
 11
302.8000255494
 21
397.3345762874
 31
0.0
  0
LINE
  5
279
330
1F
100
AcDbEntity
  8
0
  6
Continuous
 62
     7
370
    15
100
AcDbLine
 10
261.2000254361
 20
449.3874392296
 30
0.0
 11
302.8000255494
 21
449.3874392296
 31
0.0
  0
LINE
  5
27A
330
1F
100
AcDbEntity
  8
0
  6
Continuous
 62
     7
370
    15
100
AcDbLine
 10
261.2000254361
 20
443.3610073114
 30
0.0
 11
261.2000254361
 21
449.3874392296
 31
0.0
  0
LINE
  5
27B
330
1F
100
AcDbEntity
  8
0
  6
Continuous
 62
     7
370
    15
100
AcDbLine
 10
302.8000255494
 20
449.3874392296
 30
0.0
 11
302.8000255494
 21
443.3610073114
 31
0.0
  0
LINE
  5
27C
330
1F
100
AcDbEntity
  8
0
  6
Continuous
 62
     7
370
    15
100
AcDbLine
 10
261.2000254361
 20
321.3628350581
 30
0.0
 11
302.8000255494
 21
321.3628350581
 31
0.0
  0
LINE
  5
27D
330
1F
100
AcDbEntity
  8
0
  6
Continuous
 62
     7
370
    15
100
AcDbLine
 10
261.2000254361
 20
321.3628350581
 30
0.0
 11
261.2000254361
 21
397.3345762874
 31
0.0
  0
LINE
  5
27E
330
1F
100
AcDbEntity
  8
0
  6
Continuous
 62
     7
370
    15
100
AcDbLine
 10
302.8000255494
 20
321.3628350581
 30
0.0
 11
302.8000255494
 21
397.3345762874
 31
0.0
  0
LINE
  5
27F
330
1F
100
AcDbEntity
  8
0
  6
Continuous
 62
     7
370
    15
100
AcDbLine
 10
302.8000255494
 20
522.0922200764
 30
0.0
 11
261.2000254361
 21
522.0922200764
 31
0.0
  0
LINE
  5
280
330
1F
100
AcDbEntity
  8
0
  6
Continuous
 62
     7
370
    15
100
AcDbLine
 10
261.2000254361
 20
449.3874392296
 30
0.0
 11
261.2000254361
 21
522.0922200764
 31
0.0
  0
LINE
  5
281
330
1F
100
AcDbEntity
  8
0
  6
Continuous
 62
     7
370
    15
100
AcDbLine
 10
302.8000255494
 20
449.3874392296
 30
0.0
 11
302.8000255494
 21
522.0922200764
 31
0.0
  0
LINE
  5
282
330
1F
100
AcDbEntity
  8
0
  6
Continuous
 62
     7
370
    15
100
AcDbLine
 10
261.2000254361
 20
529.5789434398
 30
0.0
 11
302.8000255494
 21
529.5789434398
 31
0.0
  0
LINE
  5
283
330
1F
100
AcDbEntity
  8
0
  6
Continuous
 62
     7
370
    15
100
AcDbLine
 10
261.2000254361
 20
522.0922200764
 30
0.0
 11
261.2000254361
 21
529.5789434398
 31
0.0
  0
LINE
  5
284
330
1F
100
AcDbEntity
  8
0
  6
Continuous
 62
     7
370
    15
100
AcDbLine
 10
302.8000255494
 20
529.5789434398
 30
0.0
 11
302.8000255494
 21
522.0922200764
 31
0.0
  0
LINE
  5
285
330
1F
100
AcDbEntity
  8
0
  6
Continuous
 62
     7
370
    15
100
AcDbLine
 10
261.2000254361
 20
529.5789434398
 30
0.0
 11
261.2000254361
 21
533.3610071624
 31
0.0
  0
LINE
  5
286
330
1F
100
AcDbEntity
  8
0
  6
Continuous
 62
     7
370
    15
100
AcDbLine
 10
302.8000255494
 20
529.5789434398
 30
0.0
 11
302.8000255494
 21
533.3610071624
 31
0.0
  0
LINE
  5
287
330
1F
100
AcDbEntity
  8
0
  6
Continuous
 62
     7
370
    15
100
AcDbLine
 10
302.8000255494
 20
313.6283798898
 30
0.0
 11
261.2000254361
 21
313.6283798898
 31
0.0
  0
LINE
  5
288
330
1F
100
AcDbEntity
  8
0
  6
Continuous
 62
     7
370
    15
100
AcDbLine
 10
261.2000254361
 20
313.6283798898
 30
0.0
 11
261.2000254361
 21
321.3628350581
 31
0.0
  0
LINE
  5
289
330
1F
100
AcDbEntity
  8
0
  6
Continuous
 62
     7
370
    15
100
AcDbLine
 10
302.8000255494
 20
321.3628350581
 30
0.0
 11
302.8000255494
 21
313.6283798898
 31
0.0
  0
LINE
  5
28A
330
1F
100
AcDbEntity
  8
0
  6
Continuous
 62
     7
370
    15
100
AcDbLine
 10
261.2000254361
 20
313.3610083545
 30
0.0
 11
302.8000255494
 21
313.3610083545
 31
0.0
  0
LINE
  5
28B
330
1F
100
AcDbEntity
  8
0
  6
Continuous
 62
     7
370
    15
100
AcDbLine
 10
261.2000254361
 20
313.3610083545
 30
0.0
 11
261.2000254361
 21
313.6283798898
 31
0.0
  0
LINE
  5
28C
330
1F
100
AcDbEntity
  8
0
  6
Continuous
 62
     7
370
    15
100
AcDbLine
 10
302.8000255494
 20
313.3610083545
 30
0.0
 11
302.8000255494
 21
313.6283798898
 31
0.0
  0
LINE
  5
28D
330
1F
100
AcDbEntity
  8
0
  6
Continuous
 62
     7
370
    15
100
AcDbLine
 10
703.5377926008
 20
162.9531120001
 30
0.0
 11
535.5377948658
 21
162.9531120001
 31
0.0
  0
ARC
  5
28E
330
1F
100
AcDbEntity
  8
0
  6
Continuous
 62
     7
370
    15
100
AcDbCircle
 10
710.537795581
 20
67.4531132816
 30
0.0
 40
2.000000000000014
100
AcDbArc
 50
270.0
 51
0.0
  0
ARC
  5
28F
330
1F
100
AcDbEntity
  8
0
  6
Continuous
 62
     7
370
    15
100
AcDbCircle
 10
528.537795581
 20
160.4531132816
 30
0.0
 40
2.000000000000028
100
AcDbArc
 50
90.0
 51
180.0
  0
ARC
  5
290
330
1F
100
AcDbEntity
  8
0
  6
Continuous
 62
     7
370
    15
100
AcDbCircle
 10
710.537795581
 20
160.4531132816
 30
0.0
 40
2.000000000000028
100
AcDbArc
 50
0.0
 51
90.0
  0
ARC
  5
291
330
1F
100
AcDbEntity
  8
0
  6
Continuous
 62
     7
370
    15
100
AcDbCircle
 10
528.537795581
 20
67.4531132816
 30
0.0
 40
2.0
100
AcDbArc
 50
180.0
 51
270.0
  0
LINE
  5
292
330
1F
100
AcDbEntity
  8
0
  6
Continuous
 62
     7
370
    15
100
AcDbLine
 10
710.5377918856
 20
162.4531147121
 30
0.0
 11
703.5377926008
 21
162.4531147121
 31
0.0
  0
LINE
  5
293
330
1F
100
AcDbEntity
  8
0
  6
Continuous
 62
     7
370
    15
100
AcDbLine
 10
703.5377926008
 20
65.4531118511
 30
0.0
 11
710.5377918856
 21
65.4531118511
 31
0.0
  0
LINE
  5
294
330
1F
100
AcDbEntity
  8
0
  6
Continuous
 62
     7
370
    15
100
AcDbLine
 10
535.5377948658
 20
162.4531147121
 30
0.0
 11
528.537795581
 21
162.4531147121
 31
0.0
  0
LINE
  5
295
330
1F
100
AcDbEntity
  8
0
  6
Continuous
 62
     7
370
    15
100
AcDbLine
 10
528.537795581
 20
65.4531118511
 30
0.0
 11
535.5377948658
 21
65.4531118511
 31
0.0
  0
LINE
  5
296
330
1F
100
AcDbEntity
  8
0
  6
Continuous
 62
     7
370
    15
100
AcDbLine
 10
719.5377952234
 20
104.7155090658
 30
0.0
 11
720.53779725
 21
106.4531134492
 31
0.0
  0
LINE
  5
297
330
1F
100
AcDbEntity
  8
0
  6
Continuous
 62
     7
370
    15
100
AcDbLine
 10
720.53779725
 20
121.4531131139
 30
0.0
 11
719.5377952234
 21
123.1907174973
 31
0.0
  0
LINE
  5
298
330
1F
100
AcDbEntity
  8
0
  6
Continuous
 62
     7
370
    15
100
AcDbLine
 10
713.5377979652
 20
123.1907174973
 30
0.0
 11
712.5377959387
 21
121.4531131139
 31
0.0
  0
LINE
  5
299
330
1F
100
AcDbEntity
  8
0
  6
Continuous
 62
     7
370
    15
100
AcDbLine
 10
712.5377959387
 20
106.4531134492
 30
0.0
 11
713.5377979652
 21
104.7155090658
 31
0.0
  0
LINE
  5
29A
330
1F
100
AcDbEntity
  8
0
  6
Continuous
 62
     7
370
    15
100
AcDbLine
 10
720.53779725
 20
108.9531133933
 30
0.0
 11
722.3377979175
 21
108.9531133933
 31
0.0
  0
LINE
  5
29B
330
1F
100
AcDbEntity
  8
0
  6
Continuous
 62
     7
370
    15
100
AcDbLine
 10
722.3377979175
 20
118.9531131698
 30
0.0
 11
720.53779725
 21
118.9531131698
 31
0.0
  0
LINE
  5
29C
330
1F
100
AcDbEntity
  8
0
  6
Continuous
 62
     7
370
    15
100
AcDbLine
 10
722.3377979175
 20
108.9531133933
 30
0.0
 11
722.8377914802
 21
109.4531134753
 31
0.0
  0
LINE
  5
29D
330
1F
100
AcDbEntity
  8
0
  6
Continuous
 62
     7
370
    15
100
AcDbLine
 10
722.8377914802
 20
118.4531130879
 30
0.0
 11
722.3377979175
 21
118.9531131698
 31
0.0
  0
LINE
  5
29E
330
1F
100
AcDbEntity
  8
0
  6
Continuous
 62
     7
370
    15
100
AcDbLine
 10
489.0377974884
 20
138.7531139938
 30
0.0
 11
489.0377974884
 21
134.9531129984
 31
0.0
  0
LINE
  5
29F
330
1F
100
AcDbEntity
  8
0
  6
Continuous
 62
     7
370
    15
100
AcDbLine
 10
489.0377974884
 20
92.9531135647
 30
0.0
 11
489.0377974884
 21
89.1531125693
 31
0.0
  0
LINE
  5
2A0
330
1F
100
AcDbEntity
  8
0
  6
Continuous
 62
     7
370
    15
100
AcDbLine
 10
510.0377953426
 20
134.9531129984
 30
0.0
 11
510.0377953426
 21
134.7531133382
 31
0.0
  0
LINE
  5
2A1
330
1F
100
AcDbEntity
  8
0
  6
Continuous
 62
     7
370
    15
100
AcDbLine
 10
510.0377953426
 20
93.1531132249
 30
0.0
 11
510.0377953426
 21
92.9531135647
 31
0.0
  0
ARC
  5
2A2
330
1F
100
AcDbEntity
  8
0
  6
Continuous
 62
     7
370
    15
100
AcDbCircle
 10
591.037795581
 20
113.9531132816
 30
0.0
 40
12.42500000000001
100
AcDbArc
 50
49.919506039
 51
78.3924357794
  0
ARC
  5
2A3
330
1F
100
AcDbEntity
  8
0
  6
Continuous
 62
     7
370
    15
100
AcDbCircle
 10
591.037795581
 20
113.9531132816
 30
0.0
 40
12.42499999999999
100
AcDbArc
 50
281.6075642206
 51
310.080493961
  0
LINE
  5
2A4
330
1F
100
AcDbEntity
  8
0
  6
Continuous
 62
     7
370
    15
100
AcDbLine
 10
593.5377955252
 20
113.9531132816
 30
0.0
 11
593.5377955252
 21
101.7822210728
 31
0.0
  0
LINE
  5
2A5
330
1F
100
AcDbEntity
  8
0
  6
Continuous
 62
     7
370
    15
100
AcDbLine
 10
593.5377955252
 20
126.1240054904
 30
0.0
 11
593.5377955252
 21
113.9531132816
 31
0.0
  0
LINE
  5
2A6
330
1F
100
AcDbEntity
  8
0
  6
Continuous
 62
     7
370
    15
100
AcDbLine
 10
599.037795961
 20
104.4462404264
 30
0.0
 11
599.037795961
 21
123.4599861367
 31
0.0
  0
LINE
  5
2A7
330
1F
100
AcDbEntity
  8
0
  6
Continuous
 62
     7
370
    15
100
AcDbLine
 10
588.5377956369
 20
113.9531132816
 30
0.0
 11
588.5377956369
 21
126.1240054904
 31
0.0
  0
LINE
  5
2A8
330
1F
100
AcDbEntity
  8
0
  6
Continuous
 62
     7
370
    15
100
AcDbLine
 10
589.037795486
 20
126.2160909413
 30
0.0
 11
589.037795486
 21
115.4531132946
 31
0.0
  0
ARC
  5
2A9
330
1F
100
AcDbEntity
  8
0
  6
Continuous
 62
     7
370
    15
100
AcDbCircle
 10
591.037795581
 20
113.9531132816
 30
0.0
 40
2.500000000000114
100
AcDbArc
 50
143.1301023542
 51
180.0
  0
ARC
  5
2AA
330
1F
100
AcDbEntity
  8
0
  6
Continuous
 62
     7
370
    15
100
AcDbCircle
 10
591.037795581
 20
113.9531132816
 30
0.0
 40
12.42500000000005
100
AcDbArc
 50
99.2629588366
 51
101.6075642206
  0
ARC
  5
2AB
330
1F
100
AcDbEntity
  8
0
  6
Continuous
 62
     7
370
    15
100
AcDbCircle
 10
591.037795581
 20
113.9531132816
 30
0.0
 40
2.5
100
AcDbArc
 50
0.0
 51
36.8698976458
  0
LINE
  5
2AC
330
1F
100
AcDbEntity
  8
0
  6
Continuous
 62
     7
370
    15
100
AcDbLine
 10
593.037795676
 20
126.2160909413
 30
0.0
 11
593.037795676
 21
115.4531132946
 31
0.0
  0
ARC
  5
2AD
330
1F
100
AcDbEntity
  8
0
  6
Continuous
 62
     7
370
    15
100
AcDbCircle
 10
591.037795581
 20
113.9531132816
 30
0.0
 40
12.42500000000001
100
AcDbArc
 50
78.3924357794
 51
80.7370411634
  0
LINE
  5
2AE
330
1F
100
AcDbEntity
  8
0
  6
Continuous
 62
     7
370
    15
100
AcDbLine
 10
588.5377956369
 20
101.7822210728
 30
0.0
 11
588.5377956369
 21
113.9531132816
 31
0.0
  0
ARC
  5
2AF
330
1F
100
AcDbEntity
  8
0
  6
Continuous
 62
     7
370
    15
100
AcDbCircle
 10
591.037795581
 20
113.9531132816
 30
0.0
 40
12.42500000000003
100
AcDbArc
 50
229.919506039
 51
258.3924357794
  0
LINE
  5
2B0
330
1F
100
AcDbEntity
  8
0
  6
Continuous
 62
     7
370
    15
100
AcDbLine
 10
583.0377952011
 20
123.4599861367
 30
0.0
 11
583.0377952011
 21
104.4462404264
 31
0.0
  0
ARC
  5
2B1
330
1F
100
AcDbEntity
  8
0
  6
Continuous
 62
     7
370
    15
100
AcDbCircle
 10
591.037795581
 20
113.9531132816
 30
0.0
 40
12.42500000000006
100
AcDbArc
 50
101.6075642206
 51
130.080493961
  0
LINE
  5
2B2
330
1F
100
AcDbEntity
  8
0
  6
Continuous
 62
     7
370
    15
100
AcDbLine
 10
589.037795486
 20
112.4531132685
 30
0.0
 11
589.037795486
 21
101.6901356219
 31
0.0
  0
ARC
  5
2B3
330
1F
100
AcDbEntity
  8
0
  6
Continuous
 62
     7
370
    15
100
AcDbCircle
 10
591.037795581
 20
113.9531132816
 30
0.0
 40
12.42500000000005
100
AcDbArc
 50
258.3924357794
 51
260.7370411634
  0
ARC
  5
2B4
330
1F
100
AcDbEntity
  8
0
  6
Continuous
 62
     7
370
    15
100
AcDbCircle
 10
591.037795581
 20
113.9531132816
 30
0.0
 40
2.500000000000114
100
AcDbArc
 50
180.0
 51
216.8698976458
  0
LINE
  5
2B5
330
1F
100
AcDbEntity
  8
0
  6
Continuous
 62
     7
370
    15
100
AcDbLine
 10
593.037795676
 20
112.4531132685
 30
0.0
 11
593.037795676
 21
101.6901356219
 31
0.0
  0
ARC
  5
2B6
330
1F
100
AcDbEntity
  8
0
  6
Continuous
 62
     7
370
    15
100
AcDbCircle
 10
591.037795581
 20
113.9531132816
 30
0.0
 40
12.425
100
AcDbArc
 50
279.2629588366
 51
281.6075642206
  0
ARC
  5
2B7
330
1F
100
AcDbEntity
  8
0
  6
Continuous
 62
     7
370
    15
100
AcDbCircle
 10
591.037795581
 20
113.9531132816
 30
0.0
 40
2.5
100
AcDbArc
 50
323.1301023542
 51
0.0
  0
ARC
  5
2B8
330
1F
100
AcDbEntity
  8
0
  6
Continuous
 62
     7
370
    15
100
AcDbCircle
 10
591.037795581
 20
113.9531132816
 30
0.0
 40
2.500000000000017
100
AcDbArc
 50
36.8698976458
 51
143.1301023542
  0
ARC
  5
2B9
330
1F
100
AcDbEntity
  8
0
  6
Continuous
 62
     7
370
    15
100
AcDbCircle
 10
591.037795581
 20
113.9531132816
 30
0.0
 40
12.42500000000001
100
AcDbArc
 50
80.7370411634
 51
99.2629588366
  0
ARC
  5
2BA
330
1F
100
AcDbEntity
  8
0
  6
Continuous
 62
     7
370
    15
100
AcDbCircle
 10
591.037795581
 20
113.9531132816
 30
0.0
 40
12.425
100
AcDbArc
 50
260.7370411634
 51
279.2629588366
  0
ARC
  5
2BB
330
1F
100
AcDbEntity
  8
0
  6
Continuous
 62
     7
370
    15
100
AcDbCircle
 10
591.037795581
 20
113.9531132816
 30
0.0
 40
2.5
100
AcDbArc
 50
216.8698976458
 51
323.1301023542
  0
SPLINE
  5
2BC
330
1F
100
AcDbEntity
  8
0
  6
Continuous
 62
     7
370
    15
100
AcDbSpline
210
0.0
220
0.0
230
1.0
 70
    24
 71
     1
 72
     4
 73
     2
 74
     0
 42
0.00000001
 43
0.00000001
 40
0.0
 40
0.0
 40
1.0
 40
1.0
 10
599.3612191454756
 20
99.88033371551546
 30
0.0
 10
602.0377955214369
 20
98.15556528552088
 30
0.0
  0
ARC
  5
2BD
330
1F
100
AcDbEntity
  8
0
  6
Continuous
 62
     7
370
    15
100
AcDbCircle
 10
591.037795581
 20
113.9531132816
 30
0.0
 40
16.35000000000001
100
AcDbArc
 50
300.6024274364
 51
239.3975725636
  0
SPLINE
  5
2BE
330
1F
100
AcDbEntity
  8
0
  6
Continuous
 62
     7
370
    15
100
AcDbSpline
210
0.0
220
0.0
230
1.0
 70
    24
 71
     1
 72
     4
 73
     2
 74
     0
 42
0.00000001
 43
0.00000001
 40
0.0
 40
0.0
 40
1.0
 40
1.0
 10
580.0377956406462
 20
98.15556528552088
 30
0.0
 10
582.7143720166075
 20
99.88033371551546
 30
0.0
  0
ARC
  5
2BF
330
1F
100
AcDbEntity
  8
0
  6
Continuous
 62
     7
370
    15
100
AcDbCircle
 10
591.037795581
 20
113.9531132816
 30
0.0
 40
19.25000000000001
100
AcDbArc
 50
304.849904579
 51
235.150095421
  0
LINE
  5
2C0
330
1F
100
AcDbEntity
  8
0
  6
Continuous
 62
     7
370
    15
100
AcDbLine
 10
585.0906667114
 20
83.8031132756
 30
0.0
 11
596.9849244506
 21
83.8031132756
 31
0.0
  0
LINE
  5
2C1
330
1F
100
AcDbEntity
  8
0
  6
Continuous
 62
     7
370
    15
100
AcDbLine
 10
585.0906667114
 20
83.8031132756
 30
0.0
 11
582.7143720166
 21
99.8803337155
 31
0.0
  0
LINE
  5
2C2
330
1F
100
AcDbEntity
  8
0
  6
Continuous
 62
     7
370
    15
100
AcDbLine
 10
596.9849244506
 20
83.8031132756
 30
0.0
 11
599.3612191455
 21
99.8803337155
 31
0.0
  0
LINE
  5
2C3
330
1F
100
AcDbEntity
  8
0
  6
Continuous
 62
     7
370
    15
100
AcDbLine
 10
599.037795961
 20
106.1031135781
 30
0.0
 11
600.6366235019
 21
106.1031135781
 31
0.0
  0
ARC
  5
2C4
330
1F
100
AcDbEntity
  8
0
  6
Continuous
 62
     7
370
    15
100
AcDbCircle
 10
591.037795581
 20
113.9531132816
 30
0.0
 40
12.40000000000009
100
AcDbArc
 50
320.7234193842
 51
39.2765806158
  0
LINE
  5
2C5
330
1F
100
AcDbEntity
  8
0
  6
Continuous
 62
     7
370
    15
100
AcDbLine
 10
600.6366235019
 20
121.803112985
 30
0.0
 11
599.037795961
 21
121.803112985
 31
0.0
  0
LINE
  5
2C6
330
1F
100
AcDbEntity
  8
0
  6
Continuous
 62
     7
370
    15
100
AcDbLine
 10
583.0377952011
 20
121.803112985
 30
0.0
 11
581.4389676602
 21
121.803112985
 31
0.0
  0
ARC
  5
2C7
330
1F
100
AcDbEntity
  8
0
  6
Continuous
 62
     7
370
    15
100
AcDbCircle
 10
591.037795581
 20
113.9531132816
 30
0.0
 40
12.39999999999992
100
AcDbArc
 50
140.7234193842
 51
219.2765806158
  0
LINE
  5
2C8
330
1F
100
AcDbEntity
  8
0
  6
Continuous
 62
     7
370
    15
100
AcDbLine
 10
581.4389676602
 20
106.1031135781
 30
0.0
 11
583.0377952011
 21
106.1031135781
 31
0.0
  0
LINE
  5
2C9
330
1F
100
AcDbEntity
  8
0
  6
Continuous
 62
     7
370
    15
100
AcDbLine
 10
596.9849244506
 20
83.8031132756
 30
0.0
 11
599.1732614861
 21
81.2675540386
 31
0.0
  0
LINE
  5
2CA
330
1F
100
AcDbEntity
  8
0
  6
Continuous
 62
     7
370
    15
100
AcDbLine
 10
599.6770855786
 20
82.1837891875
 30
0.0
 11
602.0377955214
 21
98.1555652855
 31
0.0
  0
ARC
  5
2CB
330
1F
100
AcDbEntity
  8
0
  6
Continuous
 62
     7
370
    15
100
AcDbCircle
 10
598.1932069557
 20
82.4031132816
 30
0.0
 40
1.50000000000005
100
AcDbArc
 50
310.7961333222
 51
351.5922666445
  0
LINE
  5
2CC
330
1F
100
AcDbEntity
  8
0
  6
Continuous
 62
     7
370
    15
100
AcDbLine
 10
580.0377956406
 20
98.1555652855
 30
0.0
 11
582.3985055835
 21
82.1837891875
 31
0.0
  0
LINE
  5
2CD
330
1F
100
AcDbEntity
  8
0
  6
Continuous
 62
     7
370
    15
100
AcDbLine
 10
582.902329676
 20
81.2675540386
 30
0.0
 11
585.0906667114
 21
83.8031132756
 31
0.0
  0
ARC
  5
2CE
330
1F
100
AcDbEntity
  8
0
  6
Continuous
 62
     7
370
    15
100
AcDbCircle
 10
583.8823842064
 20
82.4031132816
 30
0.0
 40
1.500000000000019
100
AcDbArc
 50
188.4077333555
 51
229.2038666778
  0
ARC
  5
2CF
330
1F
100
AcDbEntity
  8
0
  6
Continuous
 62
     7
370
    15
100
AcDbCircle
 10
598.1932069557
 20
82.4031132816
 30
0.0
 40
1.50000000000005
100
AcDbArc
 50
270.0
 51
310.7961333222
  0
LINE
  5
2D0
330
1F
100
AcDbEntity
  8
0
  6
Continuous
 62
     7
370
    15
100
AcDbLine
 10
583.88238417
 20
80.903112614
 30
0.0
 11
598.1932069921
 21
80.903112614
 31
0.0
  0
ARC
  5
2D1
330
1F
100
AcDbEntity
  8
0
  6
Continuous
 62
     7
370
    15
100
AcDbCircle
 10
583.8823842064
 20
82.4031132816
 30
0.0
 40
1.500000000000019
100
AcDbArc
 50
229.2038666778
 51
270.0
  0
CIRCLE
  5
2D2
330
1F
100
AcDbEntity
  8
0
  6
Continuous
 62
     7
370
    15
100
AcDbCircle
 10
551.037795581
 20
128.9531132816
 30
0.0
 40
2.0
  0
CIRCLE
  5
2D3
330
1F
100
AcDbEntity
  8
0
  6
Continuous
 62
     7
370
    15
100
AcDbCircle
 10
631.037795581
 20
128.9531132816
 30
0.0
 40
2.0
  0
LINE
  5
2D4
330
1F
100
AcDbEntity
  8
0
  6
Continuous
 62
     7
370
    15
100
AcDbLine
 10
535.5377948658
 20
139.6585439382
 30
0.0
 11
703.5377926008
 21
139.6585439382
 31
0.0
  0
LINE
  5
2D5
330
1F
100
AcDbEntity
  8
0
  6
Continuous
 62
     7
370
    15
100
AcDbLine
 10
703.5377926008
 20
139.6585439382
 30
0.0
 11
703.5377926008
 21
88.2476826249
 31
0.0
  0
LINE
  5
2D6
330
1F
100
AcDbEntity
  8
0
  6
Continuous
 62
     7
370
    15
100
AcDbLine
 10
535.5377948658
 20
139.6585439382
 30
0.0
 11
535.5377948658
 21
88.2476826249
 31
0.0
  0
CIRCLE
  5
2D7
330
1F
100
AcDbEntity
  8
0
  6
Continuous
 62
     7
370
    15
100
AcDbCircle
 10
631.037795581
 20
98.9531132816
 30
0.0
 40
2.0
  0
CIRCLE
  5
2D8
330
1F
100
AcDbEntity
  8
0
  6
Continuous
 62
     7
370
    15
100
AcDbCircle
 10
551.037795581
 20
98.9531132816
 30
0.0
 40
2.0
  0
LINE
  5
2D9
330
1F
100
AcDbEntity
  8
0
  6
Continuous
 62
     7
370
    15
100
AcDbLine
 10
535.5377948658
 20
142.3018311201
 30
0.0
 11
535.5377948658
 21
139.6585439382
 31
0.0
  0
LINE
  5
2DA
330
1F
100
AcDbEntity
  8
0
  6
Continuous
 62
     7
370
    15
100
AcDbLine
 10
703.5377926008
 20
142.3018311201
 30
0.0
 11
535.5377948658
 21
142.3018311201
 31
0.0
  0
LINE
  5
2DB
330
1F
100
AcDbEntity
  8
0
  6
Continuous
 62
     7
370
    15
100
AcDbLine
 10
703.5377926008
 20
142.3018311201
 30
0.0
 11
703.5377926008
 21
139.6585439382
 31
0.0
  0
LINE
  5
2DC
330
1F
100
AcDbEntity
  8
0
  6
Continuous
 62
     7
370
    15
100
AcDbLine
 10
535.5377948658
 20
88.2476826249
 30
0.0
 11
535.5377948658
 21
85.604395443
 31
0.0
  0
LINE
  5
2DD
330
1F
100
AcDbEntity
  8
0
  6
Continuous
 62
     7
370
    15
100
AcDbLine
 10
703.5377926008
 20
88.2476826249
 30
0.0
 11
703.5377926008
 21
85.604395443
 31
0.0
  0
SPLINE
  5
2DE
330
1F
100
AcDbEntity
  8
0
  6
Continuous
 62
     7
370
    15
100
AcDbSpline
210
0.0
220
0.0
230
1.0
 70
    24
 71
     3
 72
    11
 73
     7
 74
     0
 42
0.00000001
 43
0.00000001
 40
0.0
 40
0.0
 40
0.0
 40
0.0
 40
0.2497217018123481
 40
0.4985225415543444
 40
0.7505358958723001
 40
1.0
 40
1.0
 40
1.0
 40
1.0
 10
712.5377959386694
 20
139.4088358668855
 30
0.0
 10
712.5377959386694
 20
139.4987006944623
 30
0.0
 10
712.5377959386694
 20
139.6780989682799
 30
0.0
 10
712.5377959386694
 20
139.9270598443983
 30
0.0
 10
712.5377959386694
 20
140.1442628456644
 30
0.0
 10
712.5377959386694
 20
140.2414945718258
 30
0.0
 10
712.5377959386694
 20
140.2898632971815
 30
0.0
  0
LINE
  5
2DF
330
1F
100
AcDbEntity
  8
0
  6
Continuous
 62
     7
370
    15
100
AcDbLine
 10
710.5377918856
 20
139.4088358669
 30
0.0
 11
712.5377959387
 21
139.4088358669
 31
0.0
  0
LINE
  5
2E0
330
1F
100
AcDbEntity
  8
0
  6
Continuous
 62
     7
370
    15
100
AcDbLine
 10
710.5377918856
 20
139.4088358669
 30
0.0
 11
710.5377918856
 21
142.0519200204
 31
0.0
  0
ARC
  5
2E1
330
1F
100
AcDbEntity
  8
0
  6
Continuous
 62
     7
370
    15
100
AcDbCircle
 10
710.6496917921
 20
140.1628606367
 30
0.0
 40
1.89237072059549
100
AcDbArc
 50
3.8481836713
 51
93.3899988769
  0
LINE
  5
2E2
330
1F
100
AcDbEntity
  8
0
  6
Continuous
 62
     7
370
    15
100
AcDbLine
 10
712.5377959387
 20
88.4973906962
 30
0.0
 11
712.5377959387
 21
139.4088358669
 31
0.0
  0
LINE
  5
2E3
330
1F
100
AcDbEntity
  8
0
  6
Continuous
 62
     7
370
    15
100
AcDbLine
 10
710.5377918856
 20
88.4973906962
 30
0.0
 11
712.5377959387
 21
88.4973906962
 31
0.0
  0
LINE
  5
2E4
330
1F
100
AcDbEntity
  8
0
  6
Continuous
 62
     7
370
    15
100
AcDbLine
 10
710.5377918856
 20
88.4973906962
 30
0.0
 11
710.5377918856
 21
139.4088358669
 31
0.0
  0
LINE
  5
2E5
330
1F
100
AcDbEntity
  8
0
  6
Continuous
 62
     7
370
    15
100
AcDbLine
 10
703.5377926008
 20
139.4088358669
 30
0.0
 11
710.5377918856
 21
139.4088358669
 31
0.0
  0
LINE
  5
2E6
330
1F
100
AcDbEntity
  8
0
  6
Continuous
 62
     7
370
    15
100
AcDbLine
 10
703.5377926008
 20
88.4973906962
 30
0.0
 11
710.5377918856
 21
88.4973906962
 31
0.0
  0
LINE
  5
2E7
330
1F
100
AcDbEntity
  8
0
  6
Continuous
 62
     7
370
    15
100
AcDbLine
 10
703.5377926008
 20
142.0519200204
 30
0.0
 11
710.5377918856
 21
142.0519200204
 31
0.0
  0
SPLINE
  5
2E8
330
1F
100
AcDbEntity
  8
0
  6
Continuous
 62
     7
370
    15
100
AcDbSpline
210
0.0
220
0.0
230
1.0
 70
    24
 71
     3
 72
    11
 73
     7
 74
     0
 42
0.00000001
 43
0.00000001
 40
0.0
 40
0.0
 40
0.0
 40
0.0
 40
0.2497022081788972
 40
0.4985047623573534
 40
0.7505152705153387
 40
1.0
 40
1.0
 40
1.0
 40
1.0
 10
712.5377959386694
 20
87.61636326594865
 30
0.0
 10
712.5377959386694
 20
87.66484658432289
 30
0.0
 10
712.5377959386694
 20
87.76163854015184
 30
0.0
 10
712.5377959386693
 20
87.97836935520375
 30
0.0
 10
712.5377959386695
 20
88.22711184637271
 30
0.0
 10
712.5377959386694
 20
88.40760075683562
 30
0.0
 10
712.5377959386694
 20
88.4973906962446
 30
0.0
  0
ARC
  5
2E9
330
1F
100
AcDbEntity
  8
0
  6
Continuous
 62
     7
370
    15
100
AcDbCircle
 10
710.6496917921
 20
87.7433659264
 30
0.0
 40
1.892370720595504
100
AcDbArc
 50
266.6100011231
 51
356.1518163287
  0
LINE
  5
2EA
330
1F
100
AcDbEntity
  8
0
  6
Continuous
 62
     7
370
    15
100
AcDbLine
 10
710.5377918856
 20
85.8543065427
 30
0.0
 11
710.5377918856
 21
88.4973906962
 31
0.0
  0
LINE
  5
2EB
330
1F
100
AcDbEntity
  8
0
  6
Continuous
 62
     7
370
    15
100
AcDbLine
 10
703.5377926008
 20
85.8543065427
 30
0.0
 11
710.5377918856
 21
85.8543065427
 31
0.0
  0
LINE
  5
2EC
330
1F
100
AcDbEntity
  8
0
  6
Continuous
 62
     7
370
    15
100
AcDbLine
 10
528.537795581
 20
139.4088358669
 30
0.0
 11
535.5377948658
 21
139.4088358669
 31
0.0
  0
LINE
  5
2ED
330
1F
100
AcDbEntity
  8
0
  6
Continuous
 62
     7
370
    15
100
AcDbLine
 10
528.537795581
 20
142.0519200204
 30
0.0
 11
528.537795581
 21
139.4088358669
 31
0.0
  0
LINE
  5
2EE
330
1F
100
AcDbEntity
  8
0
  6
Continuous
 62
     7
370
    15
100
AcDbLine
 10
535.5377948658
 20
142.0519200204
 30
0.0
 11
528.537795581
 21
142.0519200204
 31
0.0
  0
LINE
  5
2EF
330
1F
100
AcDbEntity
  8
0
  6
Continuous
 62
     7
370
    15
100
AcDbLine
 10
528.537795581
 20
88.4973906962
 30
0.0
 11
535.5377948658
 21
88.4973906962
 31
0.0
  0
LINE
  5
2F0
330
1F
100
AcDbEntity
  8
0
  6
Continuous
 62
     7
370
    15
100
AcDbLine
 10
528.537795581
 20
139.4088358669
 30
0.0
 11
528.537795581
 21
88.4973906962
 31
0.0
  0
SPLINE
  5
2F1
330
1F
100
AcDbEntity
  8
0
  6
Continuous
 62
     7
370
    15
100
AcDbSpline
210
0.0
220
0.0
230
1.0
 70
    24
 71
     3
 72
    11
 73
     7
 74
     0
 42
0.00000001
 43
0.00000001
 40
0.0
 40
0.0
 40
0.0
 40
0.0
 40
0.2497022081788972
 40
0.4985047623573534
 40
0.7505152705153387
 40
1.0
 40
1.0
 40
1.0
 40
1.0
 10
526.5377989785063
 20
140.2898632971815
 30
0.0
 10
526.5377989785063
 20
140.2413799788073
 30
0.0
 10
526.5377989785063
 20
140.1445880229783
 30
0.0
 10
526.5377989785063
 20
139.9278572079264
 30
0.0
 10
526.5377989785063
 20
139.6791147167575
 30
0.0
 10
526.5377989785063
 20
139.4986258062945
 30
0.0
 10
526.5377989785063
 20
139.4088358668855
 30
0.0
  0
ARC
  5
2F2
330
1F
100
AcDbEntity
  8
0
  6
Continuous
 62
     7
370
    15
100
AcDbCircle
 10
528.425895632
 20
140.1628686685
 30
0.0
 40
1.892362705387969
100
AcDbArc
 50
86.6099854588
 51
176.1520437355
  0
LINE
  5
2F3
330
1F
100
AcDbEntity
  8
0
  6
Continuous
 62
     7
370
    15
100
AcDbLine
 10
526.5377989785
 20
139.4088358669
 30
0.0
 11
528.537795581
 21
139.4088358669
 31
0.0
  0
LINE
  5
2F4
330
1F
100
AcDbEntity
  8
0
  6
Continuous
 62
     7
370
    15
100
AcDbLine
 10
526.5377989785
 20
139.4088358669
 30
0.0
 11
526.5377989785
 21
88.4973906962
 31
0.0
  0
LINE
  5
2F5
330
1F
100
AcDbEntity
  8
0
  6
Continuous
 62
     7
370
    15
100
AcDbLine
 10
526.5377989785
 20
88.4973906962
 30
0.0
 11
528.537795581
 21
88.4973906962
 31
0.0
  0
LINE
  5
2F6
330
1F
100
AcDbEntity
  8
0
  6
Continuous
 62
     7
370
    15
100
AcDbLine
 10
528.537795581
 20
85.8543065427
 30
0.0
 11
535.5377948658
 21
85.8543065427
 31
0.0
  0
LINE
  5
2F7
330
1F
100
AcDbEntity
  8
0
  6
Continuous
 62
     7
370
    15
100
AcDbLine
 10
528.537795581
 20
88.4973906962
 30
0.0
 11
528.537795581
 21
85.8543065427
 31
0.0
  0
SPLINE
  5
2F8
330
1F
100
AcDbEntity
  8
0
  6
Continuous
 62
     7
370
    15
100
AcDbSpline
210
0.0
220
0.0
230
1.0
 70
    24
 71
     3
 72
    11
 73
     7
 74
     0
 42
0.00000001
 43
0.00000001
 40
0.0
 40
0.0
 40
0.0
 40
0.0
 40
0.2497217018123481
 40
0.4985225415543444
 40
0.7505358958723001
 40
1.0
 40
1.0
 40
1.0
 40
1.0
 10
526.5377989785063
 20
88.4973906962446
 30
0.0
 10
526.5377989785063
 20
88.40752586866782
 30
0.0
 10
526.5377989785063
 20
88.22812759485024
 30
0.0
 10
526.5377989785063
 20
87.97916671873183
 30
0.0
 10
526.5377989785063
 20
87.76196371746578
 30
0.0
 10
526.5377989785063
 20
87.66473199130438
 30
0.0
 10
526.5377989785063
 20
87.61636326594865
 30
0.0
  0
ARC
  5
2F9
330
1F
100
AcDbEntity
  8
0
  6
Continuous
 62
     7
370
    15
100
AcDbCircle
 10
528.425895632
 20
87.7433578946
 30
0.0
 40
1.892362705387971
100
AcDbArc
 50
183.8479562645
 51
273.3900145412
  0
LINE
  5
2FA
330
1F
100
AcDbEntity
  8
0
  6
Continuous
 62
     7
370
    15
100
AcDbLine
 10
703.5377926008
 20
154.9865563451
 30
0.0
 11
535.5377948658
 21
154.9865563451
 31
0.0
  0
LINE
  5
2FB
330
1F
100
AcDbEntity
  8
0
  6
Continuous
 62
     7
370
    15
100
AcDbLine
 10
535.5377948658
 20
154.9865563451
 30
0.0
 11
535.5377948658
 21
142.3018311201
 31
0.0
  0
LINE
  5
2FC
330
1F
100
AcDbEntity
  8
0
  6
Continuous
 62
     7
370
    15
100
AcDbLine
 10
703.5377926008
 20
154.9865563451
 30
0.0
 11
703.5377926008
 21
142.3018311201
 31
0.0
  0
LINE
  5
2FD
330
1F
100
AcDbEntity
  8
0
  6
Continuous
 62
     7
370
    15
100
AcDbLine
 10
703.5377926008
 20
72.9196702181
 30
0.0
 11
535.5377948658
 21
72.9196702181
 31
0.0
  0
LINE
  5
2FE
330
1F
100
AcDbEntity
  8
0
  6
Continuous
 62
     7
370
    15
100
AcDbLine
 10
535.5377948658
 20
85.604395443
 30
0.0
 11
535.5377948658
 21
72.9196702181
 31
0.0
  0
LINE
  5
2FF
330
1F
100
AcDbEntity
  8
0
  6
Continuous
 62
     7
370
    15
100
AcDbLine
 10
703.5377926008
 20
85.604395443
 30
0.0
 11
703.5377926008
 21
72.9196702181
 31
0.0
  0
LINE
  5
300
330
1F
100
AcDbEntity
  8
0
  6
Continuous
 62
     7
370
    15
100
AcDbLine
 10
703.5377926008
 20
154.541507089
 30
0.0
 11
710.5377918856
 21
154.541507089
 31
0.0
  0
LINE
  5
301
330
1F
100
AcDbEntity
  8
0
  6
Continuous
 62
     7
370
    15
100
AcDbLine
 10
710.5377918856
 20
142.0519200204
 30
0.0
 11
710.5377918856
 21
154.541507089
 31
0.0
  0
LINE
  5
302
330
1F
100
AcDbEntity
  8
0
  6
Continuous
 62
     7
370
    15
100
AcDbLine
 10
712.5377959387
 20
140.2898632972
 30
0.0
 11
712.5377959387
 21
152.7794485031
 31
0.0
  0
ARC
  5
303
330
1F
100
AcDbEntity
  8
0
  6
Continuous
 62
     7
370
    15
100
AcDbCircle
 10
710.6496890716
 20
152.6524447517
 30
0.0
 40
1.892373508116891
100
AcDbArc
 50
3.8482110986
 51
93.3899113658
  0
LINE
  5
304
330
1F
100
AcDbEntity
  8
0
  6
Continuous
 62
     7
370
    15
100
AcDbLine
 10
710.5377918856
 20
85.8543065427
 30
0.0
 11
710.5377918856
 21
73.3647194742
 31
0.0
  0
LINE
  5
305
330
1F
100
AcDbEntity
  8
0
  6
Continuous
 62
     7
370
    15
100
AcDbLine
 10
710.5377918856
 20
73.3647194742
 30
0.0
 11
703.5377926008
 21
73.3647194742
 31
0.0
  0
LINE
  5
306
330
1F
100
AcDbEntity
  8
0
  6
Continuous
 62
     7
370
    15
100
AcDbLine
 10
712.5377959387
 20
75.12677806
 30
0.0
 11
712.5377959387
 21
87.6163632659
 31
0.0
  0
ARC
  5
307
330
1F
100
AcDbEntity
  8
0
  6
Continuous
 62
     7
370
    15
100
AcDbCircle
 10
710.6496890716
 20
75.2537818114
 30
0.0
 40
1.892373508116891
100
AcDbArc
 50
266.6100886342
 51
356.1517889014
  0
LINE
  5
308
330
1F
100
AcDbEntity
  8
0
  6
Continuous
 62
     7
370
    15
100
AcDbLine
 10
528.537795581
 20
142.0519200204
 30
0.0
 11
528.537795581
 21
154.541507089
 31
0.0
  0
LINE
  5
309
330
1F
100
AcDbEntity
  8
0
  6
Continuous
 62
     7
370
    15
100
AcDbLine
 10
528.537795581
 20
154.541507089
 30
0.0
 11
535.5377948658
 21
154.541507089
 31
0.0
  0
LINE
  5
30A
330
1F
100
AcDbEntity
  8
0
  6
Continuous
 62
     7
370
    15
100
AcDbLine
 10
526.5377989785
 20
152.7794485031
 30
0.0
 11
526.5377989785
 21
140.2898632972
 31
0.0
  0
ARC
  5
30B
330
1F
100
AcDbEntity
  8
0
  6
Continuous
 62
     7
370
    15
100
AcDbCircle
 10
528.4258983524
 20
152.6524527835
 30
0.0
 40
1.892365492885291
100
AcDbArc
 50
86.6100729697
 51
176.1520163085
  0
LINE
  5
30C
330
1F
100
AcDbEntity
  8
0
  6
Continuous
 62
     7
370
    15
100
AcDbLine
 10
528.537795581
 20
73.3647194742
 30
0.0
 11
535.5377948658
 21
73.3647194742
 31
0.0
  0
LINE
  5
30D
330
1F
100
AcDbEntity
  8
0
  6
Continuous
 62
     7
370
    15
100
AcDbLine
 10
528.537795581
 20
85.8543065427
 30
0.0
 11
528.537795581
 21
73.3647194742
 31
0.0
  0
LINE
  5
30E
330
1F
100
AcDbEntity
  8
0
  6
Continuous
 62
     7
370
    15
100
AcDbLine
 10
526.5377989785
 20
87.6163632659
 30
0.0
 11
526.5377989785
 21
75.12677806
 31
0.0
  0
ARC
  5
30F
330
1F
100
AcDbEntity
  8
0
  6
Continuous
 62
     7
370
    15
100
AcDbCircle
 10
528.4258983524
 20
75.2537737796
 30
0.0
 40
1.892365492885293
100
AcDbArc
 50
183.8479836915
 51
273.3899270303
  0
LINE
  5
310
330
1F
100
AcDbEntity
  8
0
  6
Continuous
 62
     7
370
    15
100
AcDbLine
 10
535.5377948658
 20
162.9531120001
 30
0.0
 11
535.5377948658
 21
154.9865563451
 31
0.0
  0
LINE
  5
311
330
1F
100
AcDbEntity
  8
0
  6
Continuous
 62
     7
370
    15
100
AcDbLine
 10
703.5377926008
 20
162.9531120001
 30
0.0
 11
703.5377926008
 21
154.9865563451
 31
0.0
  0
LINE
  5
312
330
1F
100
AcDbEntity
  8
0
  6
Continuous
 62
     7
370
    15
100
AcDbLine
 10
535.5377948658
 20
66.8540407954
 30
0.0
 11
703.5377926008
 21
66.8540407954
 31
0.0
  0
LINE
  5
313
330
1F
100
AcDbEntity
  8
0
  6
Continuous
 62
     7
370
    15
100
AcDbLine
 10
535.5377948658
 20
72.9196702181
 30
0.0
 11
535.5377948658
 21
66.8540407954
 31
0.0
  0
LINE
  5
314
330
1F
100
AcDbEntity
  8
0
  6
Continuous
 62
     7
370
    15
100
AcDbLine
 10
703.5377926008
 20
72.9196702181
 30
0.0
 11
703.5377926008
 21
66.8540407954
 31
0.0
  0
SPLINE
  5
315
330
1F
100
AcDbEntity
  8
0
  6
Continuous
 62
     7
370
    15
100
AcDbSpline
210
0.0
220
0.0
230
1.0
 70
    24
 71
     3
 72
    11
 73
     7
 74
     0
 42
0.00000001
 43
0.00000001
 40
0.0
 40
0.0
 40
0.0
 40
0.0
 40
0.2490490463418547
 40
0.5000002716651235
 40
0.7509511890315117
 40
1.0
 40
1.0
 40
1.0
 40
1.0
 10
712.5377959386697
 20
67.45311217887932
 30
0.0
 10
712.5377959386697
 20
67.5459090845189
 30
0.0
 10
712.5377959386695
 20
67.73221165708838
 30
0.0
 10
712.5377959386695
 20
69.263349772415
 30
0.0
 10
712.5377959386695
 20
71.61793698012173
 30
0.0
 10
712.5377959386695
 20
73.96013444086188
 30
0.0
 10
712.5377959386695
 20
75.12677806003614
 30
0.0
  0
SPLINE
  5
316
330
1F
100
AcDbEntity
  8
0
  6
Continuous
 62
     7
370
    15
100
AcDbSpline
210
0.0
220
0.0
230
1.0
 70
    24
 71
     3
 72
    11
 73
     7
 74
     0
 42
0.00000001
 43
0.00000001
 40
0.0
 40
0.0
 40
0.0
 40
0.0
 40
0.2490490463418547
 40
0.5000002716651235
 40
0.7509511890315117
 40
1.0
 40
1.0
 40
1.0
 40
1.0
 10
526.5377989785065
 20
160.4531143842512
 30
0.0
 10
526.5377989785065
 20
160.3603174786116
 30
0.0
 10
526.5377989785065
 20
160.1740149060421
 30
0.0
 10
526.5377989785064
 20
158.6428767907154
 30
0.0
 10
526.5377989785064
 20
156.2882895830086
 30
0.0
 10
526.5377989785064
 20
153.9460921222685
 30
0.0
 10
526.5377989785064
 20
152.7794485030942
 30
0.0
  0
SPLINE
  5
317
330
1F
100
AcDbEntity
  8
0
  6
Continuous
 62
     7
370
    15
100
AcDbSpline
210
0.0
220
0.0
230
1.0
 70
    24
 71
     3
 72
    12
 73
     8
 74
     0
 42
0.00000001
 43
0.00000001
 40
0.0
 40
0.0
 40
0.0
 40
0.0
 40
0.2933463972736941
 40
0.5898195694392832
 40
0.787519693929447
 40
0.9842965749417151
 40
1.0
 40
1.0
 40
1.0
 40
1.0
 10
712.5377959386695
 20
152.7794485030942
 30
0.0
 10
712.5377959386695
 20
154.1339740429629
 30
0.0
 10
712.5377959386695
 20
156.8574629903132
 30
0.0
 10
712.5377959386695
 20
159.088348339127
 30
0.0
 10
712.5377959386697
 20
160.1624465717588
 30
0.0
 10
712.5377959386697
 20
160.5366461690639
 30
0.0
 10
712.5377959386697
 20
160.4384345135338
 30
0.0
 10
712.5377959386697
 20
160.4311761496836
 30
0.0
  0
SPLINE
  5
318
330
1F
100
AcDbEntity
  8
0
  6
Continuous
 62
     7
370
    15
100
AcDbSpline
210
0.0
220
0.0
230
1.0
 70
    24
 71
     3
 72
    12
 73
     8
 74
     0
 42
0.00000001
 43
0.00000001
 40
0.0
 40
0.0
 40
0.0
 40
0.0
 40
0.2933463972736941
 40
0.5898195694392832
 40
0.787519693929447
 40
0.9842965749417151
 40
1.0
 40
1.0
 40
1.0
 40
1.0
 10
526.5377989785064
 20
75.12677806003614
 30
0.0
 10
526.5377989785064
 20
73.7722525201674
 30
0.0
 10
526.5377989785064
 20
71.04876357281717
 30
0.0
 10
526.5377989785065
 20
68.81787822400337
 30
0.0
 10
526.5377989785064
 20
67.74377999137168
 30
0.0
 10
526.5377989785065
 20
67.36958039406659
 30
0.0
 10
526.5377989785065
 20
67.46779204959674
 30
0.0
 10
526.5377989785065
 20
67.47505041344698
 30
0.0
  0
LINE
  5
319
330
1F
100
AcDbEntity
  8
0
  6
Continuous
 62
     7
370
    15
100
AcDbLine
 10
703.5377926008
 20
62.4316816269
 30
0.0
 11
535.5377948658
 21
62.4316816269
 31
0.0
  0
LINE
  5
31A
330
1F
100
AcDbEntity
  8
0
  6
Continuous
 62
     7
370
    15
100
AcDbLine
 10
535.5377948658
 20
66.8540407954
 30
0.0
 11
535.5377948658
 21
62.4316816269
 31
0.0
  0
LINE
  5
31B
330
1F
100
AcDbEntity
  8
0
  6
Continuous
 62
     7
370
    15
100
AcDbLine
 10
703.5377926008
 20
66.8540407954
 30
0.0
 11
703.5377926008
 21
62.4316816269
 31
0.0
  0
LINE
  5
31C
330
1F
100
AcDbEntity
  8
0
  6
Continuous
 62
     7
370
    15
100
AcDbLine
 10
720.53779725
 20
106.4531134492
 30
0.0
 11
720.53779725
 21
121.4531131139
 31
0.0
  0
SPLINE
  5
31D
330
1F
100
AcDbEntity
  8
0
  6
Continuous
 62
     7
370
    15
100
AcDbSpline
210
0.0
220
0.0
230
1.0
 70
     8
 71
     3
 72
    11
 73
     7
 74
     0
 42
0.00000001
 43
0.00000001
 40
0.0
 40
0.0
 40
0.0
 40
0.0
 40
0.2645353513200293
 40
0.5347687408907791
 40
0.7652638112476339
 40
1.0
 40
1.0
 40
1.0
 40
1.0
 10
719.5377952234138
 20
109.3343111736946
 30
0.0
 10
719.743478040315
 20
108.9334956185448
 30
0.0
 10
720.1592740406162
 20
108.1232310218196
 30
0.0
 10
720.3115652942889
 20
106.9227204218852
 30
0.0
 10
720.0884681361707
 20
105.7748165853336
 30
0.0
 10
719.7224650408241
 20
105.0707510282983
 30
0.0
 10
719.5377952234139
 20
104.7155090658241
 30
0.0
  0
SPLINE
  5
31E
330
1F
100
AcDbEntity
  8
0
  6
Continuous
 62
     7
370
    15
100
AcDbSpline
210
0.0
220
0.0
230
1.0
 70
     8
 71
     3
 72
    11
 73
     7
 74
     0
 42
0.00000001
 43
0.00000001
 40
0.0
 40
0.0
 40
0.0
 40
0.0
 40
0.2645362268753856
 40
0.5347696924125747
 40
0.7652643554067822
 40
1.0
 40
1.0
 40
1.0
 40
1.0
 10
719.5377952234138
 20
118.5719153894358
 30
0.0
 10
719.7434779949502
 20
117.7702847939247
 30
0.0
 10
720.1592732671829
 20
116.1497591213033
 30
0.0
 10
720.3115654673105
 20
113.7487353826458
 30
0.0
 10
720.0884682554594
 20
111.4529283314268
 30
0.0
 10
719.7224650473311
 20
110.044795680287
 30
0.0
 10
719.5377952234138
 20
109.3343111736946
 30
0.0
  0
SPLINE
  5
31F
330
1F
100
AcDbEntity
  8
0
  6
Continuous
 62
     7
370
    15
100
AcDbSpline
210
0.0
220
0.0
230
1.0
 70
     8
 71
     3
 72
    11
 73
     7
 74
     0
 42
0.00000001
 43
0.00000001
 40
0.0
 40
0.0
 40
0.0
 40
0.0
 40
0.2645367192042419
 40
0.5347700836376432
 40
0.7652651289731524
 40
1.0
 40
1.0
 40
1.0
 40
1.0
 10
719.5377952234139
 20
123.1907174973064
 30
0.0
 10
719.7434780056889
 20
122.7899023385003
 30
0.0
 10
720.1592728299798
 20
121.979640698291
 30
0.0
 10
720.3115652433468
 20
120.7791258178679
 30
0.0
 10
720.0884693529492
 20
119.6312272463567
 30
0.0
 10
719.7224651141042
 20
118.9271581624887
 30
0.0
 10
719.5377952234138
 20
118.5719153894358
 30
0.0
  0
LINE
  5
320
330
1F
100
AcDbEntity
  8
0
  6
Continuous
 62
     7
370
    15
100
AcDbLine
 10
713.5377979652
 20
123.1907174973
 30
0.0
 11
719.5377952234
 21
123.1907174973
 31
0.0
  0
LINE
  5
321
330
1F
100
AcDbEntity
  8
0
  6
Continuous
 62
     7
370
    15
100
AcDbLine
 10
719.5377952234
 20
118.5719153894
 30
0.0
 11
713.5377979652
 21
118.5719153894
 31
0.0
  0
SPLINE
  5
322
330
1F
100
AcDbEntity
  8
0
  6
Continuous
 62
     7
370
    15
100
AcDbSpline
210
0.0
220
0.0
230
1.0
 70
     8
 71
     3
 72
    11
 73
     7
 74
     0
 42
0.00000001
 43
0.00000001
 40
0.0
 40
0.0
 40
0.0
 40
0.0
 40
0.2645355274055041
 40
0.5347688145369177
 40
0.7652638090906448
 40
0.9999999999999999
 40
0.9999999999999999
 40
0.9999999999999999
 40
0.9999999999999999
 10
713.5377979652275
 20
118.5719153894358
 30
0.0
 10
713.332110076728
 20
118.972730829675
 30
0.0
 10
712.9163040435034
 20
119.7829947663457
 30
0.0
 10
712.7640433918135
 20
120.983506225719
 30
0.0
 10
712.9871214345552
 20
122.1314101730852
 30
0.0
 10
713.3531269139806
 20
122.8354755607768
 30
0.0
 10
713.5377979652276
 20
123.1907174973064
 30
0.0
  0
SPLINE
  5
323
330
1F
100
AcDbEntity
  8
0
  6
Continuous
 62
     7
370
    15
100
AcDbSpline
210
0.0
220
0.0
230
1.0
 70
     8
 71
     3
 72
    11
 73
     7
 74
     0
 42
0.00000001
 43
0.00000001
 40
0.0
 40
0.0
 40
0.0
 40
0.0
 40
0.2645364029605208
 40
0.5347697660585612
 40
0.7652643532496372
 40
1.0
 40
1.0
 40
1.0
 40
1.0
 10
713.5377979652275
 20
109.3343111736946
 30
0.0
 10
713.3321101220821
 20
110.1359415393844
 30
0.0
 10
712.9163048169181
 20
111.7564658919036
 30
0.0
 10
712.7640432187842
 20
114.1574913494278
 30
0.0
 10
712.9871213152743
 20
116.4532986222826
 30
0.0
 10
713.3531269074763
 20
117.861430934733
 30
0.0
 10
713.5377979652275
 20
118.5719153894358
 30
0.0
  0
SPLINE
  5
324
330
1F
100
AcDbEntity
  8
0
  6
Continuous
 62
     7
370
    15
100
AcDbSpline
210
0.0
220
0.0
230
1.0
 70
     8
 71
     3
 72
    11
 73
     7
 74
     0
 42
0.00000001
 43
0.00000001
 40
0.0
 40
0.0
 40
0.0
 40
0.0
 40
0.2645368952890732
 40
0.5347701572833761
 40
0.7652651268159603
 40
1.0
 40
1.0
 40
1.0
 40
1.0
 10
713.5377979652276
 20
104.7155090658241
 30
0.0
 10
713.3321101113374
 20
105.1163241097193
 30
0.0
 10
712.9163052541138
 20
105.9265850898793
 30
0.0
 10
712.764043442752
 20
107.1271008297347
 30
0.0
 10
712.9871202178015
 20
108.2749995120625
 30
0.0
 10
713.3531268407108
 20
108.9790684265861
 30
0.0
 10
713.5377979652275
 20
109.3343111736946
 30
0.0
  0
LINE
  5
325
330
1F
100
AcDbEntity
  8
0
  6
Continuous
 62
     7
370
    15
100
AcDbLine
 10
719.5377952234
 20
109.3343111737
 30
0.0
 11
713.5377979652
 21
109.3343111737
 31
0.0
  0
LINE
  5
326
330
1F
100
AcDbEntity
  8
0
  6
Continuous
 62
     7
370
    15
100
AcDbLine
 10
719.5377952234
 20
104.7155090658
 30
0.0
 11
713.5377979652
 21
104.7155090658
 31
0.0
  0
LINE
  5
327
330
1F
100
AcDbEntity
  8
0
  6
Continuous
 62
     7
370
    15
100
AcDbLine
 10
703.5377926008
 20
61.1916442452
 30
0.0
 11
535.5377948658
 21
61.1916442452
 31
0.0
  0
LINE
  5
328
330
1F
100
AcDbEntity
  8
0
  6
Continuous
 62
     7
370
    15
100
AcDbLine
 10
535.5377948658
 20
62.4316816269
 30
0.0
 11
535.5377948658
 21
61.1916442452
 31
0.0
  0
LINE
  5
329
330
1F
100
AcDbEntity
  8
0
  6
Continuous
 62
     7
370
    15
100
AcDbLine
 10
703.5377926008
 20
61.1916442452
 30
0.0
 11
703.5377926008
 21
62.4316816269
 31
0.0
  0
LINE
  5
32A
330
1F
100
AcDbEntity
  8
0
  6
Continuous
 62
     7
370
    15
100
AcDbLine
 10
535.5377948658
 20
58.4531125663
 30
0.0
 11
703.5377926008
 21
58.4531125663
 31
0.0
  0
LINE
  5
32B
330
1F
100
AcDbEntity
  8
0
  6
Continuous
 62
     7
370
    15
100
AcDbLine
 10
535.5377948658
 20
61.1916442452
 30
0.0
 11
535.5377948658
 21
58.4531125663
 31
0.0
  0
LINE
  5
32C
330
1F
100
AcDbEntity
  8
0
  6
Continuous
 62
     7
370
    15
100
AcDbLine
 10
703.5377926008
 20
61.1916442452
 30
0.0
 11
703.5377926008
 21
58.4531125663
 31
0.0
  0
LINE
  5
32D
330
1F
100
AcDbEntity
  8
0
  6
Continuous
 62
     7
370
    15
100
AcDbLine
 10
722.3377979175
 20
108.9531133933
 30
0.0
 11
722.3377979175
 21
118.9531131698
 31
0.0
  0
LINE
  5
32E
330
1F
100
AcDbEntity
  8
0
  6
Continuous
 62
     7
370
    15
100
AcDbLine
 10
722.8377914802
 20
109.4531134753
 30
0.0
 11
722.8377914802
 21
118.4531130879
 31
0.0
  0
LINE
  5
32F
330
1F
100
AcDbEntity
  8
0
  6
Continuous
 62
     7
370
    15
100
AcDbLine
 10
489.0377974884
 20
138.7531139938
 30
0.0
 11
526.5838584678
 21
138.7531139938
 31
0.0
  0
LINE
  5
330
330
1F
100
AcDbEntity
  8
0
  6
Continuous
 62
     7
370
    15
100
AcDbLine
 10
489.0377974884
 20
134.9531129984
 30
0.0
 11
526.5232852475
 21
134.9531129984
 31
0.0
  0
LINE
  5
331
330
1F
100
AcDbEntity
  8
0
  6
Continuous
 62
     7
370
    15
100
AcDbLine
 10
489.0377974884
 20
89.1531125693
 30
0.0
 11
526.5838584678
 21
89.1531125693
 31
0.0
  0
LINE
  5
332
330
1F
100
AcDbEntity
  8
0
  6
Continuous
 62
     7
370
    15
100
AcDbLine
 10
489.0377974884
 20
92.9531135647
 30
0.0
 11
526.5232852475
 21
92.9531135647
 31
0.0
  0
LINE
  5
333
330
1F
100
AcDbEntity
  8
0
  6
Continuous
 62
     7
370
    15
100
AcDbLine
 10
488.7984922902
 20
134.7531133382
 30
0.0
 11
488.7984922902
 21
93.1531132249
 31
0.0
  0
LINE
  5
334
330
1F
100
AcDbEntity
  8
0
  6
Continuous
 62
     7
370
    15
100
AcDbLine
 10
526.4353907482
 20
93.1531132249
 30
0.0
 11
488.7984922902
 21
93.1531132249
 31
0.0
  0
LINE
  5
335
330
1F
100
AcDbEntity
  8
0
  6
Continuous
 62
     7
370
    15
100
AcDbLine
 10
526.4353907482
 20
134.7531133382
 30
0.0
 11
488.7984922902
 21
134.7531133382
 31
0.0
  0
LINE
  5
336
330
1F
100
AcDbEntity
  8
0
  6
Continuous
 62
     7
370
    15
100
AcDbLine
 10
481.0457533972
 20
93.1531132249
 30
0.0
 11
481.0457533972
 21
134.7531133382
 31
0.0
  0
LINE
  5
337
330
1F
100
AcDbEntity
  8
0
  6
Continuous
 62
     7
370
    15
100
AcDbLine
 10
488.7984922902
 20
93.1531132249
 30
0.0
 11
481.0457533972
 21
93.1531132249
 31
0.0
  0
LINE
  5
338
330
1F
100
AcDbEntity
  8
0
  6
Continuous
 62
     7
370
    15
100
AcDbLine
 10
481.0457533972
 20
134.7531133382
 30
0.0
 11
488.7984922902
 21
134.7531133382
 31
0.0
  0
LINE
  5
339
330
1F
100
AcDbEntity
  8
0
  6
Continuous
 62
     7
370
    15
100
AcDbLine
 10
481.0377961771
 20
93.1531132249
 30
0.0
 11
481.0377961771
 21
134.7531133382
 31
0.0
  0
LINE
  5
33A
330
1F
100
AcDbEntity
  8
0
  6
Continuous
 62
     7
370
    15
100
AcDbLine
 10
481.0457533972
 20
93.1531132249
 30
0.0
 11
481.0377961771
 21
93.1531132249
 31
0.0
  0
LINE
  5
33B
330
1F
100
AcDbEntity
  8
0
  6
Continuous
 62
     7
370
    15
100
AcDbLine
 10
481.0457533972
 20
134.7531133382
 30
0.0
 11
481.0377961771
 21
134.7531133382
 31
0.0
  0
LINE
  5
33C
330
1F
100
AcDbEntity
  8
0
  6
Continuous
 62
     7
370
    15
100
AcDbLine
 10
703.5377926008
 20
88.2476826249
 30
0.0
 11
600.573360622
 21
88.2476826249
 31
0.0
  0
LINE
  5
33D
330
1F
100
AcDbEntity
  8
0
  6
Continuous
 62
     7
370
    15
100
AcDbLine
 10
581.50223054
 20
88.2476826249
 30
0.0
 11
535.5377948658
 21
88.2476826249
 31
0.0
  0
LINE
  5
33E
330
1F
100
AcDbEntity
  8
0
  6
Continuous
 62
     7
370
    15
100
AcDbLine
 10
535.5377948658
 20
85.604395443
 30
0.0
 11
581.8929222227
 21
85.604395443
 31
0.0
  0
LINE
  5
33F
330
1F
100
AcDbEntity
  8
0
  6
Continuous
 62
     7
370
    15
100
AcDbLine
 10
600.1826689394
 20
85.604395443
 30
0.0
 11
703.5377926008
 21
85.604395443
 31
0.0
  0
LINE
  5
340
330
1F
100
AcDbEntity
  8
0
  6
Continuous
 62
     7
370
    15
100
AcDbLine
 10
710.5377918856
 20
65.4531118511
 30
0.0
 11
710.5377918856
 21
73.3647194742
 31
0.0
  0
LINE
  5
341
330
1F
100
AcDbEntity
  8
0
  6
Continuous
 62
     7
370
    15
100
AcDbLine
 10
528.537795581
 20
162.4531147121
 30
0.0
 11
528.537795581
 21
154.541507089
 31
0.0
  0
LINE
  5
342
330
1F
100
AcDbEntity
  8
0
  6
Continuous
 62
     7
370
    15
100
AcDbLine
 10
710.5377918856
 20
154.541507089
 30
0.0
 11
710.5377918856
 21
162.4531147121
 31
0.0
  0
LINE
  5
343
330
1F
100
AcDbEntity
  8
0
  6
Continuous
 62
     7
370
    15
100
AcDbLine
 10
528.537795581
 20
73.3647194742
 30
0.0
 11
528.537795581
 21
65.4531118511
 31
0.0
  0
ENDSEC
  0
SECTION
  2
OBJECTS
  0
DICTIONARY
  5
C
330
0
100
AcDbDictionary
281
     1
  3
ACAD_GROUP
350
D
  3
ACAD_LAYOUT
350
1A
  3
ACAD_MLINESTYLE
350
17
  3
ACAD_PLOTSETTINGS
350
19
  3
ACAD_PLOTSTYLENAME
350
E
  0
DICTIONARY
  5
D
102
{ACAD_REACTORS
330
C
102
}
330
C
100
AcDbDictionary
281
     1
  0
DICTIONARY
  5
1A
102
{ACAD_REACTORS
330
C
102
}
330
C
100
AcDbDictionary
281
     1
  3
Layout1
350
1E
  3
Layout2
350
26
  3
Model
350
22
  0
DICTIONARY
  5
17
102
{ACAD_REACTORS
330
C
102
}
330
C
100
AcDbDictionary
281
     1
  3
Standard
350
18
  0
DICTIONARY
  5
19
102
{ACAD_REACTORS
330
C
102
}
330
C
100
AcDbDictionary
281
     1
  0
ACDBDICTIONARYWDFLT
  5
E
102
{ACAD_REACTORS
330
C
102
}
330
C
100
AcDbDictionary
281
     1
  3
Normal
350
F
100
AcDbDictionaryWithDefault
340
F
  0
LAYOUT
  5
1E
102
{ACAD_REACTORS
330
1A
102
}
330
1A
100
AcDbPlotSettings
  1

  2
none_device
  4

  6

 40
0.0
 41
0.0
 42
0.0
 43
0.0
 44
0.0
 45
0.0
 46
0.0
 47
0.0
 48
0.0
 49
0.0
140
0.0
141
0.0
142
1.0
143
1.0
 70
   688
 72
     0
 73
     0
 74
     5
  7

 75
    16
147
1.0
148
0.0
149
0.0
100
AcDbLayout
  1
Layout1
 70
     1
 71
     1
 10
0.0
 20
0.0
 11
420.0
 21
297.0
 12
0.0
 22
0.0
 32
0.0
 14
1.0000000000E+20
 24
1.0000000000E+20
 34
1.0000000000E+20
 15
-1.0000000000E+20
 25
-1.0000000000E+20
 35
-1.0000000000E+20
146
0.0
 13
0.0
 23
0.0
 33
0.0
 16
1.0
 26
0.0
 36
0.0
 17
0.0
 27
1.0
 37
0.0
 76
     0
330
1B
  0
LAYOUT
  5
26
102
{ACAD_REACTORS
330
1A
102
}
330
1A
100
AcDbPlotSettings
  1

  2
none_device
  4

  6

 40
0.0
 41
0.0
 42
0.0
 43
0.0
 44
0.0
 45
0.0
 46
0.0
 47
0.0
 48
0.0
 49
0.0
140
0.0
141
0.0
142
1.0
143
1.0
 70
   688
 72
     0
 73
     0
 74
     5
  7

 75
    16
147
1.0
148
0.0
149
0.0
100
AcDbLayout
  1
Layout2
 70
     1
 71
     2
 10
0.0
 20
0.0
 11
0.0
 21
0.0
 12
0.0
 22
0.0
 32
0.0
 14
0.0
 24
0.0
 34
0.0
 15
0.0
 25
0.0
 35
0.0
146
0.0
 13
0.0
 23
0.0
 33
0.0
 16
1.0
 26
0.0
 36
0.0
 17
0.0
 27
1.0
 37
0.0
 76
     0
330
23
  0
LAYOUT
  5
22
102
{ACAD_REACTORS
330
1A
102
}
330
1A
100
AcDbPlotSettings
  1

  2
none_device
  4

  6

 40
0.0
 41
0.0
 42
0.0
 43
0.0
 44
0.0
 45
0.0
 46
0.0
 47
0.0
 48
0.0
 49
0.0
140
0.0
141
0.0
142
1.0
143
1.0
 70
  1712
 72
     0
 73
     0
 74
     0
  7

 75
     0
147
1.0
148
0.0
149
0.0
100
AcDbLayout
  1
Model
 70
     1
 71
     0
 10
0.0
 20
0.0
 11
0.0
 21
0.0
 12
0.0
 22
0.0
 32
0.0
 14
0.0
 24
0.0
 34
0.0
 15
1000.0
 25
1000.0
 35
0.0
146
0.0
 13
0.0
 23
0.0
 33
0.0
 16
1.0
 26
0.0
 36
0.0
 17
0.0
 27
1.0
 37
0.0
 76
     0
330
1F
  0
MLINESTYLE
  5
18
102
{ACAD_REACTORS
330
17
102
}
330
17
100
AcDbMlineStyle
  2
Standard
 70
     0
  3

 62
   256
 51
90.0
 52
90.0
 71
     2
 49
0.5
 62
   256
  6
BYLAYER
 49
-0.5
 62
   256
  6
BYLAYER
  0
ACDBPLACEHOLDER
  5
F
102
{ACAD_REACTORS
330
E
102
}
330
E
  0
ENDSEC
  0
EOF
