  0
SECTION
  2
HEADER
  9
$ACADVER
  1
AC1015
  9
$ACADMAINTVER
 70
     6
  9
$DWGCODEPAGE
  3
ANSI_1252
  9
$INSBASE
 10
0.0
 20
0.0
 30
0.0
  9
$EXTMIN
 10
0.0
 20
0.0
 30
0.0
  9
$EXTMAX
 10
1189.0
 20
841.0
 30
0.0
  9
$LIMMIN
 10
0.0
 20
0.0
  9
$LIMMAX
 10
1189.0
 20
841.0
  9
$ORTHOMODE
 70
     0
  9
$REGENMODE
 70
     1
  9
$FILLMODE
 70
     1
  9
$QTEXTMODE
 70
     0
  9
$MIRRTEXT
 70
     1
  9
$LTSCALE
 40
1.0
  9
$ATTMODE
 70
     1
  9
$TEXTSIZE
 40
3.5
  9
$TRACEWID
 40
1.0
  9
$TEXTSTYLE
  7
Standard
  9
$CLAYER
  8
0
  9
$CELTYPE
  6
ByLayer
  9
$CECOLOR
 62
   256
  9
$CELTSCALE
 40
1.0
  9
$DISPSILH
 70
     0
  9
$DIMSCALE
 40
1.0
  9
$DIMASZ
 40
6.0
  9
$DIMEXO
 40
1.0
  9
$DIMDLI
 40
3.75
  9
$DIMRND
 40
0.0
  9
$DIMDLE
 40
0.0
  9
$DIMEXE
 40
1.0
  9
$DIMTP
 40
0.0
  9
$DIMTM
 40
0.0
  9
$DIMTXT
 40
3.5
  9
$DIMCEN
 40
2.5
  9
$DIMTSZ
 40
0.0
  9
$DIMTOL
 70
     0
  9
$DIMLIM
 70
     0
  9
$DIMTIH
 70
     1
  9
$DIMTOH
 70
     1
  9
$DIMSE1
 70
     0
  9
$DIMSE2
 70
     0
  9
$DIMTAD
 70
     1
  9
$DIMZIN
 70
     0
  9
$DIMBLK
  1

  9
$DIMASO
 70
     1
  9
$DIMSHO
 70
     1
  9
$DIMPOST
  1

  9
$DIMAPOST
  1

  9
$DIMALT
 70
     0
  9
$DIMALTD
 70
     3
  9
$DIMALTF
 40
0.0393700787
  9
$DIMLFAC
 40
1.0
  9
$DIMTOFL
 70
     1
  9
$DIMTVP
 40
0.0
  9
$DIMTIX
 70
     0
  9
$DIMSOXD
 70
     0
  9
$DIMSAH
 70
     0
  9
$DIMBLK1
  1

  9
$DIMBLK2
  1

  9
$DIMSTYLE
  2
ISO-25
  9
$DIMCLRD
 70
     0
  9
$DIMCLRE
 70
     0
  9
$DIMCLRT
 70
     0
  9
$DIMTFAC
 40
1.0
  9
$DIMGAP
 40
1.524
  9
$DIMJUST
 70
     0
  9
$DIMSD1
 70
     0
  9
$DIMSD2
 70
     0
  9
$DIMTOLJ
 70
     0
  9
$DIMTZIN
 70
     0
  9
$DIMALTZ
 70
     0
  9
$DIMALTTZ
 70
     0
  9
$DIMUPT
 70
     0
  9
$DIMDEC
 70
     2
  9
$DIMTDEC
 70
     2
  9
$DIMALTU
 70
     2
  9
$DIMALTTD
 70
     3
  9
$DIMTXSTY
  7
Standard
  9
$DIMAUNIT
 70
     0
  9
$DIMADEC
 70
     2
  9
$DIMALTRND
 40
0.0
  9
$DIMAZIN
 70
     0
  9
$DIMDSEP
 70
    44
  9
$DIMATFIT
 70
     3
  9
$DIMFRAC
 70
     0
  9
$DIMLDRBLK
  1

  9
$DIMLUNIT
 70
     2
  9
$DIMLWD
 70
    -2
  9
$DIMLWE
 70
    -2
  9
$DIMTMOVE
 70
     0
  9
$LUNITS
 70
     2
  9
$LUPREC
 70
     2
  9
$SKETCHINC
 40
1.0
  9
$FILLETRAD
 40
10.0
  9
$AUNITS
 70
     0
  9
$AUPREC
 70
     2
  9
$MENU
  1
.
  9
$ELEVATION
 40
0.0
  9
$PELEVATION
 40
0.0
  9
$THICKNESS
 40
0.0
  9
$LIMCHECK
 70
     0
  9
$CHAMFERA
 40
10.0
  9
$CHAMFERB
 40
10.0
  9
$CHAMFERC
 40
20.0
  9
$CHAMFERD
 40
0.0
  9
$SKPOLY
 70
     0
  9
$TDCREATE
 40
2457806.692440891
  9
$TDUCREATE
 40
2457806.650774225
  9
$TDUPDATE
 40
2457806.692440903
  9
$TDUUPDATE
 40
2457806.650774236
  9
$TDINDWG
 40
0.0000000116
  9
$TDUSRTIMER
 40
0.0000000116
  9
$USRTIMER
 70
     1
  9
$ANGBASE
 50
0.0
  9
$ANGDIR
 70
     0
  9
$PDMODE
 70
     0
  9
$PDSIZE
 40
-1.0
  9
$PLINEWID
 40
0.0
  9
$SPLFRAME
 70
     0
  9
$SPLINETYPE
 70
     6
  9
$SPLINESEGS
 70
     8
  9
$HANDSEED
  5
2D4
  9
$SURFTAB1
 70
     6
  9
$SURFTAB2
 70
     6
  9
$SURFTYPE
 70
     6
  9
$SURFU
 70
     6
  9
$SURFV
 70
     6
  9
$UCSBASE
  2

  9
$UCSNAME
  2

  9
$UCSORG
 10
0.0
 20
0.0
 30
0.0
  9
$UCSXDIR
 10
1.0
 20
0.0
 30
0.0
  9
$UCSYDIR
 10
0.0
 20
1.0
 30
0.0
  9
$UCSORTHOREF
  2

  9
$UCSORTHOVIEW
 70
     0
  9
$UCSORGTOP
 10
0.0
 20
0.0
 30
0.0
  9
$UCSORGBOTTOM
 10
0.0
 20
0.0
 30
0.0
  9
$UCSORGLEFT
 10
0.0
 20
0.0
 30
0.0
  9
$UCSORGRIGHT
 10
0.0
 20
0.0
 30
0.0
  9
$UCSORGFRONT
 10
0.0
 20
0.0
 30
0.0
  9
$UCSORGBACK
 10
0.0
 20
0.0
 30
0.0
  9
$PUCSBASE
  2

  9
$PUCSNAME
  2

  9
$PUCSORG
 10
0.0
 20
0.0
 30
0.0
  9
$PUCSXDIR
 10
1.0
 20
0.0
 30
0.0
  9
$PUCSYDIR
 10
0.0
 20
1.0
 30
0.0
  9
$PUCSORTHOREF
  2

  9
$PUCSORTHOVIEW
 70
     0
  9
$PUCSORGTOP
 10
0.0
 20
0.0
 30
0.0
  9
$PUCSORGBOTTOM
 10
0.0
 20
0.0
 30
0.0
  9
$PUCSORGLEFT
 10
0.0
 20
0.0
 30
0.0
  9
$PUCSORGRIGHT
 10
0.0
 20
0.0
 30
0.0
  9
$PUCSORGFRONT
 10
0.0
 20
0.0
 30
0.0
  9
$PUCSORGBACK
 10
0.0
 20
0.0
 30
0.0
  9
$USERI1
 70
     0
  9
$USERI2
 70
     0
  9
$USERI3
 70
     0
  9
$USERI4
 70
     0
  9
$USERI5
 70
     0
  9
$USERR1
 40
0.0
  9
$USERR2
 40
0.0
  9
$USERR3
 40
0.0
  9
$USERR4
 40
0.0
  9
$USERR5
 40
0.0
  9
$WORLDVIEW
 70
     1
  9
$SHADEDGE
 70
     3
  9
$SHADEDIF
 70
    70
  9
$TILEMODE
 70
     1
  9
$MAXACTVP
 70
    64
  9
$PINSBASE
 10
0.0
 20
0.0
 30
0.0
  9
$PLIMCHECK
 70
     0
  9
$PEXTMIN
 10
1.0000000000E+20
 20
1.0000000000E+20
 30
1.0000000000E+20
  9
$PEXTMAX
 10
-1.0000000000E+20
 20
-1.0000000000E+20
 30
-1.0000000000E+20
  9
$PLIMMIN
 10
0.0
 20
0.0
  9
$PLIMMAX
 10
420.0
 20
297.0
  9
$UNITMODE
 70
     0
  9
$VISRETAIN
 70
     1
  9
$PLINEGEN
 70
     0
  9
$PSLTSCALE
 70
     1
  9
$TREEDEPTH
 70
  3020
  9
$CMLSTYLE
  2
Standard
  9
$CMLJUST
 70
     0
  9
$CMLSCALE
 40
20.0
  9
$PROXYGRAPHICS
 70
     1
  9
$MEASUREMENT
 70
     1
  9
$CELWEIGHT
370
    -1
  9
$ENDCAPS
280
     0
  9
$JOINSTYLE
280
     0
  9
$LWDISPLAY
290
     1
  9
$INSUNITS
 70
     4
  9
$HYPERLINKBASE
  1

  9
$STYLESHEET
  1

  9
$XEDIT
290
     1
  9
$CEPSNTYPE
380
     0
  9
$PSTYLEMODE
290
     1
  9
$FINGERPRINTGUID
  2
{F4294EE3-8C85-48AB-8355-EA9FF03C0C0D}
  9
$VERSIONGUID
  2
{FAEB1C32-E019-11D5-929B-00C0DF256EC4}
  9
$EXTNAMES
290
     1
  9
$PSVPSCALE
 40
0.0
  9
$OLESTARTUP
290
     0
  0
ENDSEC
  0
SECTION
  2
CLASSES
  0
CLASS
  1
ACDBDICTIONARYWDFLT
  2
AcDbDictionaryWithDefault
  3
ObjectDBX Classes
 90
        0
280
     0
281
     0
  0
CLASS
  1
VISUALSTYLE
  2
AcDbVisualStyle
  3
ObjectDBX Classes
 90
     4095
280
     0
281
     0
  0
CLASS
  1
MATERIAL
  2
AcDbMaterial
  3
ObjectDBX Classes
 90
     1153
280
     0
281
     0
  0
CLASS
  1
ACDBPLACEHOLDER
  2
AcDbPlaceHolder
  3
ObjectDBX Classes
 90
        0
280
     0
281
     0
  0
CLASS
  1
LAYOUT
  2
AcDbLayout
  3
ObjectDBX Classes
 90
        0
280
     0
281
     0
  0
ENDSEC
  0
SECTION
  2
TABLES
  0
TABLE
  2
VPORT
  5
8
330
0
100
AcDbSymbolTable
 70
     1
  0
VPORT
  5
29
330
8
100
AcDbSymbolTableRecord
100
AcDbViewportTableRecord
  2
*Active
 70
     0
 10
0.0
 20
0.0
 11
1.0
 21
1.0
 12
594.5
 22
420.5
 13
0.0
 23
0.0
 14
10.0
 24
10.0
 15
10.0
 25
10.0
 16
0.0
 26
0.0
 36
1.0
 17
0.0
 27
0.0
 37
0.0
 40
841.0
 41
1.4137931034
 42
50.0
 43
0.0
 44
0.0
 50
0.0
 51
0.0
 71
     0
 72
  2000
 73
     1
 74
     3
 75
     0
 76
     0
 77
     0
 78
     0
281
     0
 65
     1
110
0.0
120
0.0
130
0.0
111
1.0
121
0.0
131
0.0
112
0.0
122
1.0
132
0.0
 79
     0
146
0.0
  0
ENDTAB
  0
TABLE
  2
LTYPE
  5
5
330
0
100
AcDbSymbolTable
 70
     6
  0
LTYPE
  5
14
330
5
100
AcDbSymbolTableRecord
100
AcDbLinetypeTableRecord
  2
ByBlock
 70
     0
  3

 72
    65
 73
     0
 40
0.0
  0
LTYPE
  5
15
330
5
100
AcDbSymbolTableRecord
100
AcDbLinetypeTableRecord
  2
ByLayer
 70
     0
  3

 72
    65
 73
     0
 40
0.0
  0
LTYPE
  5
16
330
5
100
AcDbSymbolTableRecord
100
AcDbLinetypeTableRecord
  2
Continuous
 70
     0
  3
Solid line
 72
    65
 73
     0
 40
0.0
  0
LTYPE
  5
3F
330
5
100
AcDbSymbolTableRecord
100
AcDbLinetypeTableRecord
  2
HIDDEN
 70
     0
  3
Hidden __ __ __ __ __ __ __ __ __ __ __ __ __ __
 72
    65
 73
     2
 40
1.905
 49
1.27
 74
     0
 49
-0.635
 74
     0
  0
LTYPE
  5
40
330
5
100
AcDbSymbolTableRecord
100
AcDbLinetypeTableRecord
  2
PHANTOM
 70
     0
  3
Phantom ______  __  __  ______  __  __  ______
 72
    65
 73
     6
 40
12.7
 49
6.35
 74
     0
 49
-1.27
 74
     0
 49
1.27
 74
     0
 49
-1.27
 74
     0
 49
1.27
 74
     0
 49
-1.27
 74
     0
  0
LTYPE
  5
41
330
5
100
AcDbSymbolTableRecord
100
AcDbLinetypeTableRecord
  2
CENTER
 70
     0
  3
Center ____ _ ____ _ ____ _ ____ _ ____ _ ____
 72
    65
 73
     4
 40
10.16
 49
6.35
 74
     0
 49
-1.27
 74
     0
 49
1.27
 74
     0
 49
-1.27
 74
     0
  0
LTYPE
  5
42
330
5
100
AcDbSymbolTableRecord
100
AcDbLinetypeTableRecord
  2
CENTERX2
 70
     0
  3
Center (2x) ________  __  ________  __  _____
 72
    65
 73
     4
 40
20.32
 49
12.7
 74
     0
 49
-2.54
 74
     0
 49
2.54
 74
     0
 49
-2.54
 74
     0
  0
LTYPE
  5
43
330
5
100
AcDbSymbolTableRecord
100
AcDbLinetypeTableRecord
  2
DOT2
 70
     0
  3
Dot (.5x) ........................................
 72
    65
 73
     2
 40
0.635
 49
0.0
 74
     0
 49
-0.635
 74
     0
  0
ENDTAB
  0
TABLE
  2
LAYER
  5
2
330
0
100
AcDbSymbolTable
 70
     2
  0
LAYER
  5
10
330
2
100
AcDbSymbolTableRecord
100
AcDbLayerTableRecord
  2
0
 70
     0
 62
     7
  6
Continuous
370
    -3
390
F
  0
LAYER
  5
44
330
2
100
AcDbSymbolTableRecord
100
AcDbLayerTableRecord
  2
FORMAT
 70
     0
 62
     7
  6
Continuous
370
    -3
390
F
  0
ENDTAB
  0
TABLE
  2
STYLE
  5
3
330
0
100
AcDbSymbolTable
 70
     1
  0
STYLE
  5
11
330
3
100
AcDbSymbolTableRecord
100
AcDbTextStyleTableRecord
  2
Standard
 70
     0
 40
0.0
 41
1.0
 50
0.0
 71
     0
 42
2.5
  3
txt
  4

  0
ENDTAB
  0
TABLE
  2
VIEW
  5
6
330
0
100
AcDbSymbolTable
 70
     0
  0
ENDTAB
  0
TABLE
  2
UCS
  5
7
330
0
100
AcDbSymbolTable
 70
     0
  0
ENDTAB
  0
TABLE
  2
APPID
  5
9
330
0
100
AcDbSymbolTable
 70
     1
  0
APPID
  5
12
330
9
100
AcDbSymbolTableRecord
100
AcDbRegAppTableRecord
  2
ACAD
 70
     0
  0
ENDTAB
  0
TABLE
  2
DIMSTYLE
  5
A
330
0
100
AcDbSymbolTable
 70
     1
100
AcDbDimStyleTable
  0
DIMSTYLE
105
27
330
A
100
AcDbSymbolTableRecord
100
AcDbDimStyleTableRecord
  2
ISO-25
 70
     0
 41
2.5
 42
0.625
 43
3.75
 44
1.25
 73
     0
 74
     0
 77
     1
 78
     8
140
2.5
141
2.5
143
0.0393700787
147
0.625
171
     3
172
     1
178
     0
271
     2
272
     2
274
     3
278
    44
283
     0
284
     8
340
11
  0
ENDTAB
  0
TABLE
  2
BLOCK_RECORD
  5
1
330
0
100
AcDbSymbolTable
 70
     1
  0
BLOCK_RECORD
  5
1F
330
1
100
AcDbSymbolTableRecord
100
AcDbBlockTableRecord
  2
*Model_Space
340
22
  0
BLOCK_RECORD
  5
1B
330
1
100
AcDbSymbolTableRecord
100
AcDbBlockTableRecord
  2
*Paper_Space
340
1E
  0
BLOCK_RECORD
  5
23
330
1
100
AcDbSymbolTableRecord
100
AcDbBlockTableRecord
  2
*Paper_Space0
340
26
  0
ENDTAB
  0
ENDSEC
  0
SECTION
  2
BLOCKS
  0
BLOCK
  5
20
330
1F
100
AcDbEntity
  8
0
100
AcDbBlockBegin
  2
*Model_Space
 70
     0
 10
0.0
 20
0.0
 30
0.0
  3
*Model_Space
  1

  0
ENDBLK
  5
21
330
1F
100
AcDbEntity
  8
0
100
AcDbBlockEnd
  0
BLOCK
  5
1C
330
1B
100
AcDbEntity
 67
     1
  8
0
100
AcDbBlockBegin
  2
*Paper_Space
 70
     0
 10
0.0
 20
0.0
 30
0.0
  3
*Paper_Space
  1

  0
ENDBLK
  5
1D
330
1B
100
AcDbEntity
 67
     1
  8
0
100
AcDbBlockEnd
  0
BLOCK
  5
24
330
23
100
AcDbEntity
  8
0
100
AcDbBlockBegin
  2
*Paper_Space0
 70
     0
 10
0.0
 20
0.0
 30
0.0
  3
*Paper_Space0
  1

  0
ENDBLK
  5
25
330
23
100
AcDbEntity
  8
0
100
AcDbBlockEnd
  0
ENDSEC
  0
SECTION
  2
ENTITIES
  0
LINE
  5
45
330
1F
100
AcDbEntity
  8
0
  6
Continuous
 62
     7
370
    15
100
AcDbLine
 10
874.6612298199
 20
523.0586103326
 30
0.0
 11
874.6610659071
 21
523.0586103326
 31
0.0
  0
LINE
  5
46
330
1F
100
AcDbEntity
  8
0
  6
Continuous
 62
     7
370
    15
100
AcDbLine
 10
871.6610747286
 20
523.0586103326
 30
0.0
 11
870.6110644051
 21
523.0586103326
 31
0.0
  0
LINE
  5
47
330
1F
100
AcDbEntity
  8
0
  6
Continuous
 62
     7
370
    15
100
AcDbLine
 10
862.6110630938
 20
523.0586103326
 30
0.0
 11
861.0609101959
 21
523.0586103326
 31
0.0
  0
LINE
  5
48
330
1F
100
AcDbEntity
  8
0
  6
Continuous
 62
     7
370
    15
100
AcDbLine
 10
861.0609101959
 20
517.0586130744
 30
0.0
 11
862.6110630938
 21
517.0586130744
 31
0.0
  0
LINE
  5
49
330
1F
100
AcDbEntity
  8
0
  6
Continuous
 62
     7
370
    15
100
AcDbLine
 10
870.6110644051
 20
517.0586130744
 30
0.0
 11
871.6610747286
 21
517.0586130744
 31
0.0
  0
LINE
  5
4A
330
1F
100
AcDbEntity
  8
0
  6
Continuous
 62
     7
370
    15
100
AcDbLine
 10
874.6610659071
 20
517.0586130744
 30
0.0
 11
874.6612298199
 21
517.0586130744
 31
0.0
  0
ARC
  5
4B
330
1F
100
AcDbEntity
  8
0
  6
Continuous
 62
     7
370
    15
100
AcDbCircle
 10
877.9610693642
 20
430.5530592173
 30
0.0
 40
2.000000000000087
100
AcDbArc
 50
304.3297726759
 51
0.0
  0
ARC
  5
4C
330
1F
100
AcDbEntity
  8
0
  6
Continuous
 62
     7
370
    15
100
AcDbCircle
 10
877.9610693642
 20
441.5641662162
 30
0.0
 40
2.000000000000018
100
AcDbArc
 50
0.0
 51
55.5529438572
  0
ARC
  5
4D
330
1F
100
AcDbEntity
  8
0
  6
Continuous
 62
     7
370
    15
100
AcDbCircle
 10
877.9610693642
 20
441.5641662162
 30
0.0
 40
2.000000000000072
100
AcDbArc
 50
70.5218639187
 51
94.1666471768
  0
LINE
  5
4E
330
1F
100
AcDbEntity
  8
0
  6
Continuous
 62
     7
370
    15
100
AcDbLine
 10
874.6610659071
 20
429.5586127019
 30
0.0
 11
875.0610726782
 21
429.5586127019
 31
0.0
  0
LINE
  5
4F
330
1F
100
AcDbEntity
  8
0
  6
Continuous
 62
     7
370
    15
100
AcDbLine
 10
875.0610726782
 20
442.5586129701
 30
0.0
 11
874.6610659071
 21
442.5586129701
 31
0.0
  0
ARC
  5
50
330
1F
100
AcDbEntity
  8
0
  6
Continuous
 62
     7
370
    15
100
AcDbCircle
 10
877.9610693642
 20
474.5530592173
 30
0.0
 40
2.00000000000004
100
AcDbArc
 50
304.3297726759
 51
0.0
  0
ARC
  5
51
330
1F
100
AcDbEntity
  8
0
  6
Continuous
 62
     7
370
    15
100
AcDbCircle
 10
877.9610693642
 20
485.5641662162
 30
0.0
 40
2.000000000000064
100
AcDbArc
 50
0.0
 51
55.5529438572
  0
ARC
  5
52
330
1F
100
AcDbEntity
  8
0
  6
Continuous
 62
     7
370
    15
100
AcDbCircle
 10
877.9610693642
 20
485.5641662162
 30
0.0
 40
2.000000000000072
100
AcDbArc
 50
70.5218639187
 51
94.1666471768
  0
LINE
  5
53
330
1F
100
AcDbEntity
  8
0
  6
Continuous
 62
     7
370
    15
100
AcDbLine
 10
874.6610659071
 20
473.5586124634
 30
0.0
 11
875.0610726782
 21
473.5586124634
 31
0.0
  0
LINE
  5
54
330
1F
100
AcDbEntity
  8
0
  6
Continuous
 62
     7
370
    15
100
AcDbLine
 10
875.0610726782
 20
486.5586127317
 30
0.0
 11
874.6610659071
 21
486.5586127317
 31
0.0
  0
ARC
  5
55
330
1F
100
AcDbEntity
  8
0
  6
Continuous
 62
     7
370
    15
100
AcDbCircle
 10
867.6295313346
 20
521.0586127168
 30
0.0
 40
64.03153802959946
100
AcDbArc
 50
340.0
 51
0.0
  0
ARC
  5
56
330
1F
100
AcDbEntity
  8
0
  6
Continuous
 62
     7
370
    15
100
AcDbCircle
 10
867.6295313346
 20
521.0586127168
 30
0.0
 40
64.03153802959947
100
AcDbArc
 50
0.0
 51
16.8193398341
  0
SPLINE
  5
57
330
1F
100
AcDbEntity
  8
0
  6
Continuous
 62
     7
370
    15
100
AcDbSpline
210
0.0
220
0.0
230
1.0
 70
     8
 71
     3
 72
    19
 73
    15
 74
     0
 42
0.00000001
 43
0.00000001
 40
0.0
 40
0.0
 40
0.0
 40
0.0
 40
0.0033178197768082
 40
0.0601721558095088
 40
0.1417260468783764
 40
0.2389739516575709
 40
0.3405840858003103
 40
0.4417556076812104
 40
0.5421364617377253
 40
0.64230125042112
 40
0.7411566209883265
 40
0.8392909970990122
 40
0.9376606458644076
 40
1.0
 40
1.0
 40
1.0
 40
1.0
 10
919.5831793256717
 20
505.5575690394331
 30
0.0
 10
919.5819379032031
 20
505.5574621059819
 30
0.0
 10
919.5594233993324
 20
505.5555227552269
 30
0.0
 10
919.6787629595653
 20
505.5541704953393
 30
0.0
 10
919.9907522677288
 20
505.5039580960907
 30
0.0
 10
920.6145820576202
 20
505.4065344282387
 30
0.0
 10
921.4975223059058
 20
505.2936041882979
 30
0.0
 10
922.5512517159369
 20
505.2144048333014
 30
0.0
 10
923.6680021970074
 20
505.1981492990287
 30
0.0
 10
924.7510962725112
 20
505.2489944268365
 30
0.0
 10
925.7159249975673
 20
505.3487704716313
 30
0.0
 10
926.4767549859962
 20
505.4598975375606
 30
0.0
 10
926.9678302510315
 20
505.5388744348002
 30
0.0
 10
927.0778088528137
 20
505.5489352930575
 30
0.0
 10
927.1204697795825
 20
505.552837920754
 30
0.0
  0
SPLINE
  5
58
330
1F
100
AcDbEntity
  8
0
  6
Continuous
 62
     7
370
    15
100
AcDbSpline
210
0.0
220
0.0
230
1.0
 70
     8
 71
     3
 72
    10
 73
     6
 74
     0
 42
0.00000001
 43
0.00000001
 40
0.0
 40
0.0
 40
0.0
 40
0.0
 40
0.3759192723417558
 40
0.8747337154949377
 40
1.0
 40
1.0
 40
1.0
 40
1.0
 10
919.2104714818912
 20
541.8721161013532
 30
0.0
 10
919.0834888718093
 20
541.6918728726098
 30
0.0
 10
918.788010617587
 20
541.272461470291
 30
0.0
 10
918.6462205432261
 20
540.7578232083848
 30
0.0
 10
918.6759831150572
 20
540.4879879082991
 30
0.0
 10
918.6819570966678
 20
540.4338262206006
 30
0.0
  0
SPLINE
  5
59
330
1F
100
AcDbEntity
  8
0
  6
Continuous
 62
     7
370
    15
100
AcDbSpline
210
0.0
220
0.0
230
1.0
 70
     8
 71
     3
 72
    13
 73
     9
 74
     0
 42
0.00000001
 43
0.00000001
 40
0.0
 40
0.0
 40
0.0
 40
0.0
 40
0.1786025959870605
 40
0.3712668926986595
 40
0.564964442304535
 40
0.7593960837872287
 40
0.9587027728861302
 40
1.0
 40
1.0
 40
1.0
 40
1.0
 10
924.0171241470294
 20
543.6061195259977
 30
0.0
 10
923.6581398125892
 20
543.6276367483581
 30
0.0
 10
922.9119076672018
 20
543.6723652823479
 30
0.0
 10
921.7945848766891
 20
543.4838614974302
 30
0.0
 10
920.7592748661808
 20
543.1245938434741
 30
0.0
 10
919.9150333611987
 20
542.6133575013691
 30
0.0
 10
919.3966611724205
 20
542.178133019337
 30
0.0
 10
919.237747419283
 20
541.916946179066
 30
0.0
 10
919.2104714818912
 20
541.8721161013532
 30
0.0
  0
LINE
  5
5A
330
1F
100
AcDbEntity
  8
0
  6
Continuous
 62
     7
370
    15
100
AcDbLine
 10
918.6610656687
 20
531.5586126572
 30
0.0
 11
899.6610718676
 21
531.5586126572
 31
0.0
  0
LINE
  5
5B
330
1F
100
AcDbEntity
  8
0
  6
Continuous
 62
     7
370
    15
100
AcDbLine
 10
899.6610718676
 20
510.5586110776
 30
0.0
 11
918.6610656687
 21
510.5586110776
 31
0.0
  0
SPLINE
  5
5C
330
1F
100
AcDbEntity
  8
0
  6
Continuous
 62
     7
370
    15
100
AcDbSpline
210
0.0
220
0.0
230
1.0
 70
     8
 71
     3
 72
    13
 73
     9
 74
     0
 42
0.00000001
 43
0.00000001
 40
0.0
 40
0.0
 40
0.0
 40
0.0
 40
0.0058721444646077
 40
0.1047534375004297
 40
0.3519679116963167
 40
0.6197197925036654
 40
0.8917140055811743
 40
0.9999999999999999
 40
0.9999999999999999
 40
0.9999999999999999
 40
0.9999999999999999
 10
928.8559484191852
 20
539.7254846220899
 30
0.0
 10
928.8560167374483
 20
539.7253706040469
 30
0.0
 10
928.8572354698788
 20
539.7233366312763
 30
0.0
 10
928.8333793475614
 20
539.763582450642
 30
0.0
 10
928.7253590498572
 20
539.9469477674563
 30
0.0
 10
928.4240524925817
 20
540.4557362402402
 30
0.0
 10
928.0855735417289
 20
541.0258648925986
 30
0.0
 10
927.8010282677224
 20
541.4985655270887
 30
0.0
 10
927.7200030990558
 20
541.6331685310292
 30
0.0
  0
SPLINE
  5
5D
330
1F
100
AcDbEntity
  8
0
  6
Continuous
 62
     7
370
    15
100
AcDbSpline
210
0.0
220
0.0
230
1.0
 70
     8
 71
     3
 72
    18
 73
    14
 74
     0
 42
0.00000001
 43
0.00000001
 40
0.0
 40
0.0
 40
0.0
 40
0.0
 40
0.0134257671017331
 40
0.0438939020780642
 40
0.0569553789110453
 40
0.0613383980235661
 40
0.0645031650921119
 40
0.0683327439559514
 40
0.0749975218954926
 40
0.0913293568624827
 40
0.1588029816773509
 40
0.6274482226864339
 40
1.0
 40
1.0
 40
1.0
 40
1.0
 10
928.9193379589038
 20
539.5864865904737
 30
0.0
 10
928.9164443778852
 20
539.5960356945358
 30
0.0
 10
928.9069841689513
 20
539.6272553213514
 30
0.0
 10
928.8888300781342
 20
539.6650805797767
 30
0.0
 10
928.8720412334574
 20
539.6972304477492
 30
0.0
 10
928.8656708212123
 20
539.7087140076475
 30
0.0
 10
928.8632738386457
 20
539.7129155212601
 30
0.0
 10
928.8615332277393
 20
539.7159660100333
 30
0.0
 10
928.8598205961289
 20
539.7188894236066
 30
0.0
 10
928.8580409157469
 20
539.7219743049011
 30
0.0
 10
928.8550912809068
 20
539.7268474708634
 30
0.0
 10
928.8466987020315
 20
539.7412745188022
 30
0.0
 10
928.7897819535367
 20
539.8375652921374
 30
0.0
 10
928.7645744987445
 20
539.8802108293462
 30
0.0
  0
LINE
  5
5E
330
1F
100
AcDbEntity
  8
0
  6
Continuous
 62
     7
370
    15
100
AcDbLine
 10
899.6610718676
 20
526.0586164123
 30
0.0
 11
899.1922664352
 21
525.2466148859
 31
0.0
  0
LINE
  5
5F
330
1F
100
AcDbEntity
  8
0
  6
Continuous
 62
     7
370
    15
100
AcDbLine
 10
899.1922664352
 20
516.8706125742
 30
0.0
 11
899.6610718676
 21
516.0586110478
 31
0.0
  0
LINE
  5
60
330
1F
100
AcDbEntity
  8
0
  6
Continuous
 62
     7
370
    15
100
AcDbLine
 10
898.3539420076
 20
516.0586110478
 30
0.0
 11
898.8227623411
 21
516.8706125742
 31
0.0
  0
LINE
  5
61
330
1F
100
AcDbEntity
  8
0
  6
Continuous
 62
     7
370
    15
100
AcDbLine
 10
898.8227623411
 20
525.2466148859
 30
0.0
 11
898.3539420076
 21
526.0586164123
 31
0.0
  0
LINE
  5
62
330
1F
100
AcDbEntity
  8
0
  6
Continuous
 62
     7
370
    15
100
AcDbLine
 10
895.6610637613
 20
526.0586164123
 30
0.0
 11
895.192258329
 21
525.2466148859
 31
0.0
  0
LINE
  5
63
330
1F
100
AcDbEntity
  8
0
  6
Continuous
 62
     7
370
    15
100
AcDbLine
 10
895.192258329
 20
516.8706125742
 30
0.0
 11
895.6610637613
 21
516.0586110478
 31
0.0
  0
LINE
  5
64
330
1F
100
AcDbEntity
  8
0
  6
Continuous
 62
     7
370
    15
100
AcDbLine
 10
897.6610678144
 20
526.0586164123
 30
0.0
 11
897.1922623821
 21
525.2466148859
 31
0.0
  0
LINE
  5
65
330
1F
100
AcDbEntity
  8
0
  6
Continuous
 62
     7
370
    15
100
AcDbLine
 10
897.1922623821
 20
516.8706125742
 30
0.0
 11
897.6610678144
 21
516.0586110478
 31
0.0
  0
LINE
  5
66
330
1F
100
AcDbEntity
  8
0
  6
Continuous
 62
     7
370
    15
100
AcDbLine
 10
894.3539488026
 20
516.0586110478
 30
0.0
 11
894.8227542349
 21
516.8706125742
 31
0.0
  0
LINE
  5
67
330
1F
100
AcDbEntity
  8
0
  6
Continuous
 62
     7
370
    15
100
AcDbLine
 10
894.8227542349
 20
525.2466148859
 30
0.0
 11
894.3539488026
 21
526.0586164123
 31
0.0
  0
LINE
  5
68
330
1F
100
AcDbEntity
  8
0
  6
Continuous
 62
     7
370
    15
100
AcDbLine
 10
892.3539447494
 20
516.0586110478
 30
0.0
 11
892.8227501818
 21
516.8706125742
 31
0.0
  0
LINE
  5
69
330
1F
100
AcDbEntity
  8
0
  6
Continuous
 62
     7
370
    15
100
AcDbLine
 10
892.8227501818
 20
525.2466148859
 30
0.0
 11
892.3539447494
 21
526.0586164123
 31
0.0
  0
LINE
  5
6A
330
1F
100
AcDbEntity
  8
0
  6
Continuous
 62
     7
370
    15
100
AcDbLine
 10
896.3539528557
 20
516.0586110478
 30
0.0
 11
896.822758288
 21
516.8706125742
 31
0.0
  0
LINE
  5
6B
330
1F
100
AcDbEntity
  8
0
  6
Continuous
 62
     7
370
    15
100
AcDbLine
 10
896.822758288
 20
525.2466148859
 30
0.0
 11
896.3539528557
 21
526.0586164123
 31
0.0
  0
LINE
  5
6C
330
1F
100
AcDbEntity
  8
0
  6
Continuous
 62
     7
370
    15
100
AcDbLine
 10
898.3539420076
 20
526.0586164123
 30
0.0
 11
897.6610678144
 21
526.0586164123
 31
0.0
  0
LINE
  5
6D
330
1F
100
AcDbEntity
  8
0
  6
Continuous
 62
     7
370
    15
100
AcDbLine
 10
897.6610678144
 20
516.0586110478
 30
0.0
 11
898.3539420076
 21
516.0586110478
 31
0.0
  0
LINE
  5
6E
330
1F
100
AcDbEntity
  8
0
  6
Continuous
 62
     7
370
    15
100
AcDbLine
 10
894.3539488026
 20
526.0586164123
 30
0.0
 11
893.6610746094
 21
526.0586164123
 31
0.0
  0
LINE
  5
6F
330
1F
100
AcDbEntity
  8
0
  6
Continuous
 62
     7
370
    15
100
AcDbLine
 10
893.6610746094
 20
516.0586110478
 30
0.0
 11
894.3539488026
 21
516.0586110478
 31
0.0
  0
LINE
  5
70
330
1F
100
AcDbEntity
  8
0
  6
Continuous
 62
     7
370
    15
100
AcDbLine
 10
896.3539528557
 20
526.0586164123
 30
0.0
 11
895.6610637613
 21
526.0586164123
 31
0.0
  0
LINE
  5
71
330
1F
100
AcDbEntity
  8
0
  6
Continuous
 62
     7
370
    15
100
AcDbLine
 10
895.6610637613
 20
516.0586110478
 30
0.0
 11
896.3539528557
 21
516.0586110478
 31
0.0
  0
LINE
  5
72
330
1F
100
AcDbEntity
  8
0
  6
Continuous
 62
     7
370
    15
100
AcDbLine
 10
891.6610705563
 20
526.0586164123
 30
0.0
 11
891.1922651239
 21
525.2466148859
 31
0.0
  0
LINE
  5
73
330
1F
100
AcDbEntity
  8
0
  6
Continuous
 62
     7
370
    15
100
AcDbLine
 10
891.1922651239
 20
516.8706125742
 30
0.0
 11
891.6610705563
 21
516.0586110478
 31
0.0
  0
LINE
  5
74
330
1F
100
AcDbEntity
  8
0
  6
Continuous
 62
     7
370
    15
100
AcDbLine
 10
892.3539447494
 20
526.0586164123
 30
0.0
 11
891.6610705563
 21
526.0586164123
 31
0.0
  0
LINE
  5
75
330
1F
100
AcDbEntity
  8
0
  6
Continuous
 62
     7
370
    15
100
AcDbLine
 10
891.6610705563
 20
516.0586110478
 30
0.0
 11
892.3539447494
 21
516.0586110478
 31
0.0
  0
LINE
  5
76
330
1F
100
AcDbEntity
  8
0
  6
Continuous
 62
     7
370
    15
100
AcDbLine
 10
893.6610746094
 20
526.0586164123
 30
0.0
 11
893.1922542759
 21
525.2466148859
 31
0.0
  0
LINE
  5
77
330
1F
100
AcDbEntity
  8
0
  6
Continuous
 62
     7
370
    15
100
AcDbLine
 10
893.1922542759
 20
516.8706125742
 30
0.0
 11
893.6610746094
 21
516.0586110478
 31
0.0
  0
LINE
  5
78
330
1F
100
AcDbEntity
  8
0
  6
Continuous
 62
     7
370
    15
100
AcDbLine
 10
880.3539502331
 20
516.0586110478
 30
0.0
 11
880.8227556654
 21
516.8706125742
 31
0.0
  0
LINE
  5
79
330
1F
100
AcDbEntity
  8
0
  6
Continuous
 62
     7
370
    15
100
AcDbLine
 10
880.8227556654
 20
525.2466148859
 30
0.0
 11
880.3539502331
 21
526.0586164123
 31
0.0
  0
LINE
  5
7A
330
1F
100
AcDbEntity
  8
0
  6
Continuous
 62
     7
370
    15
100
AcDbLine
 10
880.3539502331
 20
526.0586164123
 30
0.0
 11
879.6610760399
 21
526.0586164123
 31
0.0
  0
LINE
  5
7B
330
1F
100
AcDbEntity
  8
0
  6
Continuous
 62
     7
370
    15
100
AcDbLine
 10
879.6610760399
 20
516.0586110478
 30
0.0
 11
880.3539502331
 21
516.0586110478
 31
0.0
  0
LINE
  5
7C
330
1F
100
AcDbEntity
  8
0
  6
Continuous
 62
     7
370
    15
100
AcDbLine
 10
879.6610760399
 20
526.0586164123
 30
0.0
 11
879.1922557064
 21
525.2466148859
 31
0.0
  0
LINE
  5
7D
330
1F
100
AcDbEntity
  8
0
  6
Continuous
 62
     7
370
    15
100
AcDbLine
 10
879.1922557064
 20
516.8706125742
 30
0.0
 11
879.6610760399
 21
516.0586110478
 31
0.0
  0
LINE
  5
7E
330
1F
100
AcDbEntity
  8
0
  6
Continuous
 62
     7
370
    15
100
AcDbLine
 10
878.46636054
 20
525.8639029389
 30
0.0
 11
874.6610659071
 21
522.0586157566
 31
0.0
  0
LINE
  5
7F
330
1F
100
AcDbEntity
  8
0
  6
Continuous
 62
     7
370
    15
100
AcDbLine
 10
874.6610659071
 20
520.0586117035
 30
0.0
 11
878.46636054
 21
516.2533207959
 31
0.0
  0
LINE
  5
80
330
1F
100
AcDbEntity
  8
0
  6
Continuous
 62
     7
370
    15
100
AcDbLine
 10
878.46636054
 20
516.2533207959
 30
0.0
 11
878.8227516123
 21
516.8706125742
 31
0.0
  0
LINE
  5
81
330
1F
100
AcDbEntity
  8
0
  6
Continuous
 62
     7
370
    15
100
AcDbLine
 10
878.8227516123
 20
525.2466148859
 30
0.0
 11
878.46636054
 21
525.8639029389
 31
0.0
  0
LINE
  5
82
330
1F
100
AcDbEntity
  8
0
  6
Continuous
 62
     7
370
    15
100
AcDbLine
 10
899.1922664352
 20
525.2466148859
 30
0.0
 11
898.8227623411
 21
525.2466148859
 31
0.0
  0
LINE
  5
83
330
1F
100
AcDbEntity
  8
0
  6
Continuous
 62
     7
370
    15
100
AcDbLine
 10
898.8227623411
 20
516.8706125742
 30
0.0
 11
899.1922664352
 21
516.8706125742
 31
0.0
  0
LINE
  5
84
330
1F
100
AcDbEntity
  8
0
  6
Continuous
 62
     7
370
    15
100
AcDbLine
 10
897.1922623821
 20
525.2466148859
 30
0.0
 11
896.822758288
 21
525.2466148859
 31
0.0
  0
LINE
  5
85
330
1F
100
AcDbEntity
  8
0
  6
Continuous
 62
     7
370
    15
100
AcDbLine
 10
896.822758288
 20
516.8706125742
 30
0.0
 11
897.1922623821
 21
516.8706125742
 31
0.0
  0
LINE
  5
86
330
1F
100
AcDbEntity
  8
0
  6
Continuous
 62
     7
370
    15
100
AcDbLine
 10
893.1922542759
 20
525.2466148859
 30
0.0
 11
892.8227501818
 21
525.2466148859
 31
0.0
  0
LINE
  5
87
330
1F
100
AcDbEntity
  8
0
  6
Continuous
 62
     7
370
    15
100
AcDbLine
 10
892.8227501818
 20
516.8706125742
 30
0.0
 11
893.1922542759
 21
516.8706125742
 31
0.0
  0
LINE
  5
88
330
1F
100
AcDbEntity
  8
0
  6
Continuous
 62
     7
370
    15
100
AcDbLine
 10
891.1922651239
 20
525.2466148859
 30
0.0
 11
891.1110686966
 21
525.2466148859
 31
0.0
  0
LINE
  5
89
330
1F
100
AcDbEntity
  8
0
  6
Continuous
 62
     7
370
    15
100
AcDbLine
 10
891.1110686966
 20
516.8706125742
 30
0.0
 11
891.1922651239
 21
516.8706125742
 31
0.0
  0
LINE
  5
8A
330
1F
100
AcDbEntity
  8
0
  6
Continuous
 62
     7
370
    15
100
AcDbLine
 10
895.192258329
 20
525.2466148859
 30
0.0
 11
894.8227542349
 21
525.2466148859
 31
0.0
  0
LINE
  5
8B
330
1F
100
AcDbEntity
  8
0
  6
Continuous
 62
     7
370
    15
100
AcDbLine
 10
894.8227542349
 20
516.8706125742
 30
0.0
 11
895.192258329
 21
516.8706125742
 31
0.0
  0
LINE
  5
8C
330
1F
100
AcDbEntity
  8
0
  6
Continuous
 62
     7
370
    15
100
AcDbLine
 10
879.1922557064
 20
525.2466148859
 30
0.0
 11
878.8227516123
 21
525.2466148859
 31
0.0
  0
LINE
  5
8D
330
1F
100
AcDbEntity
  8
0
  6
Continuous
 62
     7
370
    15
100
AcDbLine
 10
878.8227516123
 20
516.8706125742
 30
0.0
 11
879.1922557064
 21
516.8706125742
 31
0.0
  0
LINE
  5
8E
330
1F
100
AcDbEntity
  8
0
  6
Continuous
 62
     7
370
    15
100
AcDbLine
 10
881.1110633322
 20
525.2466148859
 30
0.0
 11
880.8227556654
 21
525.2466148859
 31
0.0
  0
LINE
  5
8F
330
1F
100
AcDbEntity
  8
0
  6
Continuous
 62
     7
370
    15
100
AcDbLine
 10
880.8227556654
 20
516.8706125742
 30
0.0
 11
881.1110633322
 21
516.8706125742
 31
0.0
  0
ARC
  5
90
330
1F
100
AcDbEntity
  8
0
  6
Continuous
 62
     7
370
    15
100
AcDbCircle
 10
923.3723445716
 20
500.7698879242
 30
0.0
 40
4.711275207452489
100
AcDbArc
 50
255.1810072227
 51
255.506233997
  0
LWPOLYLINE
  5
91
330
1F
100
AcDbEntity
  8
0
  6
Continuous
 62
     7
370
    15
100
AcDbPolyline
 90
        3
 70
   128
 43
0.0
 10
918.6610656687
 20
500.7698892778
 10
918.7243061968
 20
500.0006056553
 10
918.7853562542
 20
499.6948599046
  0
LINE
  5
92
330
1F
100
AcDbEntity
  8
0
  6
Continuous
 62
     7
370
    15
100
AcDbLine
 10
921.7121231266
 20
496.3608293956
 30
0.0
 11
922.1673536011
 21
496.2153158313
 31
0.0
  0
LINE
  5
93
330
1F
100
AcDbEntity
  8
0
  6
Continuous
 62
     7
370
    15
100
AcDbLine
 10
924.7111457296
 20
496.2528406804
 30
0.0
 11
925.0370192238
 21
496.3625095015
 31
0.0
  0
LINE
  5
94
330
1F
100
AcDbEntity
  8
0
  6
Continuous
 62
     7
370
    15
100
AcDbLine
 10
927.6096152969
 20
498.7103662616
 30
0.0
 11
927.799500794
 21
499.1585373109
 31
0.0
  0
LINE
  5
95
330
1F
100
AcDbEntity
  8
0
  6
Continuous
 62
     7
370
    15
100
AcDbLine
 10
874.6610659071
 20
528.0586130148
 30
0.0
 11
871.6610747286
 21
528.0586130148
 31
0.0
  0
LINE
  5
96
330
1F
100
AcDbEntity
  8
0
  6
Continuous
 62
     7
370
    15
100
AcDbLine
 10
595.2110665747
 20
477.458613289
 30
0.0
 11
591.2110733696
 21
473.4586126333
 31
0.0
  0
LINE
  5
97
330
1F
100
AcDbEntity
  8
0
  6
Continuous
 62
     7
370
    15
100
AcDbLine
 10
591.2110733696
 20
442.6586128002
 30
0.0
 11
595.2110665747
 21
438.6586121446
 31
0.0
  0
LINE
  5
98
330
1F
100
AcDbEntity
  8
0
  6
Continuous
 62
     7
370
    15
100
AcDbLine
 10
595.2110665747
 20
438.6586121446
 30
0.0
 11
598.711066217
 21
438.6586121446
 31
0.0
  0
LINE
  5
99
330
1F
100
AcDbEntity
  8
0
  6
Continuous
 62
     7
370
    15
100
AcDbLine
 10
598.711066217
 20
477.458613289
 30
0.0
 11
595.2110665747
 21
477.458613289
 31
0.0
  0
LINE
  5
9A
330
1F
100
AcDbEntity
  8
0
  6
Continuous
 62
     7
370
    15
100
AcDbLine
 10
598.711066217
 20
442.1586117869
 30
0.0
 11
600.7110702702
 21
444.1586130461
 31
0.0
  0
LINE
  5
9B
330
1F
100
AcDbEntity
  8
0
  6
Continuous
 62
     7
370
    15
100
AcDbLine
 10
600.7110702702
 20
471.9586123874
 30
0.0
 11
598.711066217
 21
473.9586136466
 31
0.0
  0
ARC
  5
9C
330
1F
100
AcDbEntity
  8
0
  6
Continuous
 62
     7
370
    15
100
AcDbCircle
 10
898.9734268929
 20
701.0586127168
 30
0.0
 40
2.0
100
AcDbArc
 50
356.2055053037
 51
90.0000000001
  0
ARC
  5
9D
330
1F
100
AcDbEntity
  8
0
  6
Continuous
 62
     7
370
    15
100
AcDbCircle
 10
873.248716962
 20
701.0586189086
 30
0.0
 40
1.999998576527977
100
AcDbArc
 50
89.9999431064
 51
183.7979641933
  0
SPLINE
  5
9E
330
1F
100
AcDbEntity
  8
0
  6
Continuous
 62
     7
370
    15
100
AcDbSpline
210
0.0
220
0.0
230
1.0
 70
     8
 71
     3
 72
    21
 73
    17
 74
     0
 42
0.00000001
 43
0.00000001
 40
0.0
 40
0.0
 40
0.0
 40
0.0
 40
0.1123546674883727
 40
0.2221987516097725
 40
0.3223191511226796
 40
0.4127162562381222
 40
0.4933897133825014
 40
0.5643397936193312
 40
0.6255664054053597
 40
0.6761349913964163
 40
0.7173651182362177
 40
0.7556506553367602
 40
0.8018587894145724
 40
0.8589842832377378
 40
0.9250354795638698
 40
0.9999999999999999
 40
0.9999999999999999
 40
0.9999999999999999
 40
0.9999999999999999
 10
871.2531554408985
 20
700.9255311613966
 30
0.0
 10
871.5476779282793
 20
696.5080578837483
 30
0.0
 10
872.1301417500322
 20
687.7718204892085
 30
0.0
 10
872.9752090305392
 20
675.0991137270066
 30
0.0
 10
873.7627130023525
 20
663.289705384906
 30
0.0
 10
874.473707709812
 20
652.6271930490219
 30
0.0
 10
875.1081943295875
 20
643.1115707940859
 30
0.0
 10
875.6661364697402
 20
634.7428402852858
 30
0.0
 10
876.1451208707074
 20
627.5577622877606
 30
0.0
 10
876.5461436743309
 20
621.5411527912743
 30
0.0
 10
876.8871327449128
 20
616.4266470005009
 30
0.0
 10
877.2161830399272
 20
611.4831823909874
 30
0.0
 10
877.5866555023437
 20
605.9217521363724
 30
0.0
 10
878.0322792730736
 20
599.2784109799638
 30
0.0
 10
878.5569616535853
 20
591.5152554429194
 30
0.0
 10
878.9187474175217
 20
585.9938264876586
 30
0.0
 10
879.1110741802173
 20
583.058612716763
 30
0.0
  0
SPLINE
  5
9F
330
1F
100
AcDbEntity
  8
0
  6
Continuous
 62
     7
370
    15
100
AcDbSpline
210
0.0
220
0.0
230
1.0
 70
     8
 71
     3
 72
    24
 73
    20
 74
     0
 42
0.00000001
 43
0.00000001
 40
0.0
 40
0.0
 40
0.0
 40
0.0
 40
0.0604816247652902
 40
0.1096928430297986
 40
0.147807731923962
 40
0.1808974163368667
 40
0.213066219751654
 40
0.2437642397316714
 40
0.273574674253857
 40
0.3034510650981468
 40
0.3395985610330963
 40
0.3896463530105452
 40
0.4492378854239218
 40
0.5183733205087915
 40
0.5970524239354185
 40
0.6852753125573151
 40
0.7830421288985197
 40
0.8903526146527831
 40
1.0
 40
1.0
 40
1.0
 40
1.0
 10
893.1110727497058
 20
583.058612716763
 30
0.0
 10
893.2656672622563
 20
585.3962810375513
 30
0.0
 10
893.5460484799282
 20
589.6360064940523
 30
0.0
 10
893.9343558134691
 20
595.393897140781
 30
0.0
 10
894.2482491883399
 20
600.1302492329704
 30
0.0
 10
894.5194004468063
 20
604.1980988158298
 30
0.0
 10
894.7707243687726
 20
607.9737662011695
 30
0.0
 10
895.0136397451154
 20
611.6205396891238
 30
0.0
 10
895.250612698964
 20
615.1770826552618
 30
0.0
 10
895.5021138918447
 20
618.9479736709613
 30
0.0
 10
895.8066462616558
 20
623.5151958390519
 30
0.0
 10
896.1892210462565
 20
629.2516655620677
 30
0.0
 10
896.6583267803252
 20
636.2861694365947
 30
0.0
 10
897.202609951255
 20
644.4472732255052
 30
0.0
 10
897.822063369158
 20
653.7349775711068
 30
0.0
 10
898.5166160571101
 20
664.1492862747018
 30
0.0
 10
899.2862941326969
 20
675.6901955860444
 30
0.0
 10
900.1121556309125
 20
688.0741261303319
 30
0.0
 10
900.6813359487088
 20
696.611088270636
 30
0.0
 10
900.9689914890247
 20
700.9255460625577
 30
0.0
  0
LINE
  5
A0
330
1F
100
AcDbEntity
  8
0
  6
Continuous
 62
     7
370
    15
100
AcDbLine
 10
835.8767407843
 20
470.558612903
 30
0.0
 11
835.3228869744
 21
470.558612903
 31
0.0
  0
LINE
  5
A1
330
1F
100
AcDbEntity
  8
0
  6
Continuous
 62
     7
370
    15
100
AcDbLine
 10
835.3228869744
 20
445.5586125305
 30
0.0
 11
835.8767407843
 21
445.5586125305
 31
0.0
  0
LINE
  5
A2
330
1F
100
AcDbEntity
  8
0
  6
Continuous
 62
     7
370
    15
100
AcDbLine
 10
637.4453979441
 20
445.5586125305
 30
0.0
 11
637.9992517539
 21
445.5586125305
 31
0.0
  0
LINE
  5
A3
330
1F
100
AcDbEntity
  8
0
  6
Continuous
 62
     7
370
    15
100
AcDbLine
 10
637.9992517539
 20
470.558612903
 30
0.0
 11
637.4453979441
 21
470.558612903
 31
0.0
  0
LINE
  5
A4
330
1F
100
AcDbEntity
  8
0
  6
Continuous
 62
     7
370
    15
100
AcDbLine
 10
881.1110633322
 20
445.5586125305
 30
0.0
 11
891.1110686966
 21
445.5586125305
 31
0.0
  0
LINE
  5
A5
330
1F
100
AcDbEntity
  8
0
  6
Continuous
 62
     7
370
    15
100
AcDbLine
 10
836.1110689946
 20
450.0586123368
 30
0.0
 11
836.3405543276
 21
450.0586123368
 31
0.0
  0
LINE
  5
A6
330
1F
100
AcDbEntity
  8
0
  6
Continuous
 62
     7
370
    15
100
AcDbLine
 10
874.6610659071
 20
450.0586123368
 30
0.0
 11
881.1110633322
 21
450.0586123368
 31
0.0
  0
LINE
  5
A7
330
1F
100
AcDbEntity
  8
0
  6
Continuous
 62
     7
370
    15
100
AcDbLine
 10
881.1110633322
 20
466.0586130967
 30
0.0
 11
874.6610659071
 21
466.0586130967
 31
0.0
  0
LINE
  5
A8
330
1F
100
AcDbEntity
  8
0
  6
Continuous
 62
     7
370
    15
100
AcDbLine
 10
836.3405543276
 20
466.0586130967
 30
0.0
 11
836.1110689946
 21
466.0586130967
 31
0.0
  0
LINE
  5
A9
330
1F
100
AcDbEntity
  8
0
  6
Continuous
 62
     7
370
    15
100
AcDbLine
 10
637.2110697337
 20
466.0586130967
 30
0.0
 11
636.9815844007
 21
466.0586130967
 31
0.0
  0
LINE
  5
AA
330
1F
100
AcDbEntity
  8
0
  6
Continuous
 62
     7
370
    15
100
AcDbLine
 10
601.6610639997
 20
466.0586130967
 30
0.0
 11
600.7110702702
 21
466.0586130967
 31
0.0
  0
LINE
  5
AB
330
1F
100
AcDbEntity
  8
0
  6
Continuous
 62
     7
370
    15
100
AcDbLine
 10
600.7110702702
 20
450.0586123368
 30
0.0
 11
601.6610639997
 21
450.0586123368
 31
0.0
  0
LINE
  5
AC
330
1F
100
AcDbEntity
  8
0
  6
Continuous
 62
     7
370
    15
100
AcDbLine
 10
636.9815844007
 20
450.0586123368
 30
0.0
 11
637.2110697337
 21
450.0586123368
 31
0.0
  0
LINE
  5
AD
330
1F
100
AcDbEntity
  8
0
  6
Continuous
 62
     7
370
    15
100
AcDbLine
 10
862.6110630938
 20
512.0586141175
 30
0.0
 11
864.6110671469
 21
510.0586137896
 31
0.0
  0
LINE
  5
AE
330
1F
100
AcDbEntity
  8
0
  6
Continuous
 62
     7
370
    15
100
AcDbLine
 10
868.6110752531
 20
510.0586137896
 30
0.0
 11
870.6110644051
 21
512.0586141175
 31
0.0
  0
LINE
  5
AF
330
1F
100
AcDbEntity
  8
0
  6
Continuous
 62
     7
370
    15
100
AcDbLine
 10
881.1110633322
 20
542.0586115843
 30
0.0
 11
876.6110765644
 21
542.0586115843
 31
0.0
  0
LINE
  5
B0
330
1F
100
AcDbEntity
  8
0
  6
Continuous
 62
     7
370
    15
100
AcDbLine
 10
876.6110765644
 20
534.058610273
 30
0.0
 11
881.1110633322
 21
534.058610273
 31
0.0
  0
LINE
  5
B1
330
1F
100
AcDbEntity
  8
0
  6
Continuous
 62
     7
370
    15
100
AcDbLine
 10
870.6110644051
 20
512.0586141175
 30
0.0
 11
870.6110644051
 21
528.0586130148
 31
0.0
  0
LINE
  5
B2
330
1F
100
AcDbEntity
  8
0
  6
Continuous
 62
     7
370
    15
100
AcDbLine
 10
862.6110630938
 20
528.0586130148
 30
0.0
 11
862.6110630938
 21
512.0586141175
 31
0.0
  0
ARC
  5
B3
330
1F
100
AcDbEntity
  8
0
  6
Continuous
 62
     7
370
    15
100
AcDbCircle
 10
876.6110693642
 20
528.0586127168
 30
0.0
 40
6.0
100
AcDbArc
 50
90.0
 51
180.0
  0
ARC
  5
B4
330
1F
100
AcDbEntity
  8
0
  6
Continuous
 62
     7
370
    15
100
AcDbCircle
 10
876.6110693642
 20
528.0586127168
 30
0.0
 40
14.0
100
AcDbArc
 50
90.0
 51
180.0
  0
SPLINE
  5
B5
330
1F
100
AcDbEntity
  8
0
  6
Continuous
 62
     7
370
    15
100
AcDbSpline
210
0.0
220
0.0
230
1.0
 70
     8
 71
     3
 72
    18
 73
    14
 74
     0
 42
0.00000001
 43
0.00000001
 40
0.0
 40
0.0
 40
0.0
 40
0.0
 40
0.0326495327117193
 40
0.1400512382721061
 40
0.247452777180639
 40
0.3548544223428565
 40
0.4622562146278626
 40
0.5696576955694604
 40
0.6770599898269934
 40
0.7844616701839079
 40
0.8918633130593647
 40
0.9992649629788458
 40
1.0
 40
1.0
 40
1.0
 40
1.0
 10
861.0609101959186
 20
517.0946142798352
 30
0.0
 10
861.0609088564831
 20
517.0840822461226
 30
0.0
 10
861.0609031109309
 20
517.0389047430937
 30
0.0
 10
861.061023596929
 20
517.3046752298527
 30
0.0
 10
861.0608129984854
 20
517.8699154571076
 30
0.0
 10
861.0610067708847
 20
518.7064332163687
 30
0.0
 10
861.060889314688
 20
519.6886340116337
 30
0.0
 10
861.0609418496572
 20
520.7150904169754
 30
0.0
 10
861.0609385730361
 20
521.6641314026222
 30
0.0
 10
861.0608544412613
 20
522.4432360065334
 30
0.0
 10
861.0610154305954
 20
522.9125946235565
 30
0.0
 10
861.060910075069
 20
523.1133503230045
 30
0.0
 10
861.0609101951027
 20
523.0578254609024
 30
0.0
 10
861.0609101959186
 20
523.0574480420041
 30
0.0
  0
SPLINE
  5
B6
330
1F
100
AcDbEntity
  8
0
  6
Continuous
 62
     7
370
    15
100
AcDbSpline
210
0.0
220
0.0
230
1.0
 70
     8
 71
     3
 72
    13
 73
     9
 74
     0
 42
0.00000001
 43
0.00000001
 40
0.0
 40
0.0
 40
0.0
 40
0.0
 40
0.0651758038180162
 40
0.2795737419448205
 40
0.4939713474439945
 40
0.7083691649145115
 40
0.9227672760223924
 40
1.0
 40
1.0
 40
1.0
 40
1.0
 10
874.6612298198658
 20
517.0946142798352
 30
0.0
 10
874.6612313155058
 20
517.0840825782446
 30
0.0
 10
874.6612377311023
 20
517.0389064998496
 30
0.0
 10
874.661103194066
 20
517.3046471115267
 30
0.0
 10
874.661330142102
 20
517.8700171487967
 30
0.0
 10
874.6611339704832
 20
518.7060545661911
 30
0.0
 10
874.6612210657869
 20
519.4802047843617
 30
0.0
 10
874.6612162057819
 20
519.9373898836433
 30
0.0
 10
874.6612149187046
 20
520.0584664171624
 30
0.0
  0
SPLINE
  5
B7
330
1F
100
AcDbEntity
  8
0
  6
Continuous
 62
     7
370
    15
100
AcDbSpline
210
0.0
220
0.0
230
1.0
 70
     8
 71
     3
 72
    11
 73
     7
 74
     0
 42
0.00000001
 43
0.00000001
 40
0.0
 40
0.0
 40
0.0
 40
0.0
 40
0.1799495911864724
 40
0.5885764986482245
 40
0.9972034328653953
 40
1.0
 40
1.0
 40
1.0
 40
1.0
 10
874.6612298198658
 20
522.0587722187925
 30
0.0
 10
874.6612386494337
 20
522.1752007779039
 30
0.0
 10
874.661267529056
 20
522.5560136111679
 30
0.0
 10
874.6611064311651
 20
522.903124211675
 30
0.0
 10
874.661229961563
 20
523.1133611987443
 30
0.0
 10
874.6612298208224
 20
523.0578255343288
 30
0.0
 10
874.6612298198658
 20
523.0574480420041
 30
0.0
  0
SPLINE
  5
B8
330
1F
100
AcDbEntity
  8
0
  6
Continuous
 62
     7
370
    15
100
AcDbSpline
210
0.0
220
0.0
230
1.0
 70
     8
 71
     3
 72
    18
 73
    14
 74
     0
 42
0.00000001
 43
0.00000001
 40
0.0
 40
0.0
 40
0.0
 40
0.0
 40
0.0391144119034069
 40
0.078093408974101
 40
0.1389211913490468
 40
0.2382986550740601
 40
0.4914349478662688
 40
0.7614771786732301
 40
0.8314852848035629
 40
0.9019334967458568
 40
0.9480399717019665
 40
0.9875238058522229
 40
1.0
 40
1.0
 40
1.0
 40
1.0
 10
877.9610621639209
 20
428.5530599927593
 30
0.0
 10
878.0787817869311
 20
428.5592566344191
 30
0.0
 10
878.3138134853934
 20
428.5716284648483
 30
0.0
 10
878.6835099238738
 20
428.6773840725215
 30
0.0
 10
879.0964622605319
 20
428.8985385957588
 30
0.0
 10
879.6075312995715
 20
429.4747014653416
 30
0.0
 10
879.7539465534311
 20
430.4151030438146
 30
0.0
 10
879.6323020699435
 20
431.31847007485
 30
0.0
 10
879.1617300576371
 20
431.890141966999
 30
0.0
 10
878.8276990542091
 20
432.1205149485379
 30
0.0
 10
878.4417705792347
 20
432.2581664204365
 30
0.0
 10
878.1541806738728
 20
432.3024962421028
 30
0.0
 10
877.9984539279357
 20
432.3051889364784
 30
0.0
 10
877.9610621639209
 20
432.3058354830433
 30
0.0
  0
SPLINE
  5
B9
330
1F
100
AcDbEntity
  8
0
  6
Continuous
 62
     7
370
    15
100
AcDbSpline
210
0.0
220
0.0
230
1.0
 70
     8
 71
     3
 72
    18
 73
    14
 74
     0
 42
0.00000001
 43
0.00000001
 40
0.0
 40
0.0
 40
0.0
 40
0.0
 40
0.0391144220028492
 40
0.0780934873876555
 40
0.1389212026400468
 40
0.2382986239597648
 40
0.4914348450329667
 40
0.7614773207528106
 40
0.8314851898061555
 40
0.9019333850182957
 40
0.9480400169873977
 40
0.9875237889369614
 40
1.0
 40
1.0
 40
1.0
 40
1.0
 10
877.9610621639209
 20
432.3058354830433
 30
0.0
 10
878.078781840053
 20
432.318228385892
 30
0.0
 10
878.3138138198848
 20
432.3429713055812
 30
0.0
 10
878.6835092154538
 20
432.5544893509322
 30
0.0
 10
879.0964626827251
 20
432.9967929625975
 30
0.0
 10
879.607531067554
 20
434.1491183798801
 30
0.0
 10
879.7539461692037
 20
436.029923059088
 30
0.0
 10
879.6323034875313
 20
437.8366556562791
 30
0.0
 10
879.1617297362158
 20
438.9800002862729
 30
0.0
 10
878.8276978723515
 20
439.4407448298568
 30
0.0
 10
878.4417718460934
 20
439.7160509457296
 30
0.0
 10
878.1541802262532
 20
439.8047081022841
 30
0.0
 10
877.9984539084257
 20
439.8100963954959
 30
0.0
 10
877.9610621639209
 20
439.8113901889015
 30
0.0
  0
SPLINE
  5
BA
330
1F
100
AcDbEntity
  8
0
  6
Continuous
 62
     7
370
    15
100
AcDbSpline
210
0.0
220
0.0
230
1.0
 70
     8
 71
     3
 72
    18
 73
    14
 74
     0
 42
0.00000001
 43
0.00000001
 40
0.0
 40
0.0
 40
0.0
 40
0.0
 40
0.0344352394795566
 40
0.0724914515936577
 40
0.1306344596127227
 40
0.2236191004444465
 40
0.4104356673623103
 40
0.5001954601018112
 40
0.7376499558017985
 40
0.8568695616832559
 40
0.9094902689982631
 40
0.9625687137148118
 40
1.0
 40
1.0
 40
1.0
 40
1.0
 10
877.9610621639209
 20
439.8113901889015
 30
0.0
 10
878.064659065063
 20
439.8161865760276
 30
0.0
 10
878.2827464040187
 20
439.8262837053181
 30
0.0
 10
878.6380529096197
 20
439.9185868020033
 30
0.0
 10
879.046113035593
 20
440.1214248517891
 30
0.0
 10
879.4990021732868
 20
440.584076701531
 30
0.0
 10
879.6673042213755
 20
441.1394270440565
 30
0.0
 10
879.7191622966477
 20
441.908302495955
 30
0.0
 10
879.6201521797892
 20
442.5832072186217
 30
0.0
 10
879.1644885360919
 20
443.1675318632684
 30
0.0
 10
878.7217025970007
 20
443.4245179390379
 30
0.0
 10
878.346122389036
 20
443.5444320763674
 30
0.0
 10
878.0737179785217
 20
443.5583929421975
 30
0.0
 10
877.9610621639209
 20
443.564166610508
 30
0.0
  0
LINE
  5
BB
330
1F
100
AcDbEntity
  8
0
  6
Continuous
 62
     7
370
    15
100
AcDbLine
 10
879.961066217
 20
440.8265615976
 30
0.0
 11
879.961066217
 21
441.5641653514
 31
0.0
  0
LINE
  5
BC
330
1F
100
AcDbEntity
  8
0
  6
Continuous
 62
     7
370
    15
100
AcDbLine
 10
879.961066217
 20
430.5530584579
 30
0.0
 11
879.961066217
 21
440.8265615976
 31
0.0
  0
LINE
  5
BD
330
1F
100
AcDbEntity
  8
0
  6
Continuous
 62
     7
370
    15
100
AcDbLine
 10
875.0610726782
 20
436.058612836
 30
0.0
 11
875.0610726782
 21
439.8113901889
 31
0.0
  0
LINE
  5
BE
330
1F
100
AcDbEntity
  8
0
  6
Continuous
 62
     7
370
    15
100
AcDbLine
 10
877.9610621639
 20
439.8113901889
 30
0.0
 11
875.0610726782
 21
439.8113901889
 31
0.0
  0
LINE
  5
BF
330
1F
100
AcDbEntity
  8
0
  6
Continuous
 62
     7
370
    15
100
AcDbLine
 10
877.9610621639
 20
432.305835483
 30
0.0
 11
875.0610726782
 21
432.305835483
 31
0.0
  0
LINE
  5
C0
330
1F
100
AcDbEntity
  8
0
  6
Continuous
 62
     7
370
    15
100
AcDbLine
 10
875.0610726782
 20
432.305835483
 30
0.0
 11
875.0610726782
 21
436.058612836
 31
0.0
  0
LINE
  5
C1
330
1F
100
AcDbEntity
  8
0
  6
Continuous
 62
     7
370
    15
100
AcDbLine
 10
877.9610621639
 20
428.5530599928
 30
0.0
 11
875.0610726782
 21
428.5530599928
 31
0.0
  0
LINE
  5
C2
330
1F
100
AcDbEntity
  8
0
  6
Continuous
 62
     7
370
    15
100
AcDbLine
 10
875.0610726782
 20
428.5530599928
 30
0.0
 11
875.0610726782
 21
430.4294477379
 31
0.0
  0
LINE
  5
C3
330
1F
100
AcDbEntity
  8
0
  6
Continuous
 62
     7
370
    15
100
AcDbLine
 10
875.0610726782
 20
430.4294477379
 30
0.0
 11
875.0610726782
 21
432.305835483
 31
0.0
  0
LINE
  5
C4
330
1F
100
AcDbEntity
  8
0
  6
Continuous
 62
     7
370
    15
100
AcDbLine
 10
875.0610726782
 20
441.687777934
 30
0.0
 11
875.0610726782
 21
443.5641666105
 31
0.0
  0
LINE
  5
C5
330
1F
100
AcDbEntity
  8
0
  6
Continuous
 62
     7
370
    15
100
AcDbLine
 10
877.9610621639
 20
443.5641666105
 30
0.0
 11
875.0610726782
 21
443.5641666105
 31
0.0
  0
LINE
  5
C6
330
1F
100
AcDbEntity
  8
0
  6
Continuous
 62
     7
370
    15
100
AcDbLine
 10
875.0610726782
 20
439.8113901889
 30
0.0
 11
875.0610726782
 21
441.687777934
 31
0.0
  0
SPLINE
  5
C7
330
1F
100
AcDbEntity
  8
0
  6
Continuous
 62
     7
370
    15
100
AcDbSpline
210
0.0
220
0.0
230
1.0
 70
     8
 71
     3
 72
    18
 73
    14
 74
     0
 42
0.00000001
 43
0.00000001
 40
0.0
 40
0.0
 40
0.0
 40
0.0
 40
0.0391144220028492
 40
0.0780934873876555
 40
0.1389212026400468
 40
0.2382986239597648
 40
0.4914348450329667
 40
0.7614773207528106
 40
0.8314851898061555
 40
0.9019333850182957
 40
0.9480400169873977
 40
0.9875237889369614
 40
1.0
 40
1.0
 40
1.0
 40
1.0
 10
877.9610621639209
 20
476.3058352446247
 30
0.0
 10
878.078781840053
 20
476.3182281474734
 30
0.0
 10
878.3138138198848
 20
476.3429710671626
 30
0.0
 10
878.6835092154538
 20
476.5544891125136
 30
0.0
 10
879.0964626827251
 20
476.9967927241789
 30
0.0
 10
879.607531067554
 20
478.1491181414615
 30
0.0
 10
879.7539461692037
 20
480.0299228206695
 30
0.0
 10
879.6323034875313
 20
481.8366554178605
 30
0.0
 10
879.1617297362158
 20
482.9800000478543
 30
0.0
 10
878.8276978723515
 20
483.4407445914383
 30
0.0
 10
878.4417718460934
 20
483.7160507073111
 30
0.0
 10
878.1541802262532
 20
483.8047078638655
 30
0.0
 10
877.9984539084257
 20
483.8100961570773
 30
0.0
 10
877.9610621639209
 20
483.8113899504829
 30
0.0
  0
SPLINE
  5
C8
330
1F
100
AcDbEntity
  8
0
  6
Continuous
 62
     7
370
    15
100
AcDbSpline
210
0.0
220
0.0
230
1.0
 70
     8
 71
     3
 72
    18
 73
    14
 74
     0
 42
0.00000001
 43
0.00000001
 40
0.0
 40
0.0
 40
0.0
 40
0.0
 40
0.0344352525759839
 40
0.0724914444077308
 40
0.1306343893828393
 40
0.2236190681394236
 40
0.4104357333910802
 40
0.50019551067612
 40
0.7376499130752737
 40
0.8568696462261745
 40
0.9094902468171299
 40
0.9625687166774045
 40
0.9999999999999999
 40
0.9999999999999999
 40
0.9999999999999999
 40
0.9999999999999999
 10
877.9610621639209
 20
483.8113899504829
 30
0.0
 10
878.0646590465669
 20
483.8161863339388
 30
0.0
 10
878.2827462420239
 20
483.8262834506621
 30
0.0
 10
878.6380528125269
 20
483.9185865010972
 30
0.0
 10
879.0461134429793
 20
484.1214249329724
 30
0.0
 10
879.4990020138378
 20
484.5840758589315
 30
0.0
 10
879.6673041643326
 20
485.1394300613351
 30
0.0
 10
879.719162412282
 20
485.9083003102218
 30
0.0
 10
879.6201511065461
 20
486.583206727376
 30
0.0
 10
879.16448960061
 20
487.1675331408837
 30
0.0
 10
878.7217019931621
 20
487.424517100171
 30
0.0
 10
878.3461225577573
 20
487.5444337231129
 30
0.0
 10
878.073718002045
 20
487.5583925977908
 30
0.0
 10
877.9610621639209
 20
487.5641654407669
 30
0.0
  0
SPLINE
  5
C9
330
1F
100
AcDbEntity
  8
0
  6
Continuous
 62
     7
370
    15
100
AcDbSpline
210
0.0
220
0.0
230
1.0
 70
     8
 71
     3
 72
    18
 73
    14
 74
     0
 42
0.00000001
 43
0.00000001
 40
0.0
 40
0.0
 40
0.0
 40
0.0
 40
0.0391144275348088
 40
0.0780934735673154
 40
0.1389211545624288
 40
0.2382986526585598
 40
0.4914349086415306
 40
0.7614772292640539
 40
0.8314852532489198
 40
0.9019334654039421
 40
0.9480399914833755
 40
0.9875238007937313
 40
1.0
 40
1.0
 40
1.0
 40
1.0
 10
877.9610621639209
 20
472.5530588230181
 30
0.0
 10
878.0787818236969
 20
472.5592552702062
 30
0.0
 10
878.3138136960386
 20
472.5716267176538
 30
0.0
 10
878.6835092166432
 20
472.6773857371773
 30
0.0
 10
879.096463027316
 20
472.8985378276195
 30
0.0
 10
879.6075306152316
 20
473.4746997080767
 30
0.0
 10
879.7539466500674
 20
474.415103966839
 30
0.0
 10
879.6323025709137
 20
475.3184690208832
 30
0.0
 10
879.1617299249467
 20
475.8901419283308
 30
0.0
 10
878.8276986819823
 20
476.1205148273582
 30
0.0
 10
878.4417710196246
 20
476.2581660835419
 30
0.0
 10
878.1541805161277
 20
476.3024960140016
 30
0.0
 10
877.9984539210968
 20
476.3051886996475
 30
0.0
 10
877.9610621639209
 20
476.3058352446247
 30
0.0
  0
LINE
  5
CA
330
1F
100
AcDbEntity
  8
0
  6
Continuous
 62
     7
370
    15
100
AcDbLine
 10
879.961066217
 20
474.5530600822
 30
0.0
 11
879.961066217
 21
485.5641669756
 31
0.0
  0
LINE
  5
CB
330
1F
100
AcDbEntity
  8
0
  6
Continuous
 62
     7
370
    15
100
AcDbLine
 10
875.0610726782
 20
480.0586125976
 30
0.0
 11
875.0610726782
 21
483.8113899505
 31
0.0
  0
LINE
  5
CC
330
1F
100
AcDbEntity
  8
0
  6
Continuous
 62
     7
370
    15
100
AcDbLine
 10
877.9610621639
 20
483.8113899505
 30
0.0
 11
875.0610726782
 21
483.8113899505
 31
0.0
  0
LINE
  5
CD
330
1F
100
AcDbEntity
  8
0
  6
Continuous
 62
     7
370
    15
100
AcDbLine
 10
877.9610621639
 20
476.3058352446
 30
0.0
 11
875.0610726782
 21
476.3058352446
 31
0.0
  0
LINE
  5
CE
330
1F
100
AcDbEntity
  8
0
  6
Continuous
 62
     7
370
    15
100
AcDbLine
 10
875.0610726782
 20
476.3058352446
 30
0.0
 11
875.0610726782
 21
480.0586125976
 31
0.0
  0
LINE
  5
CF
330
1F
100
AcDbEntity
  8
0
  6
Continuous
 62
     7
370
    15
100
AcDbLine
 10
877.9610621639
 20
472.553058823
 30
0.0
 11
875.0610726782
 21
472.553058823
 31
0.0
  0
LINE
  5
D0
330
1F
100
AcDbEntity
  8
0
  6
Continuous
 62
     7
370
    15
100
AcDbLine
 10
875.0610726782
 20
472.553058823
 30
0.0
 11
875.0610726782
 21
474.4294474995
 31
0.0
  0
LINE
  5
D1
330
1F
100
AcDbEntity
  8
0
  6
Continuous
 62
     7
370
    15
100
AcDbLine
 10
875.0610726782
 20
474.4294474995
 30
0.0
 11
875.0610726782
 21
476.3058352446
 31
0.0
  0
LINE
  5
D2
330
1F
100
AcDbEntity
  8
0
  6
Continuous
 62
     7
370
    15
100
AcDbLine
 10
875.0610726782
 20
485.6877776956
 30
0.0
 11
875.0610726782
 21
487.5641654408
 31
0.0
  0
LINE
  5
D3
330
1F
100
AcDbEntity
  8
0
  6
Continuous
 62
     7
370
    15
100
AcDbLine
 10
877.9610621639
 20
487.5641654408
 30
0.0
 11
875.0610726782
 21
487.5641654408
 31
0.0
  0
LINE
  5
D4
330
1F
100
AcDbEntity
  8
0
  6
Continuous
 62
     7
370
    15
100
AcDbLine
 10
875.0610726782
 20
483.8113899505
 30
0.0
 11
875.0610726782
 21
485.6877776956
 31
0.0
  0
LINE
  5
D5
330
1F
100
AcDbEntity
  8
0
  6
Continuous
 62
     7
370
    15
100
AcDbLine
 10
918.6610656687
 20
528.3931291824
 30
0.0
 11
918.6610656687
 21
522.6580373174
 31
0.0
  0
SPLINE
  5
D6
330
1F
100
AcDbEntity
  8
0
  6
Continuous
 62
     7
370
    15
100
AcDbSpline
210
0.0
220
0.0
230
1.0
 70
     8
 71
     3
 72
    12
 73
     8
 74
     0
 42
0.00000001
 43
0.00000001
 40
0.0
 40
0.0
 40
0.0
 40
0.0
 40
0.113633831631287
 40
0.3008419326012564
 40
0.4919207997259612
 40
0.6964444900467639
 40
0.9999999999999999
 40
0.9999999999999999
 40
0.9999999999999999
 40
0.9999999999999999
 10
922.5805926032978
 20
526.6067258244443
 30
0.0
 10
922.3038433594403
 20
526.6201269121425
 30
0.0
 10
921.57115859318
 20
526.6556058629462
 30
0.0
 10
920.5001689173048
 20
526.7947407184505
 30
0.0
 10
919.5330735191758
 20
527.0745540773657
 30
0.0
 10
918.7914132908885
 20
527.5572872737279
 30
0.0
 10
918.7098163423872
 20
528.0805200571169
 30
0.0
 10
918.661065668674
 20
528.393129182427
 30
0.0
  0
SPLINE
  5
D7
330
1F
100
AcDbEntity
  8
0
  6
Continuous
 62
     7
370
    15
100
AcDbSpline
210
0.0
220
0.0
230
1.0
 70
     8
 71
     3
 72
    12
 73
     8
 74
     0
 42
0.00000001
 43
0.00000001
 40
0.0
 40
0.0
 40
0.0
 40
0.0
 40
0.2917316301195354
 40
0.5225560850233955
 40
0.7611463250441607
 40
0.9714530041542636
 40
0.9999999999999999
 40
0.9999999999999999
 40
0.9999999999999999
 40
0.9999999999999999
 10
918.661065668674
 20
522.6580373173642
 30
0.0
 10
918.706241797439
 20
523.2195178173464
 30
0.0
 10
918.7871622686758
 20
524.2252539857811
 30
0.0
 10
919.5951438406917
 20
525.4319033061101
 30
0.0
 10
920.8066267204563
 20
526.2249546866436
 30
0.0
 10
921.9255799534845
 20
526.5268580660852
 30
0.0
 10
922.5106651669264
 20
526.5981993515704
 30
0.0
 10
922.5805926032978
 20
526.6067258244443
 30
0.0
  0
SPLINE
  5
D8
330
1F
100
AcDbEntity
  8
0
  6
Continuous
 62
     7
370
    15
100
AcDbSpline
210
0.0
220
0.0
230
1.0
 70
     8
 71
     3
 72
    11
 73
     7
 74
     0
 42
0.00000001
 43
0.00000001
 40
0.0
 40
0.0
 40
0.0
 40
0.0
 40
0.3340939569781355
 40
0.6236934286604647
 40
0.9185171615578488
 40
1.0
 40
1.0
 40
1.0
 40
1.0
 10
927.799500794025
 20
527.5457895523
 30
0.0
 10
927.5868464759469
 20
527.3678713172333
 30
0.0
 10
927.1898590477361
 20
527.0357299188863
 30
0.0
 10
926.0285603668076
 20
526.7538922869878
 30
0.0
 10
924.9564939364119
 20
526.6403713271937
 30
0.0
 10
924.3051350714381
 20
526.6127144537272
 30
0.0
 10
924.1640942998844
 20
526.6067258244443
 30
0.0
  0
SPLINE
  5
D9
330
1F
100
AcDbEntity
  8
0
  6
Continuous
 62
     7
370
    15
100
AcDbSpline
210
0.0
220
0.0
230
1.0
 70
     8
 71
     3
 72
    11
 73
     7
 74
     0
 42
0.00000001
 43
0.00000001
 40
0.0
 40
0.0
 40
0.0
 40
0.0
 40
0.0091480287441651
 40
0.4999953274732279
 40
0.9908519712558349
 40
1.0
 40
1.0
 40
1.0
 40
1.0
 10
924.1640942998844
 20
526.6067258244443
 30
0.0
 10
924.1593164632319
 20
526.6069051968672
 30
0.0
 10
923.8981786740457
 20
526.6167089891163
 30
0.0
 10
923.3723459929159
 20
526.6262186747582
 30
0.0
 10
922.84651310973
 20
526.6167091723453
 30
0.0
 10
922.5853704399476
 20
526.6069051968672
 30
0.0
 10
922.5805926032978
 20
526.6067258244443
 30
0.0
  0
ARC
  5
DA
330
1F
100
AcDbEntity
  8
0
  6
Continuous
 62
     7
370
    15
100
AcDbCircle
 10
919.3722102226
 20
528.3338479845
 30
0.0
 40
0.7136111244513401
100
AcDbArc
 50
85.9204982281
 51
175.234825926
  0
SPLINE
  5
DB
330
1F
100
AcDbEntity
  8
0
  6
Continuous
 62
     7
370
    15
100
AcDbSpline
210
0.0
220
0.0
230
1.0
 70
     8
 71
     3
 72
    16
 73
    12
 74
     0
 42
0.00000001
 43
0.00000001
 40
0.0
 40
0.0
 40
0.0
 40
0.0
 40
0.1632159561819883
 40
0.2700786166840466
 40
0.3688078938127524
 40
0.4654146636301578
 40
0.562667434934853
 40
0.663004193165242
 40
0.7707086385227735
 40
0.8765167536461432
 40
1.0
 40
1.0
 40
1.0
 40
1.0
 10
919.4229769416767
 20
529.0456510311055
 30
0.0
 10
919.4616257399394
 20
528.7213202011417
 30
0.0
 10
919.5255791316024
 20
528.184639695426
 30
0.0
 10
920.1495168740485
 20
527.6710959029375
 30
0.0
 10
920.9637568921756
 20
527.3753020055092
 30
0.0
 10
922.0010441153437
 20
527.2102419785575
 30
0.0
 10
923.1857687277037
 20
527.1478344035014
 30
0.0
 10
924.4390147920218
 20
527.1811915872663
 30
0.0
 10
925.5989506302978
 20
527.3320136530053
 30
0.0
 10
926.5776946820071
 20
527.631916227823
 30
0.0
 10
926.9064797964846
 20
527.9761504314424
 30
0.0
 10
927.0835447021442
 20
528.1615353351522
 30
0.0
  0
ARC
  5
DC
330
1F
100
AcDbEntity
  8
0
  6
Continuous
 62
     7
370
    15
100
AcDbCircle
 10
926.9903217145
 20
527.3290301399
 30
0.0
 40
0.8377084370757455
100
AcDbArc
 50
14.9960711963
 51
83.6107005825
  0
ARC
  5
DD
330
1F
100
AcDbEntity
  8
0
  6
Continuous
 62
     7
370
    15
100
AcDbCircle
 10
926.9456730954
 20
524.7026403686
 30
0.0
 40
0.9485261555835699
100
AcDbArc
 50
278.357750742
 51
334.1794385635
  0
SPLINE
  5
DE
330
1F
100
AcDbEntity
  8
0
  6
Continuous
 62
     7
370
    15
100
AcDbSpline
210
0.0
220
0.0
230
1.0
 70
     8
 71
     3
 72
    16
 73
    12
 74
     0
 42
0.00000001
 43
0.00000001
 40
0.0
 40
0.0
 40
0.0
 40
0.0
 40
0.0982184917364601
 40
0.1976624310818632
 40
0.294362922903971
 40
0.3914071307151706
 40
0.4911102183453182
 40
0.5996269566944807
 40
0.7226910627193717
 40
0.843178597078449
 40
1.0
 40
1.0
 40
1.0
 40
1.0
 10
927.0835447021442
 20
523.7641877656865
 30
0.0
 10
926.9496378585501
 20
524.0492732965381
 30
0.0
 10
926.6801534490936
 20
524.6230012992605
 30
0.0
 10
925.912140905305
 20
525.2824421850661
 30
0.0
 10
924.907762407663
 20
525.7261471681458
 30
0.0
 10
923.7380824549297
 20
525.9264461784162
 30
0.0
 10
922.4817638197055
 20
525.874909246309
 30
0.0
 10
921.2226985992996
 20
525.5206177322319
 30
0.0
 10
920.1996618755434
 20
524.8042460343825
 30
0.0
 10
919.5223089675684
 20
523.6900237349721
 30
0.0
 10
919.4588587638228
 20
522.7643078279353
 30
0.0
 10
919.4229769416767
 20
522.2408048039365
 30
0.0
  0
LWPOLYLINE
  5
DF
330
1F
100
AcDbEntity
  8
0
  6
Continuous
 62
     7
370
    15
100
AcDbPolyline
 90
        9
 70
   128
 43
0.0
 10
919.4229769417
 20
522.2408048039
 10
919.2743378588
 20
522.2488216287
 10
919.1314059206
 20
522.272566629
 10
918.9996796556
 20
522.3111233836
 10
918.8842254587
 20
522.3630092269
 10
918.7894689747
 20
522.4262348538
 10
918.719060988
 20
522.4983713752
 10
918.6757135101
 20
522.5766397243
 10
918.6610656687
 20
522.6580373174
  0
SPLINE
  5
E0
330
1F
100
AcDbEntity
  8
0
  6
Continuous
 62
     7
370
    15
100
AcDbSpline
210
0.0
220
0.0
230
1.0
 70
     8
 71
     3
 72
    11
 73
     7
 74
     0
 42
0.00000001
 43
0.00000001
 40
0.0
 40
0.0
 40
0.0
 40
0.0
 40
0.1990396920859
 40
0.4636311347598536
 40
0.73508510601762
 40
0.9999999999999999
 40
0.9999999999999999
 40
0.9999999999999999
 40
0.9999999999999999
 10
924.1640942998844
 20
526.6067258244443
 30
0.0
 10
924.5071499034848
 20
526.5526824839633
 30
0.0
 10
925.3062430748829
 20
526.4267971642518
 30
0.0
 10
926.3999907074152
 20
525.9573508408579
 30
0.0
 10
927.3137375145375
 20
525.2329691423892
 30
0.0
 10
927.6389010985927
 20
524.6014271590076
 30
0.0
 10
927.799500794025
 20
524.2895058518338
 30
0.0
  0
LINE
  5
E1
330
1F
100
AcDbEntity
  8
0
  6
Continuous
 62
     7
370
    15
100
AcDbLine
 10
927.799500794
 20
527.5457895523
 30
0.0
 11
927.799500794
 21
524.2895058518
 31
0.0
  0
SPLINE
  5
E2
330
1F
100
AcDbEntity
  8
0
  6
Continuous
 62
     7
370
    15
100
AcDbSpline
210
0.0
220
0.0
230
1.0
 70
     8
 71
     3
 72
    14
 73
    10
 74
     0
 42
0.00000001
 43
0.00000001
 40
0.0
 40
0.0
 40
0.0
 40
0.0
 40
0.0621969450988841
 40
0.2157646484037262
 40
0.3692820507633522
 40
0.5269932192246933
 40
0.6847105563481471
 40
0.8423238890070012
 40
1.0
 40
1.0
 40
1.0
 40
1.0
 10
927.0835447021442
 20
509.0804121619154
 30
0.0
 10
927.1701387704284
 20
509.3886854069772
 30
0.0
 10
927.4705383908195
 20
510.4581023731532
 30
0.0
 10
927.8632300827427
 20
512.3644211020705
 30
0.0
 10
928.1629233439021
 20
514.806416149661
 30
0.0
 10
928.2361236699691
 20
517.2536515025931
 30
0.0
 10
928.0810140638458
 20
519.6224431956183
 30
0.0
 10
927.7097114152842
 20
521.8390366613474
 30
0.0
 10
927.2922946442733
 20
523.1223855536122
 30
0.0
 10
927.0835447021442
 20
523.7641877656865
 30
0.0
  0
SPLINE
  5
E3
330
1F
100
AcDbEntity
  8
0
  6
Continuous
 62
     7
370
    15
100
AcDbSpline
210
0.0
220
0.0
230
1.0
 70
     8
 71
     3
 72
    16
 73
    12
 74
     0
 42
0.00000001
 43
0.00000001
 40
0.0
 40
0.0
 40
0.0
 40
0.0
 40
0.1632156987192248
 40
0.2700785046292727
 40
0.3688077551372446
 40
0.4654146016973963
 40
0.5626673971592335
 40
0.6630041761785376
 40
0.7707086445384808
 40
0.876516777614417
 40
1.0
 40
1.0
 40
1.0
 40
1.0
 10
919.4229769416767
 20
510.9413399523187
 30
0.0
 10
919.4616260952257
 20
510.2834663538617
 30
0.0
 10
919.5255801491412
 20
509.1948607901774
 30
0.0
 10
920.149516082503
 20
507.8648825689783
 30
0.0
 10
920.9637575998504
 20
506.98434443479
 30
0.0
 10
922.0010436694856
 20
506.4167026064283
 30
0.0
 10
923.1857687620737
 20
506.1821296544036
 30
0.0
 10
924.4390147823505
 20
506.3107522219442
 30
0.0
 10
925.5989506140891
 20
506.8405485474294
 30
0.0
 10
926.5776945194308
 20
507.7769206507126
 30
0.0
 10
926.9064797588962
 20
508.624145349443
 30
0.0
 10
927.0835447021442
 20
509.0804121619154
 30
0.0
  0
LINE
  5
E4
330
1F
100
AcDbEntity
  8
0
  6
Continuous
 62
     7
370
    15
100
AcDbLine
 10
919.4229769417
 20
522.2408048039
 30
0.0
 11
919.4229769417
 21
510.9413399523
 31
0.0
  0
SPLINE
  5
E5
330
1F
100
AcDbEntity
  8
0
  6
Continuous
 62
     7
370
    15
100
AcDbSpline
210
0.0
220
0.0
230
1.0
 70
     8
 71
     3
 72
    14
 73
    10
 74
     0
 42
0.00000001
 43
0.00000001
 40
0.0
 40
0.0
 40
0.0
 40
0.0
 40
0.0621969638425502
 40
0.2157645920421235
 40
0.36928226903717
 40
0.52699345793155
 40
0.6847107692943805
 40
0.8423237361046756
 40
1.0
 40
1.0
 40
1.0
 40
1.0
 10
927.0835447021442
 20
528.1615353351522
 30
0.0
 10
927.1701387586753
 20
528.2980070345634
 30
0.0
 10
927.4705381692963
 20
528.771434654331
 30
0.0
 10
927.8632306997541
 20
529.7935172155081
 30
0.0
 10
928.1629230653588
 20
531.3625392273666
 30
0.0
 10
928.2361236414566
 20
533.2300922723679
 30
0.0
 10
928.0810145578484
 20
535.3310894593741
 30
0.0
 10
927.7097104013263
 20
537.5908194863282
 30
0.0
 10
927.2922945351733
 20
539.1548395686732
 30
0.0
 10
927.0835447021442
 20
539.9370066052365
 30
0.0
  0
LINE
  5
E6
330
1F
100
AcDbEntity
  8
0
  6
Continuous
 62
     7
370
    15
100
AcDbLine
 10
919.4229769417
 20
538.1071142083
 30
0.0
 11
919.4229769417
 21
529.0456510311
 31
0.0
  0
SPLINE
  5
E7
330
1F
100
AcDbEntity
  8
0
  6
Continuous
 62
     7
370
    15
100
AcDbSpline
210
0.0
220
0.0
230
1.0
 70
     8
 71
     3
 72
    16
 73
    12
 74
     0
 42
0.00000001
 43
0.00000001
 40
0.0
 40
0.0
 40
0.0
 40
0.0
 40
0.0982186338888643
 40
0.1976624296385515
 40
0.2943629135536827
 40
0.3914071497298175
 40
0.491110227647871
 40
0.5996268263630757
 40
0.7226908137244092
 40
0.8431783167123889
 40
1.0
 40
1.0
 40
1.0
 40
1.0
 10
927.0835447021442
 20
539.9370066052365
 30
0.0
 10
926.9496380940511
 20
540.3079086819739
 30
0.0
 10
926.6801545505285
 20
541.0543394023281
 30
0.0
 10
925.9121401206596
 20
541.99612455366
 30
0.0
 10
924.9077622431868
 20
542.6619228490063
 30
0.0
 10
923.7380826478297
 20
542.974733920908
 30
0.0
 10
922.4817647070462
 20
542.8936723420388
 30
0.0
 10
921.2226982563379
 20
542.3465967134048
 30
0.0
 10
920.1996615826624
 20
541.3054145203627
 30
0.0
 10
919.5223084817292
 20
539.8075996466138
 30
0.0
 10
919.4588586087193
 20
538.7213828713726
 30
0.0
 10
919.4229769416767
 20
538.1071142083097
 30
0.0
  0
SPLINE
  5
E8
330
1F
100
AcDbEntity
  8
0
  6
Continuous
 62
     7
370
    15
100
AcDbSpline
210
0.0
220
0.0
230
1.0
 70
     8
 71
     3
 72
    14
 73
    10
 74
     0
 42
0.00000001
 43
0.00000001
 40
0.0
 40
0.0
 40
0.0
 40
0.0
 40
0.1575838729478261
 40
0.3151114770653424
 40
0.472986390394961
 40
0.6308558517556957
 40
0.784361732766761
 40
0.9379122330564561
 40
1.0
 40
1.0
 40
1.0
 40
1.0
 10
927.799500794025
 20
524.2895058518338
 30
0.0
 10
928.0109479525292
 20
523.609584726952
 30
0.0
 10
928.4337667676223
 20
522.2499852581634
 30
0.0
 10
928.809066351
 20
519.9046548259137
 30
0.0
 10
928.9660326035616
 20
517.3991672685173
 30
0.0
 10
928.8919118772259
 20
514.8106221448431
 30
0.0
 10
928.5889122265825
 20
512.2269760281209
 30
0.0
 10
928.1915431898473
 20
510.2091114847658
 30
0.0
 10
927.8871448529478
 20
509.0758580306072
 30
0.0
 10
927.799500794025
 20
508.7495654052187
 30
0.0
  0
ARC
  5
E9
330
1F
100
AcDbEntity
  8
0
  6
Continuous
 62
     7
370
    15
100
AcDbCircle
 10
926.7874927471
 20
507.4996605266
 30
0.0
 40
1.60823583244566
100
AcDbArc
 50
51.0040136921
 51
79.3922144206
  0
SPLINE
  5
EA
330
1F
100
AcDbEntity
  8
0
  6
Continuous
 62
     7
370
    15
100
AcDbSpline
210
0.0
220
0.0
230
1.0
 70
     8
 71
     3
 72
    14
 73
    10
 74
     0
 42
0.00000001
 43
0.00000001
 40
0.0
 40
0.0
 40
0.0
 40
0.0
 40
0.1575839707205444
 40
0.3151114256560936
 40
0.4729863368774326
 40
0.630855849297625
 40
0.7843616147782884
 40
0.9379121894722523
 40
0.9999999999999999
 40
0.9999999999999999
 40
0.9999999999999999
 40
0.9999999999999999
 10
927.799500794025
 20
506.1382300382543
 30
0.0
 10
928.0109478986027
 20
506.1189607528451
 30
0.0
 10
928.4337662745432
 20
506.0804290927474
 30
0.0
 10
928.8090665949591
 20
505.5462978933433
 30
0.0
 10
928.9660325230487
 20
504.6443415446025
 30
0.0
 10
928.891912060169
 20
503.3917538326105
 30
0.0
 10
928.588911926225
 20
501.8303354345956
 30
0.0
 10
928.1915431423813
 20
500.3961711543386
 30
0.0
 10
927.887144852872
 20
499.4847302657791
 30
0.0
 10
927.799500794025
 20
499.2223031049658
 30
0.0
  0
LINE
  5
EB
330
1F
100
AcDbEntity
  8
0
  6
Continuous
 62
     7
370
    15
100
AcDbLine
 10
927.799500794
 20
508.7495654052
 30
0.0
 11
927.799500794
 21
506.1382300383
 31
0.0
  0
SPLINE
  5
EC
330
1F
100
AcDbEntity
  8
0
  6
Continuous
 62
     7
370
    15
100
AcDbSpline
210
0.0
220
0.0
230
1.0
 70
     8
 71
     3
 72
    14
 73
    10
 74
     0
 42
0.00000001
 43
0.00000001
 40
0.0
 40
0.0
 40
0.0
 40
0.0
 40
0.1575837626739429
 40
0.3151114913564611
 40
0.4729863663336266
 40
0.630855829780329
 40
0.7843617205427525
 40
0.9379123559027851
 40
1.0
 40
1.0
 40
1.0
 40
1.0
 10
927.799500794025
 20
540.0078541761327
 30
0.0
 10
928.0109480026006
 20
539.1792767187159
 30
0.0
 10
928.4337672328742
 20
537.522416431332
 30
0.0
 10
928.809066115249
 20
535.1319646568119
 30
0.0
 10
928.9660326381961
 20
532.9096303095647
 30
0.0
 10
928.8919119436879
 20
530.9343576630623
 30
0.0
 10
928.5889118274486
 20
529.2740158821405
 30
0.0
 10
928.1915439462557
 20
528.1919416760314
 30
0.0
 10
927.8871448835465
 20
527.6902415450326
 30
0.0
 10
927.799500794025
 20
527.5457895523
 30
0.0
  0
LINE
  5
ED
330
1F
100
AcDbEntity
  8
0
  6
Continuous
 62
     7
370
    15
100
AcDbLine
 10
927.799500794
 20
541.4570368057
 30
0.0
 11
927.799500794
 21
540.0078541761
 31
0.0
  0
ARC
  5
EE
330
1F
100
AcDbEntity
  8
0
  6
Continuous
 62
     7
370
    15
100
AcDbCircle
 10
927.5762744108
 20
538.6106861194
 30
0.0
 40
1.414888192408543
100
AcDbArc
 50
80.9225389306
 51
110.380094093
  0
LINE
  5
EF
330
1F
100
AcDbEntity
  8
0
  6
Continuous
 62
     7
370
    15
100
AcDbLine
 10
918.6610656687
 20
510.8420274383
 30
0.0
 11
918.6610656687
 21
522.6580373174
 31
0.0
  0
ARC
  5
F0
330
1F
100
AcDbEntity
  8
0
  6
Continuous
 62
     7
370
    15
100
AcDbCircle
 10
919.2357295254
 20
509.4055821897
 30
0.0
 40
1.547130731474988
100
AcDbArc
 50
83.0485172365
 51
111.8043582359
  0
SPLINE
  5
F1
330
1F
100
AcDbEntity
  8
0
  6
Continuous
 62
     7
370
    15
100
AcDbSpline
210
0.0
220
0.0
230
1.0
 70
     8
 71
     3
 72
    11
 73
     7
 74
     0
 42
0.00000001
 43
0.00000001
 40
0.0
 40
0.0
 40
0.0
 40
0.0
 40
0.3340939731626235
 40
0.6236933867161985
 40
0.9185172561105333
 40
0.9999999999999999
 40
0.9999999999999999
 40
0.9999999999999999
 40
0.9999999999999999
 10
927.799500794025
 20
508.7495654052187
 30
0.0
 10
927.5868465644705
 20
508.2247001985253
 30
0.0
 10
927.1898593474464
 20
507.2448712143827
 30
0.0
 10
926.0285595503044
 20
506.162149077313
 30
0.0
 10
924.9564949208213
 20
505.6670936614896
 30
0.0
 10
924.3051350991996
 20
505.5405465577947
 30
0.0
 10
924.1640942998844
 20
505.5131449526239
 30
0.0
  0
SPLINE
  5
F2
330
1F
100
AcDbEntity
  8
0
  6
Continuous
 62
     7
370
    15
100
AcDbSpline
210
0.0
220
0.0
230
1.0
 70
     8
 71
     3
 72
    11
 73
     7
 74
     0
 42
0.00000001
 43
0.00000001
 40
0.0
 40
0.0
 40
0.0
 40
0.0
 40
0.0091480394166582
 40
0.4999953274716585
 40
0.9908519605833419
 40
1.0
 40
1.0
 40
1.0
 40
1.0
 10
924.1640942998844
 20
505.5131449526239
 30
0.0
 10
924.1593164632849
 20
505.5126404508539
 30
0.0
 10
923.8981789816524
 20
505.4850663974146
 30
0.0
 10
923.3723459929091
 20
505.4586174963186
 30
0.0
 10
922.8465128021182
 20
505.4850658820847
 30
0.0
 10
922.5853704398945
 20
505.5126404508545
 30
0.0
 10
922.5805926032978
 20
505.5131449526239
 30
0.0
  0
SPLINE
  5
F3
330
1F
100
AcDbEntity
  8
0
  6
Continuous
 62
     7
370
    15
100
AcDbSpline
210
0.0
220
0.0
230
1.0
 70
     8
 71
     3
 72
    12
 73
     8
 74
     0
 42
0.00000001
 43
0.00000001
 40
0.0
 40
0.0
 40
0.0
 40
0.0
 40
0.1136338366884038
 40
0.3008420383518376
 40
0.4919205363507231
 40
0.6964440736249201
 40
0.9999999999999999
 40
0.9999999999999999
 40
0.9999999999999999
 40
0.9999999999999999
 10
922.5805926032978
 20
505.5131449526239
 30
0.0
 10
922.3038433080461
 20
505.5742151311517
 30
0.0
 10
921.5711581807791
 20
505.7358965240031
 30
0.0
 10
920.5001707095627
 20
506.3309341657078
 30
0.0
 10
919.5330726454572
 20
507.3475968940743
 30
0.0
 10
918.7914128711494
 20
508.8600906932199
 30
0.0
 10
918.7098162114474
 20
510.1007726186009
 30
0.0
 10
918.661065668674
 20
510.842027438252
 30
0.0
  0
SPLINE
  5
F4
330
1F
100
AcDbEntity
  8
0
  6
Continuous
 62
     7
370
    15
100
AcDbSpline
210
0.0
220
0.0
230
1.0
 70
     8
 71
     3
 72
    12
 73
     8
 74
     0
 42
0.00000001
 43
0.00000001
 40
0.0
 40
0.0
 40
0.0
 40
0.0
 40
0.291731658766695
 40
0.5225562095991557
 40
0.7611463801940447
 40
0.9714529181141619
 40
1.0
 40
1.0
 40
1.0
 40
1.0
 10
918.661065668674
 20
506.2428399151254
 30
0.0
 10
918.7062418248431
 20
506.2230198597083
 30
0.0
 10
918.7871623565119
 20
506.1875177373928
 30
0.0
 10
919.5951436917707
 20
505.9262999985144
 30
0.0
 10
920.8066255464636
 20
505.6709657511522
 30
0.0
 10
921.9255820083835
 20
505.5464610909913
 30
0.0
 10
922.5106651836207
 20
505.516701706679
 30
0.0
 10
922.5805926032978
 20
505.5131449526239
 30
0.0
  0
LINE
  5
F5
330
1F
100
AcDbEntity
  8
0
  6
Continuous
 62
     7
370
    15
100
AcDbLine
 10
918.6610656687
 20
510.8420274383
 30
0.0
 11
918.6610656687
 21
506.2428399151
 31
0.0
  0
ARC
  5
F6
330
1F
100
AcDbEntity
  8
0
  6
Continuous
 62
     7
370
    15
100
AcDbCircle
 10
927.0789246877
 20
506.290486933
 30
0.0
 40
0.736486311489325
100
AcDbArc
 50
270.3594215678
 51
348.0689647462
  0
ARC
  5
F7
330
1F
100
AcDbEntity
  8
0
  6
Continuous
 62
     7
370
    15
100
AcDbCircle
 10
919.4213038918
 20
506.2445159077
 30
0.0
 40
0.7602400705061331
100
AcDbArc
 50
180.1263119127
 51
270.1260901389
  0
SPLINE
  5
F8
330
1F
100
AcDbEntity
  8
0
  6
Continuous
 62
     7
370
    15
100
AcDbSpline
210
0.0
220
0.0
230
1.0
 70
     8
 71
     3
 72
    11
 73
     7
 74
     0
 42
0.00000001
 43
0.00000001
 40
0.0
 40
0.0
 40
0.0
 40
0.0
 40
0.1990398958630833
 40
0.4636309419593653
 40
0.7350858673694979
 40
1.0
 40
1.0
 40
1.0
 40
1.0
 10
924.1640942998844
 20
505.5131449526239
 30
0.0
 10
924.5071496544164
 20
505.5357350713173
 30
0.0
 10
925.3062410952366
 20
505.588355064728
 30
0.0
 10
926.3999944982463
 20
505.7619658989715
 30
0.0
 10
927.3137343461924
 20
505.9778835139373
 30
0.0
 10
927.6389003987006
 20
506.0852174942446
 30
0.0
 10
927.799500794025
 20
506.1382300382543
 30
0.0
  0
LWPOLYLINE
  5
F9
330
1F
100
AcDbEntity
  8
0
  6
Continuous
 62
     7
370
    15
100
AcDbPolyline
 90
        9
 70
   128
 43
0.0
 10
919.4229769417
 20
538.1071142083
 10
919.2743378588
 20
538.1025395518
 10
919.1314059206
 20
538.0889794951
 10
918.9996796556
 20
538.0669555789
 10
918.8842254587
 20
538.0373246199
 10
918.7894689747
 20
538.0012191063
 10
918.719060988
 20
537.9600248462
 10
918.6757135101
 20
537.9153213626
 10
918.6610656687
 20
537.8688371902
  0
LINE
  5
FA
330
1F
100
AcDbEntity
  8
0
  6
Continuous
 62
     7
370
    15
100
AcDbLine
 10
918.6610656687
 20
528.3931291824
 30
0.0
 11
918.6610656687
 21
537.8688371902
 31
0.0
  0
LINE
  5
FB
330
1F
100
AcDbEntity
  8
0
  6
Continuous
 62
     7
370
    15
100
AcDbLine
 10
927.1636384436
 20
505.5360927409
 30
0.0
 11
927.0835447021
 21
505.5540151125
 31
0.0
  0
SPLINE
  5
FC
330
1F
100
AcDbEntity
  8
0
  6
Continuous
 62
     7
370
    15
100
AcDbSpline
210
0.0
220
0.0
230
1.0
 70
     8
 71
     3
 72
    16
 73
    12
 74
     0
 42
0.00000001
 43
0.00000001
 40
0.0
 40
0.0
 40
0.0
 40
0.0
 40
0.1632157442487505
 40
0.2700786735933671
 40
0.3688078211417443
 40
0.4654146137353094
 40
0.5626674002385713
 40
0.6630041572727126
 40
0.7707086593635272
 40
0.8765168294709
 40
1.0
 40
1.0
 40
1.0
 40
1.0
 10
919.4229769416767
 20
500.4555418318201
 30
0.0
 10
919.4616262693226
 20
499.9595151664852
 30
0.0
 10
919.5255806334923
 20
499.1387228804394
 30
0.0
 10
920.1495151309889
 20
497.9938205845213
 30
0.0
 10
920.9637578989797
 20
497.1915949170342
 30
0.0
 10
922.0010439628587
 20
496.6488274826772
 30
0.0
 10
923.1857686015475
 20
496.4187253870053
 30
0.0
 10
924.439015199498
 20
496.5457495661041
 30
0.0
 10
925.5989505966152
 20
497.0555792734486
 30
0.0
 10
926.5776941823874
 20
497.9233065321947
 30
0.0
 10
926.9064796818087
 20
498.6355466354451
 30
0.0
 10
927.0835447021442
 20
499.0191183215071
 30
0.0
  0
LINE
  5
FD
330
1F
100
AcDbEntity
  8
0
  6
Continuous
 62
     7
370
    15
100
AcDbLine
 10
919.4229769417
 20
505.4842776781
 30
0.0
 11
919.4229769417
 21
500.4555418318
 31
0.0
  0
ARC
  5
FE
330
1F
100
AcDbEntity
  8
0
  6
Continuous
 62
     7
370
    15
100
AcDbCircle
 10
927.3092319273
 20
499.5868598876
 30
0.0
 40
0.6109543431527116
100
AcDbArc
 50
248.3213117923
 51
323.3660455387
  0
ARC
  5
FF
330
1F
100
AcDbEntity
  8
0
  6
Continuous
 62
     7
370
    15
100
AcDbCircle
 10
919.3242120807
 20
501.1265627069
 30
0.0
 40
0.6782503317996453
100
AcDbArc
 50
192.1142549092
 51
278.3730169499
  0
LINE
  5
100
330
1F
100
AcDbEntity
  8
0
  6
Continuous
 62
     7
370
    15
100
AcDbLine
 10
918.6610656687
 20
500.9842238551
 30
0.0
 11
918.6610656687
 21
506.2428399151
 31
0.0
  0
SPLINE
  5
101
330
1F
100
AcDbEntity
  8
0
  6
Continuous
 62
     7
370
    15
100
AcDbSpline
210
0.0
220
0.0
230
1.0
 70
     8
 71
     3
 72
    11
 73
     7
 74
     0
 42
0.00000001
 43
0.00000001
 40
0.0
 40
0.0
 40
0.0
 40
0.0
 40
0.1990398481205498
 40
0.4636309830289351
 40
0.7350855818313166
 40
1.0
 40
1.0
 40
1.0
 40
1.0
 10
924.1640942998844
 20
543.5224644070554
 30
0.0
 10
924.5071497179056
 20
543.4324805311868
 30
0.0
 10
925.3062415690723
 20
543.2228777143655
 30
0.0
 10
926.3999933486451
 20
542.4638951689283
 30
0.0
 10
927.3137354459477
 20
541.344670314025
 30
0.0
 10
927.6389006381888
 20
540.449822465801
 30
0.0
 10
927.799500794025
 20
540.0078541761327
 30
0.0
  0
SPLINE
  5
102
330
1F
100
AcDbEntity
  8
0
  6
Continuous
 62
     7
370
    15
100
AcDbSpline
210
0.0
220
0.0
230
1.0
 70
     8
 71
     3
 72
    12
 73
     8
 74
     0
 42
0.00000001
 43
0.00000001
 40
0.0
 40
0.0
 40
0.0
 40
0.0
 40
0.2917318168060024
 40
0.5225561673544158
 40
0.761146332989733
 40
0.9714529420605573
 40
0.9999999999999999
 40
0.9999999999999999
 40
0.9999999999999999
 40
0.9999999999999999
 10
918.661065668674
 20
537.8688371902394
 30
0.0
 10
918.7062416665219
 20
538.5888119305868
 30
0.0
 10
918.7871618642238
 20
539.8784458314308
 30
0.0
 10
919.5951440886507
 20
541.6443284378215
 30
0.0
 10
920.8066261014842
 20
542.8885974427169
 30
0.0
 10
921.925581350892
 20
543.389534034632
 30
0.0
 10
922.5106651781684
 20
543.5082730803707
 30
0.0
 10
922.5805926032978
 20
543.5224644070554
 30
0.0
  0
SPLINE
  5
103
330
1F
100
AcDbEntity
  8
0
  6
Continuous
 62
     7
370
    15
100
AcDbSpline
210
0.0
220
0.0
230
1.0
 70
     8
 71
     3
 72
    11
 73
     7
 74
     0
 42
0.00000001
 43
0.00000001
 40
0.0
 40
0.0
 40
0.0
 40
0.0
 40
0.0091482408254457
 40
0.5000046725242869
 40
0.9908517591745543
 40
1.0
 40
1.0
 40
1.0
 40
1.0
 10
922.5805926032978
 20
543.5224644070554
 30
0.0
 10
922.5853704388933
 20
543.523194385703
 30
0.0
 10
922.8465069970506
 20
543.5630919727524
 30
0.0
 10
923.3723459928628
 20
543.6012160525922
 30
0.0
 10
923.8981847866069
 20
543.5630912271314
 30
0.0
 10
924.1593164642861
 20
543.5231943857043
 30
0.0
 10
924.1640942998844
 20
543.5224644070554
 30
0.0
  0
SPLINE
  5
104
330
1F
100
AcDbEntity
  8
0
  6
Continuous
 62
     7
370
    15
100
AcDbSpline
210
0.0
220
0.0
230
1.0
 70
     8
 71
     3
 72
    12
 73
     8
 74
     0
 42
0.00000001
 43
0.00000001
 40
0.0
 40
0.0
 40
0.0
 40
0.0
 40
0.1136337346244193
 40
0.3008418561951701
 40
0.4919205817686866
 40
0.696444288847452
 40
1.0
 40
1.0
 40
1.0
 40
1.0
 10
922.5805926032978
 20
543.5224644070554
 30
0.0
 10
922.3038433011382
 20
543.4781054401207
 30
0.0
 10
921.5711579411295
 20
543.3606664243594
 30
0.0
 10
920.5001696538903
 20
542.9391309780644
 30
0.0
 10
919.5330729811706
 20
542.2713795884566
 30
0.0
 10
918.791413256076
 20
541.3608384425384
 30
0.0
 10
918.7098163365029
 20
540.7726233708904
 30
0.0
 10
918.661065668674
 20
540.4211900359082
 30
0.0
  0
LINE
  5
105
330
1F
100
AcDbEntity
  8
0
  6
Continuous
 62
     7
370
    15
100
AcDbLine
 10
918.6610656687
 20
540.4211900359
 30
0.0
 11
918.6610656687
 21
537.8688371902
 31
0.0
  0
SPLINE
  5
106
330
1F
100
AcDbEntity
  8
0
  6
Continuous
 62
     7
370
    15
100
AcDbSpline
210
0.0
220
0.0
230
1.0
 70
     8
 71
     3
 72
    11
 73
     7
 74
     0
 42
0.00000001
 43
0.00000001
 40
0.0
 40
0.0
 40
0.0
 40
0.0
 40
0.3340939984919393
 40
0.6236936653271609
 40
0.9185171619848397
 40
1.0
 40
1.0
 40
1.0
 40
1.0
 10
927.799500794025
 20
541.457036805718
 30
0.0
 10
927.5868463300759
 20
541.7600429364707
 30
0.0
 10
927.189858528238
 20
542.3257011199719
 30
0.0
 10
926.0285616888768
 20
543.0569793287193
 30
0.0
 10
924.9564934319004
 20
543.4104586510094
 30
0.0
 10
924.3051350539465
 20
543.502528271775
 30
0.0
 10
924.1640942998844
 20
543.5224644070554
 30
0.0
  0
LWPOLYLINE
  5
107
330
1F
100
AcDbEntity
  8
0
  6
Continuous
 62
     7
370
    15
100
AcDbPolyline
 90
        3
 70
   128
 43
0.0
 10
927.799500794
 20
541.4570368057
 10
927.761502833
 20
541.5606073266
 10
927.7196156689
 20
541.6333175426
  0
LINE
  5
108
330
1F
100
AcDbEntity
  8
0
  6
Continuous
 62
     7
370
    15
100
AcDbLine
 10
899.6610718676
 20
531.5586126572
 30
0.0
 11
899.6610718676
 21
510.5586110776
 31
0.0
  0
LINE
  5
109
330
1F
100
AcDbEntity
  8
0
  6
Continuous
 62
     7
370
    15
100
AcDbLine
 10
899.1922664352
 20
525.2466148859
 30
0.0
 11
899.1922664352
 21
516.8706125742
 31
0.0
  0
LINE
  5
10A
330
1F
100
AcDbEntity
  8
0
  6
Continuous
 62
     7
370
    15
100
AcDbLine
 10
898.8227623411
 20
525.2466148859
 30
0.0
 11
898.8227623411
 21
516.8706125742
 31
0.0
  0
LINE
  5
10B
330
1F
100
AcDbEntity
  8
0
  6
Continuous
 62
     7
370
    15
100
AcDbLine
 10
898.3539420076
 20
526.0586164123
 30
0.0
 11
898.3539420076
 21
516.0586110478
 31
0.0
  0
LINE
  5
10C
330
1F
100
AcDbEntity
  8
0
  6
Continuous
 62
     7
370
    15
100
AcDbLine
 10
895.6610637613
 20
526.0586164123
 30
0.0
 11
895.6610637613
 21
516.0586110478
 31
0.0
  0
LINE
  5
10D
330
1F
100
AcDbEntity
  8
0
  6
Continuous
 62
     7
370
    15
100
AcDbLine
 10
895.192258329
 20
525.2466148859
 30
0.0
 11
895.192258329
 21
516.8706125742
 31
0.0
  0
LINE
  5
10E
330
1F
100
AcDbEntity
  8
0
  6
Continuous
 62
     7
370
    15
100
AcDbLine
 10
897.6610678144
 20
526.0586164123
 30
0.0
 11
897.6610678144
 21
516.0586110478
 31
0.0
  0
LINE
  5
10F
330
1F
100
AcDbEntity
  8
0
  6
Continuous
 62
     7
370
    15
100
AcDbLine
 10
897.1922623821
 20
525.2466148859
 30
0.0
 11
897.1922623821
 21
516.8706125742
 31
0.0
  0
LINE
  5
110
330
1F
100
AcDbEntity
  8
0
  6
Continuous
 62
     7
370
    15
100
AcDbLine
 10
894.8227542349
 20
525.2466148859
 30
0.0
 11
894.8227542349
 21
516.8706125742
 31
0.0
  0
LINE
  5
111
330
1F
100
AcDbEntity
  8
0
  6
Continuous
 62
     7
370
    15
100
AcDbLine
 10
894.3539488026
 20
526.0586164123
 30
0.0
 11
894.3539488026
 21
516.0586110478
 31
0.0
  0
LINE
  5
112
330
1F
100
AcDbEntity
  8
0
  6
Continuous
 62
     7
370
    15
100
AcDbLine
 10
892.8227501818
 20
525.2466148859
 30
0.0
 11
892.8227501818
 21
516.8706125742
 31
0.0
  0
LINE
  5
113
330
1F
100
AcDbEntity
  8
0
  6
Continuous
 62
     7
370
    15
100
AcDbLine
 10
892.3539447494
 20
526.0586164123
 30
0.0
 11
892.3539447494
 21
516.0586110478
 31
0.0
  0
LINE
  5
114
330
1F
100
AcDbEntity
  8
0
  6
Continuous
 62
     7
370
    15
100
AcDbLine
 10
896.822758288
 20
525.2466148859
 30
0.0
 11
896.822758288
 21
516.8706125742
 31
0.0
  0
LINE
  5
115
330
1F
100
AcDbEntity
  8
0
  6
Continuous
 62
     7
370
    15
100
AcDbLine
 10
896.3539528557
 20
526.0586164123
 30
0.0
 11
896.3539528557
 21
516.0586110478
 31
0.0
  0
LINE
  5
116
330
1F
100
AcDbEntity
  8
0
  6
Continuous
 62
     7
370
    15
100
AcDbLine
 10
893.6610746094
 20
526.0586164123
 30
0.0
 11
893.6610746094
 21
516.0586110478
 31
0.0
  0
LINE
  5
117
330
1F
100
AcDbEntity
  8
0
  6
Continuous
 62
     7
370
    15
100
AcDbLine
 10
891.6610705563
 20
526.0586164123
 30
0.0
 11
891.6610705563
 21
516.0586110478
 31
0.0
  0
LINE
  5
118
330
1F
100
AcDbEntity
  8
0
  6
Continuous
 62
     7
370
    15
100
AcDbLine
 10
891.1922651239
 20
525.2466148859
 30
0.0
 11
891.1922651239
 21
516.8706125742
 31
0.0
  0
LINE
  5
119
330
1F
100
AcDbEntity
  8
0
  6
Continuous
 62
     7
370
    15
100
AcDbLine
 10
893.1922542759
 20
525.2466148859
 30
0.0
 11
893.1922542759
 21
516.8706125742
 31
0.0
  0
LINE
  5
11A
330
1F
100
AcDbEntity
  8
0
  6
Continuous
 62
     7
370
    15
100
AcDbLine
 10
880.8227556654
 20
525.2466148859
 30
0.0
 11
880.8227556654
 21
516.8706125742
 31
0.0
  0
LINE
  5
11B
330
1F
100
AcDbEntity
  8
0
  6
Continuous
 62
     7
370
    15
100
AcDbLine
 10
880.3539502331
 20
526.0586164123
 30
0.0
 11
880.3539502331
 21
516.0586110478
 31
0.0
  0
LINE
  5
11C
330
1F
100
AcDbEntity
  8
0
  6
Continuous
 62
     7
370
    15
100
AcDbLine
 10
879.6610760399
 20
526.0586164123
 30
0.0
 11
879.6610760399
 21
516.0586110478
 31
0.0
  0
LINE
  5
11D
330
1F
100
AcDbEntity
  8
0
  6
Continuous
 62
     7
370
    15
100
AcDbLine
 10
879.1922557064
 20
525.2466148859
 30
0.0
 11
879.1922557064
 21
516.8706125742
 31
0.0
  0
LINE
  5
11E
330
1F
100
AcDbEntity
  8
0
  6
Continuous
 62
     7
370
    15
100
AcDbLine
 10
878.46636054
 20
525.8639029389
 30
0.0
 11
878.46636054
 21
516.2533207959
 31
0.0
  0
LINE
  5
11F
330
1F
100
AcDbEntity
  8
0
  6
Continuous
 62
     7
370
    15
100
AcDbLine
 10
878.8227516123
 20
525.2466148859
 30
0.0
 11
878.8227516123
 21
516.8706125742
 31
0.0
  0
SPLINE
  5
120
330
1F
100
AcDbEntity
  8
0
  6
Continuous
 62
     7
370
    15
100
AcDbSpline
210
0.0
220
0.0
230
1.0
 70
     8
 71
     3
 72
    11
 73
     7
 74
     0
 42
0.00000001
 43
0.00000001
 40
0.0
 40
0.0
 40
0.0
 40
0.0
 40
0.3340939036946958
 40
0.623693372276107
 40
0.9185172237481677
 40
1.0
 40
1.0
 40
1.0
 40
1.0
 10
927.799500794025
 20
499.2223031049658
 30
0.0
 10
927.5868464958212
 20
498.7457244802166
 30
0.0
 10
927.1898590772875
 20
497.8560376995317
 30
0.0
 10
926.0285598413129
 20
496.7877464965816
 30
0.0
 10
924.9564946413642
 20
496.2839493446325
 30
0.0
 10
924.305135091056
 20
496.1537999262242
 30
0.0
 10
924.1640942998844
 20
496.1256182914663
 30
0.0
  0
SPLINE
  5
121
330
1F
100
AcDbEntity
  8
0
  6
Continuous
 62
     7
370
    15
100
AcDbSpline
210
0.0
220
0.0
230
1.0
 70
     8
 71
     3
 72
    11
 73
     7
 74
     0
 42
0.00000001
 43
0.00000001
 40
0.0
 40
0.0
 40
0.0
 40
0.0
 40
0.0091481584204378
 40
0.4999953274750585
 40
0.9908518415795623
 40
1.0
 40
1.0
 40
1.0
 40
1.0
 10
924.1640942998844
 20
496.1256182914663
 30
0.0
 10
924.1593164638765
 20
496.1248085927372
 30
0.0
 10
923.8981824115817
 20
496.0805542671537
 30
0.0
 10
923.372345992884
 20
496.0381853460969
 30
0.0
 10
922.8465093721218
 20
496.0805534400916
 30
0.0
 10
922.585370439303
 20
496.1248085927383
 30
0.0
 10
922.5805926032978
 20
496.1256182914663
 30
0.0
  0
SPLINE
  5
122
330
1F
100
AcDbEntity
  8
0
  6
Continuous
 62
     7
370
    15
100
AcDbSpline
210
0.0
220
0.0
230
1.0
 70
     8
 71
     3
 72
    12
 73
     8
 74
     0
 42
0.00000001
 43
0.00000001
 40
0.0
 40
0.0
 40
0.0
 40
0.0
 40
0.113633709210047
 40
0.3008419475712608
 40
0.4919205945817209
 40
0.6964441411203337
 40
1.0
 40
1.0
 40
1.0
 40
1.0
 10
922.5805926032978
 20
496.1256182914664
 30
0.0
 10
922.3038432487227
 20
496.1883700891422
 30
0.0
 10
921.5711573635375
 20
496.3545036524806
 30
0.0
 10
920.5001704511619
 20
496.9573677407703
 30
0.0
 10
919.533073026881
 20
497.9453190288483
 30
0.0
 10
918.7914128622388
 20
499.3486369945747
 30
0.0
 10
918.7098162048268
 20
500.3725057644068
 30
0.0
 10
918.661065668674
 20
500.9842238551069
 30
0.0
  0
LINE
  5
123
330
1F
100
AcDbEntity
  8
0
  6
Continuous
 62
     7
370
    15
100
AcDbLine
 10
918.6610656687
 20
500.9842238551
 30
0.0
 11
918.6610656687
 21
500.7698892778
 31
0.0
  0
LINE
  5
124
330
1F
100
AcDbEntity
  8
0
  6
Continuous
 62
     7
370
    15
100
AcDbLine
 10
919.6058141895
 20
505.5322743183
 30
0.0
 11
919.6288215824
 21
505.5383167392
 31
0.0
  0
LINE
  5
125
330
1F
100
AcDbEntity
  8
0
  6
Continuous
 62
     7
370
    15
100
AcDbLine
 10
871.6610747286
 20
427.1762597537
 30
0.0
 11
874.6610659071
 21
427.1762597537
 31
0.0
  0
LINE
  5
126
330
1F
100
AcDbEntity
  8
0
  6
Continuous
 62
     7
370
    15
100
AcDbLine
 10
871.6610747286
 20
528.0586130148
 30
0.0
 11
871.6610747286
 21
427.1762597537
 31
0.0
  0
LINE
  5
127
330
1F
100
AcDbEntity
  8
0
  6
Continuous
 62
     7
370
    15
100
AcDbLine
 10
874.6610659071
 20
528.0586130148
 30
0.0
 11
874.6610659071
 21
427.1762597537
 31
0.0
  0
LINE
  5
128
330
1F
100
AcDbEntity
  8
0
  6
Continuous
 62
     7
370
    15
100
AcDbLine
 10
874.6610659071
 20
426.0586111968
 30
0.0
 11
871.6610747286
 21
426.0586111968
 31
0.0
  0
LINE
  5
129
330
1F
100
AcDbEntity
  8
0
  6
Continuous
 62
     7
370
    15
100
AcDbLine
 10
871.6610747286
 20
426.0586111968
 30
0.0
 11
871.6610747286
 21
427.1762597537
 31
0.0
  0
LINE
  5
12A
330
1F
100
AcDbEntity
  8
0
  6
Continuous
 62
     7
370
    15
100
AcDbLine
 10
874.6610659071
 20
427.1762597537
 30
0.0
 11
874.6610659071
 21
426.0586111968
 31
0.0
  0
LINE
  5
12B
330
1F
100
AcDbEntity
  8
0
  6
Continuous
 62
     7
370
    15
100
AcDbLine
 10
591.2110733696
 20
442.6586128002
 30
0.0
 11
591.2110733696
 21
473.4586126333
 31
0.0
  0
LINE
  5
12C
330
1F
100
AcDbEntity
  8
0
  6
Continuous
 62
     7
370
    15
100
AcDbLine
 10
595.2110665747
 20
477.458613289
 30
0.0
 11
595.2110665747
 21
438.6586121446
 31
0.0
  0
LINE
  5
12D
330
1F
100
AcDbEntity
  8
0
  6
Continuous
 62
     7
370
    15
100
AcDbLine
 10
598.711066217
 20
438.6586121446
 30
0.0
 11
598.711066217
 21
477.458613289
 31
0.0
  0
LINE
  5
12E
330
1F
100
AcDbEntity
  8
0
  6
Continuous
 62
     7
370
    15
100
AcDbLine
 10
600.7110702702
 20
471.9586123874
 30
0.0
 11
600.7110702702
 21
444.1586130461
 31
0.0
  0
SPLINE
  5
12F
330
1F
100
AcDbEntity
  8
0
  6
Continuous
 62
     7
370
    15
100
AcDbSpline
210
0.0
220
0.0
230
1.0
 70
    24
 71
     3
 72
    55
 73
    51
 74
     0
 42
0.00000001
 43
0.00000001
 40
0.0
 40
0.0
 40
0.0
 40
0.0
 40
0.0624999999999995
 40
0.0624999999999995
 40
0.0937499999999995
 40
0.0937499999999995
 40
0.1249999999999995
 40
0.1562499999999994
 40
0.1562499999999994
 40
0.1874999999999994
 40
0.1874999999999994
 40
0.2500000000000005
 40
0.2500000000000005
 40
0.2812500000000011
 40
0.2812500000000011
 40
0.3125000000000017
 40
0.3125000000000017
 40
0.3750000000000028
 40
0.3750000000000028
 40
0.4062500000000044
 40
0.4062500000000044
 40
0.4375000000000059
 40
0.4375000000000059
 40
0.500000000000009
 40
0.500000000000009
 40
0.5312500000000095
 40
0.5312500000000095
 40
0.5625000000000101
 40
0.5625000000000101
 40
0.5937500000000105
 40
0.5937500000000105
 40
0.6250000000000111
 40
0.6250000000000111
 40
0.6875000000000121
 40
0.6875000000000121
 40
0.7187500000000118
 40
0.7187500000000118
 40
0.7500000000000113
 40
0.7500000000000113
 40
0.8125000000000093
 40
0.8125000000000093
 40
0.8437500000000078
 40
0.8437500000000078
 40
0.8750000000000062
 40
0.8750000000000062
 40
0.9062500000000047
 40
0.9062500000000047
 40
0.937500000000003
 40
0.937500000000003
 40
1.0
 40
1.0
 40
1.0
 40
1.0
 10
873.2487118356396
 20
703.058612716763
 30
0.0
 10
873.2487066961789
 20
703.0586127167632
 30
0.0
 10
873.3314181304879
 20
703.058612716763
 30
0.0
 10
873.5769513333154
 20
703.058612716763
 30
0.0
 10
873.6797703182605
 20
703.0586127167633
 30
0.0
 10
873.922974025529
 20
703.0586127167632
 30
0.0
 10
874.2040646989876
 20
703.058612716763
 30
0.0
 10
874.5590793947196
 20
703.0586127167632
 30
0.0
 10
874.9517311487477
 20
703.0586127167632
 30
0.0
 10
875.1675922468626
 20
703.0586127167632
 30
0.0
 10
875.8697776530005
 20
703.0586127167632
 30
0.0
 10
876.3991478327816
 20
703.0586127167632
 30
0.0
 10
877.2829987483897
 20
703.058612716763
 30
0.0
 10
877.5926922078964
 20
703.058612716763
 30
0.0
 10
878.2427241945854
 20
703.058612716763
 30
0.0
 10
878.5838747148223
 20
703.0586127167632
 30
0.0
 10
879.6312626019452
 20
703.0586127167632
 30
0.0
 10
880.3666883260211
 20
703.058612716763
 30
0.0
 10
881.5325248938678
 20
703.0586127167632
 30
0.0
 10
881.9336606879705
 20
703.0586127167632
 30
0.0
 10
882.7508468847649
 20
703.0586127167632
 30
0.0
 10
883.1626293523942
 20
703.0586127167632
 30
0.0
 10
884.4062913343944
 20
703.058612716763
 30
0.0
 10
885.2468356862144
 20
703.0586127167632
 30
0.0
 10
886.5252997203984
 20
703.0586127167632
 30
0.0
 10
886.9515503355917
 20
703.058612716763
 30
0.0
 10
887.7933429775857
 20
703.0586127167632
 30
0.0
 10
888.2105400919515
 20
703.0586127167632
 30
0.0
 10
889.0376590014017
 20
703.0586127167632
 30
0.0
 10
889.4477041353018
 20
703.058612716763
 30
0.0
 10
890.2598745786345
 20
703.0586127167632
 30
0.0
 10
890.6643670245678
 20
703.0586127167632
 30
0.0
 10
891.8398998916658
 20
703.0586127167632
 30
0.0
 10
892.5770215330846
 20
703.0586127167632
 30
0.0
 10
893.6227196467022
 20
703.0586127167632
 30
0.0
 10
893.9608156266988
 20
703.0586127167632
 30
0.0
 10
894.6154887848538
 20
703.058612716763
 30
0.0
 10
894.928085559012
 20
703.058612716763
 30
0.0
 10
895.8166075442615
 20
703.058612716763
 30
0.0
 10
896.3464271357049
 20
703.0586127167632
 30
0.0
 10
897.0473368289378
 20
703.058612716763
 30
0.0
 10
897.2654083784722
 20
703.058612716763
 30
0.0
 10
897.6601925477125
 20
703.058612716763
 30
0.0
 10
897.8383193697124
 20
703.0586127167632
 30
0.0
 10
898.1570697992107
 20
703.0586127167632
 30
0.0
 10
898.2976905012637
 20
703.058612716763
 30
0.0
 10
898.5408199894263
 20
703.0586127167632
 30
0.0
 10
898.6434299562445
 20
703.058612716763
 30
0.0
 10
898.8905383061715
 20
703.058612716763
 30
0.0
 10
898.9734314371793
 20
703.0586127167632
 30
0.0
 10
898.9734268927359
 20
703.058612716763
 30
0.0
  0
LINE
  5
130
330
1F
100
AcDbEntity
  8
0
  6
Continuous
 62
     7
370
    15
100
AcDbLine
 10
879.1110741802
 20
583.0586127168
 30
0.0
 11
882.1110653587
 21
583.0586127168
 31
0.0
  0
LINE
  5
131
330
1F
100
AcDbEntity
  8
0
  6
Continuous
 62
     7
370
    15
100
AcDbLine
 10
890.11106667
 20
583.0586127168
 30
0.0
 11
893.1110727497
 21
583.0586127168
 31
0.0
  0
LINE
  5
132
330
1F
100
AcDbEntity
  8
0
  6
Continuous
 62
     7
370
    15
100
AcDbLine
 10
882.1110653587
 20
583.0586127168
 30
0.0
 11
890.11106667
 21
583.0586127168
 31
0.0
  0
SPLINE
  5
133
330
1F
100
AcDbEntity
  8
0
  6
Continuous
 62
     7
370
    15
100
AcDbSpline
210
0.0
220
0.0
230
1.0
 70
     8
 71
     3
 72
     8
 73
     4
 74
     0
 42
0.00000001
 43
0.00000001
 40
0.0
 40
0.0
 40
0.0
 40
0.0
 40
0.0000226150302117
 40
0.0000226150302117
 40
0.0000226150302117
 40
0.0000226150302117
 10
814.1096919539223
 20
448.354157754473
 30
0.0
 10
814.1096768182737
 20
448.3494063901267
 30
0.0
 10
814.1095131434055
 20
448.3446595784745
 30
0.0
 10
814.1092003000392
 20
448.3399228822862
 30
0.0
  0
SPLINE
  5
134
330
1F
100
AcDbEntity
  8
0
  6
Continuous
 62
     7
370
    15
100
AcDbSpline
210
0.0
220
0.0
230
1.0
 70
    24
 71
     3
 72
    14
 73
    10
 74
     0
 42
0.00000001
 43
0.00000001
 40
0.1393700509402423
 40
0.1393700509402423
 40
0.1393700509402423
 40
0.1393700509402423
 40
0.2500000000000002
 40
0.3750000000000001
 40
0.5000000000000003
 40
0.5000000000000003
 40
0.6250000000000002
 40
0.7500000000000002
 40
0.8606299490597574
 40
0.8606299490597574
 40
0.8606299490597574
 40
0.8606299490597574
 10
814.1110693641618
 20
467.7631795906464
 30
0.0
 10
814.111069364162
 20
467.0469396882579
 30
0.0
 10
814.1110693641621
 20
465.2642712810977
 30
0.0
 10
814.1110693641617
 20
461.9096268631501
 30
0.0
 10
814.111069364162
 20
459.3423348702608
 30
0.0
 10
814.111069364162
 20
456.7748905632653
 30
0.0
 10
814.111069364162
 20
454.2075985703761
 30
0.0
 10
814.1110693641618
 20
450.8529541524285
 30
0.0
 10
814.1110693641618
 20
449.0702857452683
 30
0.0
 10
814.1110693641618
 20
448.3540458428798
 30
0.0
  0
SPLINE
  5
135
330
1F
100
AcDbEntity
  8
0
  6
Continuous
 62
     7
370
    15
100
AcDbSpline
210
0.0
220
0.0
230
1.0
 70
     8
 71
     3
 72
     8
 73
     4
 74
     0
 42
0.00000001
 43
0.00000001
 40
0.0
 40
0.0
 40
0.0
 40
0.0
 40
0.0000226150302116
 40
0.0000226150302116
 40
0.0000226150302116
 40
0.0000226150302116
 10
814.1092003000392
 20
467.77730255124
 30
0.0
 10
814.1095131434055
 20
467.7725658550517
 30
0.0
 10
814.1096768182738
 20
467.7678190433996
 30
0.0
 10
814.1096919539224
 20
467.7630676790532
 30
0.0
  0
LINE
  5
136
330
1F
100
AcDbEntity
  8
0
  6
Continuous
 62
     7
370
    15
100
AcDbLine
 10
832.8278365441
 20
467.7773027843
 30
0.0
 11
814.1110691138
 21
467.7773027843
 31
0.0
  0
SPLINE
  5
137
330
1F
100
AcDbEntity
  8
0
  6
Continuous
 62
     7
370
    15
100
AcDbSpline
210
0.0
220
0.0
230
1.0
 70
     8
 71
     3
 72
    16
 73
    12
 74
     0
 42
0.00000001
 43
0.00000001
 40
0.0
 40
0.0
 40
0.0
 40
0.0
 40
0.1250000000000006
 40
0.1250000000000006
 40
0.2500000000000012
 40
0.2500000000000012
 40
0.5000000000000008
 40
0.5000000000000008
 40
0.7500000000000004
 40
0.7500000000000004
 40
1.0
 40
1.0
 40
1.0
 40
1.0
 10
835.3519929697297
 20
470.3225475616646
 30
0.0
 10
835.3587522125006
 20
470.268154259648
 30
0.0
 10
835.3407912799838
 20
470.2051557903045
 30
0.0
 10
835.2657203450874
 20
470.0627903209631
 30
0.0
 10
835.2080807607814
 20
469.9829361350347
 30
0.0
 10
834.9885578671494
 20
469.7229456592465
 30
0.0
 10
834.7841629266134
 20
469.5256378741109
 30
0.0
 10
834.3050723145336
 20
469.0894483484424
 30
0.0
 10
834.0287870927904
 20
468.8498026788293
 30
0.0
 10
833.4467369223009
 20
468.3398551931552
 30
0.0
 10
833.1382224392783
 20
468.0673125531355
 30
0.0
 10
832.8278333027481
 20
467.77730255124
 30
0.0
  0
SPLINE
  5
138
330
1F
100
AcDbEntity
  8
0
  6
Continuous
 62
     7
370
    15
100
AcDbSpline
210
0.0
220
0.0
230
1.0
 70
     8
 71
     3
 72
    16
 73
    12
 74
     0
 42
0.00000001
 43
0.00000001
 40
0.0
 40
0.0
 40
0.0
 40
0.0
 40
0.1249999999999994
 40
0.1249999999999994
 40
0.2499999999999988
 40
0.2499999999999988
 40
0.4999999999999992
 40
0.4999999999999992
 40
0.7499999999999996
 40
0.7499999999999996
 40
1.0
 40
1.0
 40
1.0
 40
1.0
 10
835.3519929697297
 20
445.7946778718616
 30
0.0
 10
835.3587522125006
 20
445.8490711738782
 30
0.0
 10
835.3407912799838
 20
445.9120696432217
 30
0.0
 10
835.2657203450874
 20
446.0544351125631
 30
0.0
 10
835.2080807607814
 20
446.1342892984915
 30
0.0
 10
834.9885578671494
 20
446.3942797742797
 30
0.0
 10
834.7841629266134
 20
446.5915875594152
 30
0.0
 10
834.3050723145335
 20
447.0277770850839
 30
0.0
 10
834.0287870927904
 20
447.2674227546969
 30
0.0
 10
833.4467369223008
 20
447.777370240371
 30
0.0
 10
833.1382224392815
 20
448.0499128803921
 30
0.0
 10
832.8278333027481
 20
448.3399228822862
 30
0.0
  0
LINE
  5
139
330
1F
100
AcDbEntity
  8
0
  6
Continuous
 62
     7
370
    15
100
AcDbLine
 10
814.1110691138
 20
448.3399226492
 30
0.0
 11
832.8278365441
 21
448.3399226492
 31
0.0
  0
LINE
  5
13A
330
1F
100
AcDbEntity
  8
0
  6
Continuous
 62
     7
370
    15
100
AcDbLine
 10
836.1110689946
 20
468.5322701162
 30
0.0
 11
836.1110689946
 21
447.5849553173
 31
0.0
  0
SPLINE
  5
13B
330
1F
100
AcDbEntity
  8
0
  6
Continuous
 62
     7
370
    15
100
AcDbSpline
210
0.0
220
0.0
230
1.0
 70
     8
 71
     3
 72
    16
 73
    12
 74
     0
 42
0.00000001
 43
0.00000001
 40
0.0
 40
0.0
 40
0.0
 40
0.0
 40
0.1250000000000007
 40
0.1250000000000007
 40
0.2500000000000014
 40
0.2500000000000014
 40
0.5000000000000009
 40
0.5000000000000009
 40
0.7500000000000004
 40
0.7500000000000004
 40
1.0
 40
1.0
 40
1.0
 40
1.0
 10
637.9701457585942
 20
470.3225475616646
 30
0.0
 10
637.9633865158235
 20
470.268154259648
 30
0.0
 10
637.9813474483401
 20
470.2051557903045
 30
0.0
 10
638.0564183832365
 20
470.0627903209631
 30
0.0
 10
638.1140579675426
 20
469.9829361350347
 30
0.0
 10
638.3335808611745
 20
469.7229456592465
 30
0.0
 10
638.5379758017104
 20
469.5256378741109
 30
0.0
 10
639.0170664137904
 20
469.0894483484424
 30
0.0
 10
639.2933516355336
 20
468.8498026788293
 30
0.0
 10
639.8754018060231
 20
468.3398551931552
 30
0.0
 10
640.1839162890561
 20
468.0673125531399
 30
0.0
 10
640.4943054255758
 20
467.77730255124
 30
0.0
  0
LINE
  5
13C
330
1F
100
AcDbEntity
  8
0
  6
Continuous
 62
     7
370
    15
100
AcDbLine
 10
659.2110696145
 20
467.7773027843
 30
0.0
 11
640.4943021842
 21
467.7773027843
 31
0.0
  0
SPLINE
  5
13D
330
1F
100
AcDbEntity
  8
0
  6
Continuous
 62
     7
370
    15
100
AcDbSpline
210
0.0
220
0.0
230
1.0
 70
     8
 71
     3
 72
     8
 73
     4
 74
     0
 42
0.00000001
 43
0.00000001
 40
0.0
 40
0.0
 40
0.0
 40
0.0
 40
0.0000226150302116
 40
0.0000226150302116
 40
0.0000226150302116
 40
0.0000226150302116
 10
659.2124467744018
 20
467.7630676790532
 30
0.0
 10
659.2124619100504
 20
467.7678190433996
 30
0.0
 10
659.2126255849183
 20
467.7725658550517
 30
0.0
 10
659.2129384282848
 20
467.77730255124
 30
0.0
  0
SPLINE
  5
13E
330
1F
100
AcDbEntity
  8
0
  6
Continuous
 62
     7
370
    15
100
AcDbSpline
210
0.0
220
0.0
230
1.0
 70
    24
 71
     3
 72
    22
 73
    18
 74
     0
 42
0.00000001
 43
0.00000001
 40
0.0
 40
0.0
 40
0.0
 40
0.0
 40
0.1249999999999999
 40
0.1249999999999999
 40
0.2499999999999999
 40
0.2499999999999999
 40
0.3749999999999999
 40
0.3749999999999999
 40
0.4999999999999999
 40
0.4999999999999999
 40
0.6249999999999999
 40
0.6249999999999999
 40
0.7499999999999999
 40
0.7499999999999999
 40
0.8749999999999999
 40
0.8749999999999999
 40
1.0
 40
1.0
 40
1.0
 40
1.0
 10
659.211069364162
 20
448.3541560102393
 30
0.0
 10
659.211069364162
 20
448.9377455410383
 30
0.0
 10
659.211069364162
 20
449.6015061307283
 30
0.0
 10
659.211069364162
 20
451.0568339085138
 30
0.0
 10
659.211069364162
 20
451.8483420913875
 30
0.0
 10
659.211069364162
 20
453.5202497283823
 30
0.0
 10
659.211069364162
 20
454.4005813962065
 30
0.0
 10
659.211069364162
 20
456.2068492575081
 30
0.0
 10
659.211069364162
 20
457.1327122171495
 30
0.0
 10
659.211069364162
 20
458.9845132163767
 30
0.0
 10
659.211069364162
 20
459.9103761760182
 30
0.0
 10
659.211069364162
 20
461.7166440373197
 30
0.0
 10
659.211069364162
 20
462.5969757051439
 30
0.0
 10
659.211069364162
 20
464.2688833421387
 30
0.0
 10
659.211069364162
 20
465.0603915250124
 30
0.0
 10
659.211069364162
 20
466.5157193027979
 30
0.0
 10
659.211069364162
 20
467.179479892488
 30
0.0
 10
659.211069364162
 20
467.7630694232869
 30
0.0
  0
SPLINE
  5
13F
330
1F
100
AcDbEntity
  8
0
  6
Continuous
 62
     7
370
    15
100
AcDbSpline
210
0.0
220
0.0
230
1.0
 70
     8
 71
     3
 72
     8
 73
     4
 74
     0
 42
0.00000001
 43
0.00000001
 40
0.0
 40
0.0
 40
0.0
 40
0.0
 40
0.0000226150302117
 40
0.0000226150302117
 40
0.0000226150302117
 40
0.0000226150302117
 10
659.2129384282848
 20
448.3399228822862
 30
0.0
 10
659.2126255849183
 20
448.3446595784745
 30
0.0
 10
659.2124619100503
 20
448.3494063901267
 30
0.0
 10
659.2124467744017
 20
448.354157754473
 30
0.0
  0
LINE
  5
140
330
1F
100
AcDbEntity
  8
0
  6
Continuous
 62
     7
370
    15
100
AcDbLine
 10
640.4943021842
 20
448.3399226492
 30
0.0
 11
659.2110696145
 21
448.3399226492
 31
0.0
  0
SPLINE
  5
141
330
1F
100
AcDbEntity
  8
0
  6
Continuous
 62
     7
370
    15
100
AcDbSpline
210
0.0
220
0.0
230
1.0
 70
     8
 71
     3
 72
    16
 73
    12
 74
     0
 42
0.00000001
 43
0.00000001
 40
0.0
 40
0.0
 40
0.0
 40
0.0
 40
0.1249999999999994
 40
0.1249999999999994
 40
0.2499999999999988
 40
0.2499999999999988
 40
0.4999999999999992
 40
0.4999999999999992
 40
0.7499999999999996
 40
0.7499999999999996
 40
1.0
 40
1.0
 40
1.0
 40
1.0
 10
637.9701457585942
 20
445.7946778718616
 30
0.0
 10
637.9633865158235
 20
445.8490711738782
 30
0.0
 10
637.9813474483401
 20
445.9120696432217
 30
0.0
 10
638.0564183832365
 20
446.0544351125631
 30
0.0
 10
638.1140579675426
 20
446.1342892984915
 30
0.0
 10
638.3335808611745
 20
446.3942797742797
 30
0.0
 10
638.5379758017106
 20
446.5915875594152
 30
0.0
 10
639.0170664137904
 20
447.0277770850839
 30
0.0
 10
639.2933516355336
 20
447.267422754697
 30
0.0
 10
639.875401806023
 20
447.777370240371
 30
0.0
 10
640.183916289065
 20
448.0499128803824
 30
0.0
 10
640.4943054255758
 20
448.3399228822862
 30
0.0
  0
LINE
  5
142
330
1F
100
AcDbEntity
  8
0
  6
Continuous
 62
     7
370
    15
100
AcDbLine
 10
637.2110697337
 20
468.5322701162
 30
0.0
 11
637.2110697337
 21
447.5849553173
 31
0.0
  0
SPLINE
  5
143
330
1F
100
AcDbEntity
  8
0
  6
Continuous
 62
     7
370
    15
100
AcDbSpline
210
0.0
220
0.0
230
1.0
 70
     8
 71
     3
 72
    44
 73
    40
 74
     0
 42
0.00000001
 43
0.00000001
 40
0.0
 40
0.0
 40
0.0
 40
0.0
 40
0.0624999999999998
 40
0.0624999999999998
 40
0.1249999999999996
 40
0.1249999999999996
 40
0.1874999999999994
 40
0.1874999999999994
 40
0.2499999999999992
 40
0.2499999999999992
 40
0.2812499999999986
 40
0.2812499999999986
 40
0.3124999999999979
 40
0.3124999999999979
 40
0.3749999999999976
 40
0.3749999999999976
 40
0.4062499999999977
 40
0.4062499999999977
 40
0.4374999999999978
 40
0.4374999999999978
 40
0.499999999999998
 40
0.499999999999998
 40
0.5624999999999982
 40
0.5624999999999982
 40
0.6249999999999986
 40
0.6249999999999986
 40
0.6874999999999988
 40
0.6874999999999988
 40
0.7187499999999989
 40
0.7187499999999989
 40
0.749999999999999
 40
0.749999999999999
 40
0.8124999999999993
 40
0.8124999999999993
 40
0.8749999999999996
 40
0.8749999999999996
 40
0.9374999999999999
 40
0.9374999999999999
 40
1.0
 40
1.0
 40
1.0
 40
1.0
 10
814.111069364162
 20
467.7631795979721
 30
0.0
 10
813.4850011839299
 20
467.6911911134651
 30
0.0
 10
812.8621595358375
 20
467.5732271258172
 30
0.0
 10
811.6490405903481
 20
467.2526945485628
 30
0.0
 10
811.058145599496
 20
467.0498358834477
 30
0.0
 10
809.9105587046603
 20
466.5507527110897
 30
0.0
 10
809.349295039098
 20
466.2509245281848
 30
0.0
 10
808.3033450905078
 20
465.5685978387526
 30
0.0
 10
807.8163669754019
 20
465.1843221020431
 30
0.0
 10
807.1407805980859
 20
464.5421710577664
 30
0.0
 10
806.9247665199952
 20
464.3171229683282
 30
0.0
 10
806.5119311496455
 20
463.8440351957012
 30
0.0
 10
806.3145992564845
 20
463.5950018760615
 30
0.0
 10
805.7663371135312
 20
462.8300655908726
 30
0.0
 10
805.4537092435982
 20
462.2916447602503
 30
0.0
 10
805.0680718170245
 20
461.4391559659992
 30
0.0
 10
804.9533755937705
 20
461.147533731759
 30
0.0
 10
804.7530037001412
 20
460.548642515448
 30
0.0
 10
804.6682915112875
 20
460.2437892828816
 30
0.0
 10
804.4640303731387
 20
459.3252326646376
 30
0.0
 10
804.3917671103794
 20
458.7027603100084
 30
0.0
 10
804.3901788280356
 20
457.4352135261656
 30
0.0
 10
804.46100338107
 20
456.8131941770251
 30
0.0
 10
804.7293852286846
 20
455.5913868312091
 30
0.0
 10
804.9306176357466
 20
454.9856845368279
 30
0.0
 10
805.4441115911765
 20
453.8431706220061
 30
0.0
 10
805.7567675730427
 20
453.302309592645
 30
0.0
 10
806.3053435909094
 20
452.5342719656279
 30
0.0
 10
806.5021502723528
 20
452.2851612726278
 30
0.0
 10
806.914128702376
 20
451.8115670399281
 30
0.0
 10
807.1301895542235
 20
451.5857202675221
 30
0.0
 10
807.8076625771035
 20
450.9400176832537
 30
0.0
 10
808.2982268478409
 20
450.5518216406596
 30
0.0
 10
809.3578753348946
 20
449.8608488590378
 30
0.0
 10
809.9100323454563
 20
449.5668643092452
 30
0.0
 10
811.0535256053886
 20
449.0692368321298
 30
0.0
 10
811.6448947558258
 20
448.8656730510849
 30
0.0
 10
812.8645104983657
 20
448.543330454796
 30
0.0
 10
813.4850011838079
 20
448.426034319051
 30
0.0
 10
814.1110693641618
 20
448.3540458355542
 30
0.0
  0
SPLINE
  5
144
330
1F
100
AcDbEntity
  8
0
  6
Continuous
 62
     7
370
    15
100
AcDbSpline
210
0.0
220
0.0
230
1.0
 70
     8
 71
     3
 72
    44
 73
    40
 74
     0
 42
0.00000001
 43
0.00000001
 40
0.0
 40
0.0
 40
0.0
 40
0.0
 40
0.0625000000000003
 40
0.0625000000000003
 40
0.1250000000000006
 40
0.1250000000000006
 40
0.1875000000000009
 40
0.1875000000000009
 40
0.2500000000000013
 40
0.2500000000000013
 40
0.2812500000000014
 40
0.2812500000000014
 40
0.3125000000000016
 40
0.3125000000000016
 40
0.3750000000000009
 40
0.3750000000000009
 40
0.4375000000000003
 40
0.4375000000000003
 40
0.4999999999999997
 40
0.4999999999999997
 40
0.5624999999999991
 40
0.5624999999999991
 40
0.5937499999999988
 40
0.5937499999999988
 40
0.6249999999999986
 40
0.6249999999999986
 40
0.687499999999998
 40
0.687499999999998
 40
0.7187499999999981
 40
0.7187499999999981
 40
0.7499999999999982
 40
0.7499999999999982
 40
0.8124999999999987
 40
0.8124999999999987
 40
0.8749999999999991
 40
0.8749999999999991
 40
0.9374999999999996
 40
0.9374999999999996
 40
1.0
 40
1.0
 40
1.0
 40
1.0
 10
659.2110693641621
 20
448.3540458355542
 30
0.0
 10
659.8367233670747
 20
448.4259866954079
 30
0.0
 10
660.4576281940516
 20
448.5433304470561
 30
0.0
 10
661.6772439411596
 20
448.865673041052
 30
0.0
 10
662.2686130937918
 20
449.0692368211518
 30
0.0
 10
663.4121063579705
 20
449.5668642967057
 30
0.0
 10
663.9642633705813
 20
449.8608488458876
 30
0.0
 10
665.0239118615998
 20
450.5518216265978
 30
0.0
 10
665.5144761349829
 20
450.9400176694553
 30
0.0
 10
666.1919491608752
 20
451.5857202540783
 30
0.0
 10
666.4080100136791
 20
451.8115670266545
 30
0.0
 10
666.8199884455265
 20
452.2851612597906
 30
0.0
 10
667.0167951278698
 20
452.5342719530875
 30
0.0
 10
667.5653711484468
 20
453.3023095814312
 30
0.0
 10
667.8780271318417
 20
453.8431706118278
 30
0.0
 10
668.3915210897951
 20
454.9856845290104
 30
0.0
 10
668.5927534978919
 20
455.5913868248528
 30
0.0
 10
668.8611353468883
 20
456.8131941737609
 30
0.0
 10
668.9319599002906
 20
457.4352135245035
 30
0.0
 10
668.9303716179423
 20
458.7027603116745
 30
0.0
 10
668.8581083548114
 20
459.3252326679086
 30
0.0
 10
668.6538472156143
 20
460.2437892884817
 30
0.0
 10
668.5691350263083
 20
460.5486425218594
 30
0.0
 10
668.3687631316936
 20
461.1475337394973
 30
0.0
 10
668.2540669078787
 20
461.439155974364
 30
0.0
 10
667.8684294794159
 20
462.2916447703824
 30
0.0
 10
667.5558016079586
 20
462.8300656020389
 30
0.0
 10
667.0075394623015
 20
463.5950018885532
 30
0.0
 10
666.8102075681938
 20
463.8440352085449
 30
0.0
 10
666.3973721960517
 20
464.3171229815681
 30
0.0
 10
666.1813581170251
 20
464.5421710711564
 30
0.0
 10
665.5057717367741
 20
465.18432211573
 30
0.0
 10
665.0187936195125
 20
465.5685978523974
 30
0.0
 10
663.9728436663362
 20
466.2509245414126
 30
0.0
 10
663.4115799985964
 20
466.5507527237077
 30
0.0
 10
662.2639930996611
 20
467.0498358944161
 30
0.0
 10
661.6730981067045
 20
467.2526945585567
 30
0.0
 10
660.4599791568698
 20
467.5732271334965
 30
0.0
 10
659.8367233670631
 20
467.6912387380231
 30
0.0
 10
659.211069364162
 20
467.7631795979721
 30
0.0
  0
LINE
  5
145
330
1F
100
AcDbEntity
  8
0
  6
Continuous
 62
     7
370
    15
100
AcDbLine
 10
881.1110633322
 20
458.0586127168
 30
0.0
 11
891.1110686966
 21
458.0586127168
 31
0.0
  0
LINE
  5
146
330
1F
100
AcDbEntity
  8
0
  6
Continuous
 62
     7
370
    15
100
AcDbLine
 10
881.1110633322
 20
583.0586127168
 30
0.0
 11
881.1110633322
 21
458.0586127168
 31
0.0
  0
LINE
  5
147
330
1F
100
AcDbEntity
  8
0
  6
Continuous
 62
     7
370
    15
100
AcDbLine
 10
891.1110686966
 20
583.0586127168
 30
0.0
 11
891.1110686966
 21
458.0586127168
 31
0.0
  0
LINE
  5
148
330
1F
100
AcDbEntity
  8
0
  6
Continuous
 62
     7
370
    15
100
AcDbLine
 10
881.1110633322
 20
458.0586127168
 30
0.0
 11
881.1110633322
 21
445.5586125305
 31
0.0
  0
LINE
  5
149
330
1F
100
AcDbEntity
  8
0
  6
Continuous
 62
     7
370
    15
100
AcDbLine
 10
891.1110686966
 20
458.0586127168
 30
0.0
 11
891.1110686966
 21
445.5586125305
 31
0.0
  0
SPLINE
  5
14A
330
1F
100
AcDbEntity
  8
0
  6
Continuous
 62
     7
370
    15
100
AcDbSpline
210
0.0
220
0.0
230
1.0
 70
     8
 71
     3
 72
    18
 73
    14
 74
     0
 42
0.00000001
 43
0.00000001
 40
0.0
 40
0.0
 40
0.0
 40
0.0
 40
0.2500000000000002
 40
0.2500000000000002
 40
0.5000000000000004
 40
0.5000000000000004
 40
0.7500000000000007
 40
0.7500000000000007
 40
0.8750000000000003
 40
0.8750000000000003
 40
0.9375000000000001
 40
0.9375000000000001
 40
1.0
 40
1.0
 40
1.0
 40
1.0
 10
659.2129384282848
 20
467.77730255124
 30
0.0
 10
659.2440500816173
 20
468.2483576081089
 30
0.0
 10
659.278956628861
 20
468.7749987056729
 30
0.0
 10
659.3562813128215
 20
469.9350677064195
 30
0.0
 10
659.3992220743576
 20
470.5762088020435
 30
0.0
 10
659.489149277542
 20
471.9100481414407
 30
0.0
 10
659.5364296710686
 20
472.6072423214743
 30
0.0
 10
659.6110804243134
 20
473.6999242200361
 30
0.0
 10
659.636309993932
 20
474.0679188902686
 30
0.0
 10
659.6744588704647
 20
474.6222759585733
 30
0.0
 10
659.6872377795514
 20
474.8076294193024
 30
0.0
 10
659.7129229297506
 20
475.179476728438
 30
0.0
 10
659.7259682780231
 20
475.3679417254791
 30
0.0
 10
659.7387459001361
 20
475.5522544188232
 30
0.0
  0
SPLINE
  5
14B
330
1F
100
AcDbEntity
  8
0
  6
Continuous
 62
     7
370
    15
100
AcDbSpline
210
0.0
220
0.0
230
1.0
 70
     8
 71
     3
 72
    58
 73
    54
 74
     0
 42
0.00000001
 43
0.00000001
 40
0.0
 40
0.0
 40
0.0
 40
0.0
 40
0.0156249999999996
 40
0.0156249999999996
 40
0.0312499999999992
 40
0.0312499999999992
 40
0.0624999999999985
 40
0.0624999999999985
 40
0.1249999999999977
 40
0.1249999999999977
 40
0.1562499999999977
 40
0.1562499999999977
 40
0.1874999999999976
 40
0.1874999999999976
 40
0.2499999999999983
 40
0.2499999999999983
 40
0.2812499999999986
 40
0.2812499999999986
 40
0.3124999999999989
 40
0.3124999999999989
 40
0.3749999999999989
 40
0.3749999999999989
 40
0.4062499999999989
 40
0.4062499999999989
 40
0.4374999999999989
 40
0.4374999999999989
 40
0.4999999999999991
 40
0.4999999999999991
 40
0.5624999999999992
 40
0.5624999999999992
 40
0.5937499999999993
 40
0.5937499999999993
 40
0.6249999999999993
 40
0.6249999999999993
 40
0.6874999999999993
 40
0.6874999999999993
 40
0.7187499999999993
 40
0.7187499999999993
 40
0.7499999999999993
 40
0.7499999999999993
 40
0.8124999999999993
 40
0.8124999999999993
 40
0.8437499999999993
 40
0.8437499999999993
 40
0.8749999999999993
 40
0.8749999999999993
 40
0.9374999999999993
 40
0.9374999999999993
 40
0.9687499999999997
 40
0.9687499999999997
 40
0.9843749999999998
 40
0.9843749999999998
 40
1.0
 40
1.0
 40
1.0
 40
1.0
 10
659.7387459001361
 20
475.5522544188216
 30
0.0
 10
660.015567276722
 20
475.5136801497661
 30
0.0
 10
660.2930623603005
 20
475.4789536460612
 30
0.0
 10
660.8457168696634
 20
475.3961609179296
 30
0.0
 10
661.1210436743654
 20
475.3490506503306
 30
0.0
 10
661.9440771935547
 20
475.1908891477257
 30
0.0
 10
662.4900215682502
 20
475.0626618504691
 30
0.0
 10
664.1002936809512
 20
474.615496253431
 30
0.0
 10
665.1413796648186
 20
474.2342592695042
 30
0.0
 10
666.6531781205641
 20
473.5346702240922
 30
0.0
 10
667.149295940988
 20
473.2797136160738
 30
0.0
 10
668.1216039493671
 20
472.7258685108373
 30
0.0
 10
668.5921373111098
 20
472.4302461761226
 30
0.0
 10
669.9572088459518
 20
471.4876789178796
 30
0.0
 10
670.8056562559043
 20
470.7855578240729
 30
0.0
 10
671.9824502628269
 20
469.6175997883557
 30
0.0
 10
672.3586490145518
 20
469.2090476136885
 30
0.0
 10
673.0770304957945
 20
468.351222006875
 30
0.0
 10
673.4151409955819
 20
467.9065426344645
 30
0.0
 10
674.3572679614033
 20
466.5380736570341
 30
0.0
 10
674.8938061280152
 20
465.5749873773303
 30
0.0
 10
675.556232276904
 20
464.0513903635481
 30
0.0
 10
675.7537168686881
 20
463.528688864644
 30
0.0
 10
676.0958481212787
 20
462.4622614301684
 30
0.0
 10
676.2387756281177
 20
461.9244495317307
 30
0.0
 10
676.5841235854407
 20
460.2973794057128
 30
0.0
 10
676.7041291627597
 20
459.1946533797259
 30
0.0
 10
676.7061138755224
 20
456.9503043178866
 30
0.0
 10
676.587966191014
 20
455.8485361992232
 30
0.0
 10
676.2467753380937
 20
454.2253991135286
 30
0.0
 10
676.1054580018853
 20
453.6892344812135
 30
0.0
 10
675.7672651946793
 20
452.6267352902134
 30
0.0
 10
675.569718405722
 20
452.0997549672859
 30
0.0
 10
674.9075443379236
 20
450.5682923672574
 30
0.0
 10
674.370525170323
 20
449.6008924297027
 30
0.0
 10
673.4272228310186
 20
448.2270265304217
 30
0.0
 10
673.0879587831813
 20
447.7799749360352
 30
0.0
 10
672.3717056725632
 20
446.9228772881531
 30
0.0
 10
671.9958638503938
 20
446.5137267717155
 30
0.0
 10
670.8175284610245
 20
445.3419123469035
 30
0.0
 10
669.9645968008385
 20
444.6344784074223
 30
0.0
 10
668.5855098066166
 20
443.682488013116
 30
0.0
 10
668.1106952691284
 20
443.3848613205103
 30
0.0
 10
667.1451079557166
 20
442.8354125136949
 30
0.0
 10
666.6524732840973
 20
442.5822667577324
 30
0.0
 10
665.1461676258069
 20
441.8851065065829
 30
0.0
 10
664.1032906595195
 20
441.5024535175558
 30
0.0
 10
662.4857344514061
 20
441.0534271641701
 30
0.0
 10
661.9421896966835
 20
440.9259423412278
 30
0.0
 10
661.1203235170649
 20
440.7680520518949
 30
0.0
 10
660.8452734801932
 20
440.7209940749941
 30
0.0
 10
660.2929379894433
 20
440.6382571764799
 30
0.0
 10
660.0154653527484
 20
440.6035310809452
 30
0.0
 10
659.7387459001361
 20
440.5649710147046
 30
0.0
  0
SPLINE
  5
14C
330
1F
100
AcDbEntity
  8
0
  6
Continuous
 62
     7
370
    15
100
AcDbSpline
210
0.0
220
0.0
230
1.0
 70
     8
 71
     3
 72
    18
 73
    14
 74
     0
 42
0.00000001
 43
0.00000001
 40
0.0
 40
0.0
 40
0.0
 40
0.0
 40
0.2500000000000007
 40
0.2500000000000007
 40
0.5000000000000014
 40
0.5000000000000014
 40
0.7500000000000022
 40
0.7500000000000022
 40
0.8750000000000019
 40
0.8750000000000019
 40
0.9375000000000009
 40
0.9375000000000009
 40
1.0
 40
1.0
 40
1.0
 40
1.0
 10
659.2129384282848
 20
448.3399228822862
 30
0.0
 10
659.2440501799606
 20
447.8688663364205
 30
0.0
 10
659.2789567099256
 20
447.342225519147
 30
0.0
 10
659.3562809413484
 20
446.1821632926879
 30
0.0
 10
659.3992218453029
 20
445.5410200329538
 30
0.0
 10
659.4891493743532
 20
444.2071758520975
 30
0.0
 10
659.5364293728702
 20
443.5099875783714
 30
0.0
 10
659.6110783743878
 20
442.4173311680038
 30
0.0
 10
659.6363091883893
 20
442.0493182676561
 30
0.0
 10
659.6744584968085
 20
441.4949548956262
 30
0.0
 10
659.6872375236667
 20
441.3095997217767
 30
0.0
 10
659.7129228552354
 20
440.9377497809601
 30
0.0
 10
659.7259683228016
 20
440.7492830609207
 30
0.0
 10
659.7387459001363
 20
440.5649710147051
 30
0.0
  0
SPLINE
  5
14D
330
1F
100
AcDbEntity
  8
0
  6
Continuous
 62
     7
370
    15
100
AcDbSpline
210
0.0
220
0.0
230
1.0
 70
     8
 71
     3
 72
    18
 73
    14
 74
     0
 42
0.00000001
 43
0.00000001
 40
0.0
 40
0.0
 40
0.0
 40
0.0
 40
0.2500000000000001
 40
0.2500000000000001
 40
0.5000000000000001
 40
0.5000000000000001
 40
0.7500000000000002
 40
0.7500000000000002
 40
0.8750000000000003
 40
0.8750000000000003
 40
0.9375000000000002
 40
0.9375000000000002
 40
1.0
 40
1.0
 40
1.0
 40
1.0
 10
814.1092003000391
 20
448.3399228822862
 30
0.0
 10
814.0780886467066
 20
447.8688678254173
 30
0.0
 10
814.0431820994629
 20
447.3422267278534
 30
0.0
 10
813.9658574155025
 20
446.1821577271069
 30
0.0
 10
813.9229166539668
 20
445.5410166314829
 30
0.0
 10
813.8329894507825
 20
444.2071772920858
 30
0.0
 10
813.7857090572554
 20
443.5099831120522
 30
0.0
 10
813.7110583040107
 20
442.4173012134906
 30
0.0
 10
813.6858287343822
 20
442.0493065432589
 30
0.0
 10
813.6476798578465
 20
441.4949494749543
 30
0.0
 10
813.6349009487707
 20
441.3095960142245
 30
0.0
 10
813.6092157985695
 20
440.9377487050891
 30
0.0
 10
813.5961704504166
 20
440.7492837080396
 30
0.0
 10
813.5833928281879
 20
440.5649710147036
 30
0.0
  0
SPLINE
  5
14E
330
1F
100
AcDbEntity
  8
0
  6
Continuous
 62
     7
370
    15
100
AcDbSpline
210
0.0
220
0.0
230
1.0
 70
     8
 71
     3
 72
    58
 73
    54
 74
     0
 42
0.00000001
 43
0.00000001
 40
0.0
 40
0.0
 40
0.0
 40
0.0
 40
0.0156250000000003
 40
0.0156250000000003
 40
0.0312500000000005
 40
0.0312500000000005
 40
0.062500000000001
 40
0.062500000000001
 40
0.1250000000000013
 40
0.1250000000000013
 40
0.1562500000000011
 40
0.1562500000000011
 40
0.1875000000000009
 40
0.1875000000000009
 40
0.2500000000000012
 40
0.2500000000000012
 40
0.2812500000000013
 40
0.2812500000000013
 40
0.3125000000000015
 40
0.3125000000000015
 40
0.3750000000000013
 40
0.3750000000000013
 40
0.4062500000000014
 40
0.4062500000000014
 40
0.4375000000000014
 40
0.4375000000000014
 40
0.5000000000000013
 40
0.5000000000000013
 40
0.5625000000000014
 40
0.5625000000000014
 40
0.5937500000000016
 40
0.5937500000000016
 40
0.6250000000000016
 40
0.6250000000000016
 40
0.6875000000000016
 40
0.6875000000000016
 40
0.7187500000000016
 40
0.7187500000000016
 40
0.7500000000000014
 40
0.7500000000000014
 40
0.8125000000000019
 40
0.8125000000000019
 40
0.8437500000000017
 40
0.8437500000000017
 40
0.8750000000000016
 40
0.8750000000000016
 40
0.9375000000000012
 40
0.9375000000000012
 40
0.9687500000000006
 40
0.9687500000000006
 40
0.9843750000000003
 40
0.9843750000000003
 40
1.0
 40
1.0
 40
1.0
 40
1.0
 10
813.5833928281878
 20
440.5649710147046
 30
0.0
 10
813.3065796003164
 20
440.60354414826
 30
0.0
 10
813.029049721691
 20
440.638276766931
 30
0.0
 10
812.4765879782309
 20
440.7210386420062
 30
0.0
 10
812.2014862265862
 20
440.7681100465459
 30
0.0
 10
811.3794976574538
 20
440.9260394805899
 30
0.0
 10
810.835914863211
 20
441.0535489145729
 30
0.0
 10
809.218369058958
 20
441.5026147249216
 30
0.0
 10
808.1755277084089
 20
441.8852834465001
 30
0.0
 10
806.6692531206689
 20
442.582471739116
 30
0.0
 10
806.1766286858681
 20
442.8356265790376
 30
0.0
 10
805.2110617239307
 20
443.3850932859021
 30
0.0
 10
804.7362562501295
 20
443.6827296979712
 30
0.0
 10
803.357209254099
 20
444.6347392159893
 30
0.0
 10
802.504302647221
 20
445.3421841392961
 30
0.0
 10
801.3260035692904
 20
446.5140136508066
 30
0.0
 10
800.9501736377532
 20
446.9231689627102
 30
0.0
 10
800.2339440795722
 20
447.7802759509564
 30
0.0
 10
799.8946945757995
 20
448.2273283138051
 30
0.0
 10
798.9514322778824
 20
449.6011975916905
 30
0.0
 10
798.4144379447176
 20
450.5685987390567
 30
0.0
 10
797.7522994656373
 20
452.1000622215835
 30
0.0
 10
797.5547646399967
 20
452.6270422086636
 30
0.0
 10
797.2165964370982
 20
453.6895345052097
 30
0.0
 10
797.0752907254184
 20
454.225695570403
 30
0.0
 10
796.7341332313672
 20
455.8488216867301
 30
0.0
 10
796.6160057920841
 20
456.9505886269467
 30
0.0
 10
796.6180291082935
 20
459.1949088848758
 30
0.0
 10
796.7380502547102
 20
460.2976211188742
 30
0.0
 10
797.0834182275248
 20
461.9246711024148
 30
0.0
 10
797.2263518316817
 20
462.4624763805776
 30
0.0
 10
797.56849435919
 20
463.5288907247991
 30
0.0
 10
797.7659825790972
 20
464.0515818710543
 30
0.0
 10
798.4284193400047
 20
465.5751540481378
 30
0.0
 10
798.9649622417645
 20
466.5382250675989
 30
0.0
 10
799.9070936226843
 20
467.9066726452814
 30
0.0
 10
800.2452059487933
 20
468.3513460457305
 30
0.0
 10
800.9635863830893
 20
469.2091556903639
 30
0.0
 10
801.3397841622478
 20
469.6177004215602
 30
0.0
 10
802.5165741245146
 20
470.7856374759688
 30
0.0
 10
803.3650173521083
 20
471.4877463610654
 30
0.0
 10
804.7300808061698
 20
472.4302974697331
 30
0.0
 10
805.2006111648112
 20
472.7259147917748
 30
0.0
 10
806.1729125650467
 20
473.279750592262
 30
0.0
 10
806.6690255891576
 20
473.5347023289199
 30
0.0
 10
808.1808109111104
 20
474.2342791927628
 30
0.0
 10
809.22188742431
 20
474.6155098879526
 30
0.0
 10
810.8321443848222
 20
475.0626684773071
 30
0.0
 10
811.3780834512003
 20
475.1908938248857
 30
0.0
 10
812.201108840438
 20
475.3490530669026
 30
0.0
 10
812.4764329157067
 20
475.3961626920546
 30
0.0
 10
813.0290819266636
 20
475.4789543611153
 30
0.0
 10
813.3065742258349
 20
475.5136805363476
 30
0.0
 10
813.5833928281878
 20
475.5522544188216
 30
0.0
  0
SPLINE
  5
14F
330
1F
100
AcDbEntity
  8
0
  6
Continuous
 62
     7
370
    15
100
AcDbSpline
210
0.0
220
0.0
230
1.0
 70
     8
 71
     3
 72
    18
 73
    14
 74
     0
 42
0.00000001
 43
0.00000001
 40
0.0
 40
0.0
 40
0.0
 40
0.0
 40
0.2500000000000002
 40
0.2500000000000002
 40
0.5000000000000003
 40
0.5000000000000003
 40
0.7500000000000004
 40
0.7500000000000004
 40
0.8750000000000004
 40
0.8750000000000004
 40
0.9375000000000003
 40
0.9375000000000003
 40
1.0
 40
1.0
 40
1.0
 40
1.0
 10
814.1092003000392
 20
467.77730255124
 30
0.0
 10
814.0780885483633
 20
468.2483590971057
 30
0.0
 10
814.0431820183983
 20
468.7749999143792
 30
0.0
 10
813.9658577869757
 20
469.9350621408384
 30
0.0
 10
813.9229168830211
 20
470.5762054005725
 30
0.0
 10
813.832989353971
 20
471.9100495814289
 30
0.0
 10
813.7857093554535
 20
472.6072378551551
 30
0.0
 10
813.7110603539357
 20
473.6998942655225
 30
0.0
 10
813.6858295399454
 20
474.0679071658711
 30
0.0
 10
813.6476802315301
 20
474.6222705379012
 30
0.0
 10
813.634901204656
 20
474.8076257117496
 30
0.0
 10
813.6092158730861
 20
475.1794756525662
 30
0.0
 10
813.5961704056003
 20
475.3679423726111
 30
0.0
 10
813.5833928281878
 20
475.5522544188214
 30
0.0
  0
SPLINE
  5
150
330
1F
100
AcDbEntity
  8
0
  6
Continuous
 62
     7
370
    15
100
AcDbSpline
210
0.0
220
0.0
230
1.0
 70
     8
 71
     3
 72
    16
 73
    12
 74
     0
 42
0.00000001
 43
0.00000001
 40
0.0
 40
0.0
 40
0.0
 40
0.0
 40
0.2499999999999994
 40
0.2499999999999994
 40
0.3749999999999995
 40
0.3749999999999995
 40
0.4999999999999997
 40
0.4999999999999997
 40
0.7499999999999998
 40
0.7499999999999998
 40
1.0
 40
1.0
 40
1.0
 40
1.0
 10
641.8107926117982
 20
475.5522544188216
 30
0.0
 10
641.6342269711579
 20
474.8158418074054
 30
0.0
 10
641.4750669575219
 20
474.089550499181
 30
0.0
 10
641.2603261745529
 20
473.0154992443817
 30
0.0
 10
641.192753892327
 20
472.6600739018714
 30
0.0
 10
641.0653451610746
 20
471.954799904144
 30
0.0
 10
641.0063968910339
 20
471.6097927388324
 30
0.0
 10
640.843665026218
 20
470.6058295606674
 30
0.0
 10
640.7532509321516
 20
469.9738063694257
 30
0.0
 10
640.6012786275874
 20
468.7891445958621
 30
0.0
 10
640.5417860503361
 20
468.2528312805665
 30
0.0
 10
640.4943054255758
 20
467.77730255124
 30
0.0
  0
LINE
  5
151
330
1F
100
AcDbEntity
  8
0
  6
Continuous
 62
     7
370
    15
100
AcDbLine
 10
641.8107899734
 20
475.5522537207
 30
0.0
 11
659.7387495347
 21
475.5522537207
 31
0.0
  0
SPLINE
  5
152
330
1F
100
AcDbEntity
  8
0
  6
Continuous
 62
     7
370
    15
100
AcDbSpline
210
0.0
220
0.0
230
1.0
 70
     8
 71
     3
 72
    16
 73
    12
 74
     0
 42
0.00000001
 43
0.00000001
 40
0.0
 40
0.0
 40
0.0
 40
0.0
 40
0.2500000000000007
 40
0.2500000000000007
 40
0.3750000000000006
 40
0.3750000000000006
 40
0.5000000000000006
 40
0.5000000000000006
 40
0.7500000000000002
 40
0.7500000000000002
 40
1.0
 40
1.0
 40
1.0
 40
1.0
 10
831.5113461165258
 20
440.5649710147046
 30
0.0
 10
831.687911757166
 20
441.3013836261208
 30
0.0
 10
831.8470717708022
 20
442.0276749343452
 30
0.0
 10
832.0618125537712
 20
443.1017261891446
 30
0.0
 10
832.1293848359969
 20
443.4571515316548
 30
0.0
 10
832.2567935672494
 20
444.1624255293822
 30
0.0
 10
832.31574183729
 20
444.5074326946938
 30
0.0
 10
832.4784737021059
 20
445.5113958728588
 30
0.0
 10
832.5688877961724
 20
446.1434190641004
 30
0.0
 10
832.7208601007368
 20
447.3280808376641
 30
0.0
 10
832.7803526779879
 20
447.8643941529597
 30
0.0
 10
832.8278333027481
 20
448.3399228822862
 30
0.0
  0
LINE
  5
153
330
1F
100
AcDbEntity
  8
0
  6
Continuous
 62
     7
370
    15
100
AcDbLine
 10
831.511348755
 20
440.5649717128
 30
0.0
 11
813.5833891936
 21
440.5649717128
 31
0.0
  0
SPLINE
  5
154
330
1F
100
AcDbEntity
  8
0
  6
Continuous
 62
     7
370
    15
100
AcDbSpline
210
0.0
220
0.0
230
1.0
 70
     8
 71
     3
 72
    10
 73
     6
 74
     0
 42
0.00000001
 43
0.00000001
 40
0.0
 40
0.0
 40
0.0
 40
0.0
 40
0.5
 40
0.5
 40
1.0
 40
1.0
 40
1.0
 40
1.0
 10
637.9701457585942
 20
470.3225475616646
 30
0.0
 10
638.0835034750884
 20
471.2347652047054
 30
0.0
 10
638.2155699865658
 20
472.1915459917512
 30
0.0
 10
638.5120831701408
 20
474.1220077422678
 30
0.0
 10
638.6771285885445
 20
475.1018679304776
 30
0.0
 10
638.8605507221446
 20
476.096380132727
 30
0.0
  0
LWPOLYLINE
  5
155
330
1F
100
AcDbEntity
  8
0
  6
Continuous
 62
     7
370
    15
100
AcDbPolyline
 90
        9
 70
   128
 43
0.0
 10
638.8605537721
 20
476.0963807976
 10
638.9172377892
 20
476.0859257704
 10
639.0851217218
 20
476.0549611574
 10
639.357753367
 20
476.0046790516
 10
639.7246572085
 20
475.9370091533
 10
640.1717292973
 20
475.8545535779
 10
640.6817811438
 20
475.7604825473
 10
641.2352326222
 20
475.6584077304
 10
641.8107899734
 20
475.5522537207
  0
SPLINE
  5
156
330
1F
100
AcDbEntity
  8
0
  6
Continuous
 62
     7
370
    15
100
AcDbSpline
210
0.0
220
0.0
230
1.0
 70
     8
 71
     3
 72
    10
 73
     6
 74
     0
 42
0.00000001
 43
0.00000001
 40
0.0
 40
0.0
 40
0.0
 40
0.0
 40
0.5
 40
0.5
 40
1.0
 40
1.0
 40
1.0
 40
1.0
 10
835.3519929697297
 20
445.7946778718616
 30
0.0
 10
835.2386352532357
 20
444.8824602288208
 30
0.0
 10
835.1065687417581
 20
443.9256794417749
 30
0.0
 10
834.8100555581831
 20
441.9952176912585
 30
0.0
 10
834.6450101397794
 20
441.0153575030487
 30
0.0
 10
834.4615880061795
 20
440.0208453007992
 30
0.0
  0
LWPOLYLINE
  5
157
330
1F
100
AcDbEntity
  8
0
  6
Continuous
 62
     7
370
    15
100
AcDbPolyline
 90
        9
 70
   128
 43
0.0
 10
834.4615849563
 20
440.0208446359
 10
834.4049009391
 20
440.0312996632
 10
834.2370170065
 20
440.0622642761
 10
833.9643853613
 20
440.1125463819
 10
833.5974815198
 20
440.1802162802
 10
833.1504094311
 20
440.2626718557
 10
832.6403575846
 20
440.3567428863
 10
832.0869061061
 20
440.4588177031
 10
831.511348755
 20
440.5649717128
  0
SPLINE
  5
158
330
1F
100
AcDbEntity
  8
0
  6
Continuous
 62
     7
370
    15
100
AcDbSpline
210
0.0
220
0.0
230
1.0
 70
     8
 71
     3
 72
    10
 73
     6
 74
     0
 42
0.00000001
 43
0.00000001
 40
0.0
 40
0.0
 40
0.0
 40
0.0
 40
0.5
 40
0.5
 40
1.0
 40
1.0
 40
1.0
 40
1.0
 10
638.8605507221446
 20
440.0208453007992
 30
0.0
 10
638.6771610310014
 20
441.0151816005079
 30
0.0
 10
638.5121101624081
 20
441.995042904453
 30
0.0
 10
638.2155474414803
 20
443.9258252750267
 30
0.0
 10
638.0834825714539
 20
444.8826284455481
 30
0.0
 10
637.9701457585942
 20
445.7946778718616
 30
0.0
  0
SPLINE
  5
159
330
1F
100
AcDbEntity
  8
0
  6
Continuous
 62
     7
370
    15
100
AcDbSpline
210
0.0
220
0.0
230
1.0
 70
     8
 71
     3
 72
    16
 73
    12
 74
     0
 42
0.00000001
 43
0.00000001
 40
0.0
 40
0.0
 40
0.0
 40
0.0
 40
0.2499999999999997
 40
0.2499999999999997
 40
0.4999999999999994
 40
0.4999999999999994
 40
0.6249999999999994
 40
0.6249999999999994
 40
0.7499999999999993
 40
0.7499999999999993
 40
1.0
 40
1.0
 40
1.0
 40
1.0
 10
640.4943054255758
 20
448.3399228822862
 30
0.0
 10
640.541787059818
 20
447.8643840427791
 30
0.0
 10
640.601305898721
 20
447.3278579660291
 30
0.0
 10
640.7532558192823
 20
446.143391256273
 30
0.0
 10
640.8436445082447
 20
445.5115569613538
 30
0.0
 10
641.0062938450353
 20
444.508051195872
 30
0.0
 10
641.0651462409271
 20
444.1635597479228
 30
0.0
 10
641.1926137977213
 20
443.4578940250622
 30
0.0
 10
641.260213769812
 20
443.1023027356036
 30
0.0
 10
641.4750273310136
 20
442.0278444755607
 30
0.0
 10
641.6342225937391
 20
441.3014018832772
 30
0.0
 10
641.8107926117982
 20
440.5649710147046
 30
0.0
  0
LWPOLYLINE
  5
15A
330
1F
100
AcDbEntity
  8
0
  6
Continuous
 62
     7
370
    15
100
AcDbPolyline
 90
        9
 70
   128
 43
0.0
 10
638.8605537721
 20
440.0208446359
 10
638.9172377892
 20
440.0312996632
 10
639.0851217218
 20
440.0622642761
 10
639.357753367
 20
440.1125463819
 10
639.7246572085
 20
440.1802162802
 10
640.1717292973
 20
440.2626718557
 10
640.6817811438
 20
440.3567428863
 10
641.2352326222
 20
440.4588177031
 10
641.8107899734
 20
440.5649717128
  0
LINE
  5
15B
330
1F
100
AcDbEntity
  8
0
  6
Continuous
 62
     7
370
    15
100
AcDbLine
 10
659.7387495347
 20
440.5649717128
 30
0.0
 11
641.8107899734
 21
440.5649717128
 31
0.0
  0
SPLINE
  5
15C
330
1F
100
AcDbEntity
  8
0
  6
Continuous
 62
     7
370
    15
100
AcDbSpline
210
0.0
220
0.0
230
1.0
 70
     8
 71
     3
 72
    10
 73
     6
 74
     0
 42
0.00000001
 43
0.00000001
 40
0.0
 40
0.0
 40
0.0
 40
0.0
 40
0.5000000000000004
 40
0.5000000000000004
 40
1.0
 40
1.0
 40
1.0
 40
1.0
 10
834.4615880061795
 20
476.096380132727
 30
0.0
 10
834.6449776973225
 20
475.1020438330183
 30
0.0
 10
834.8100285659158
 20
474.1221825290732
 30
0.0
 10
835.1065912868436
 20
472.1914001584995
 30
0.0
 10
835.23865615687
 20
471.2345969879781
 30
0.0
 10
835.3519929697297
 20
470.3225475616646
 30
0.0
  0
SPLINE
  5
15D
330
1F
100
AcDbEntity
  8
0
  6
Continuous
 62
     7
370
    15
100
AcDbSpline
210
0.0
220
0.0
230
1.0
 70
     8
 71
     3
 72
    16
 73
    12
 74
     0
 42
0.00000001
 43
0.00000001
 40
0.0
 40
0.0
 40
0.0
 40
0.0
 40
0.2499999999999996
 40
0.2499999999999996
 40
0.4999999999999991
 40
0.4999999999999991
 40
0.6249999999999992
 40
0.6249999999999992
 40
0.7499999999999993
 40
0.7499999999999993
 40
1.0
 40
1.0
 40
1.0
 40
1.0
 10
832.8278333027481
 20
467.77730255124
 30
0.0
 10
832.780351668506
 20
468.2528413907471
 30
0.0
 10
832.720832829603
 20
468.7893674674971
 30
0.0
 10
832.5688829090416
 20
469.9738341772533
 30
0.0
 10
832.4784942200793
 20
470.6056684721724
 30
0.0
 10
832.3158448832888
 20
471.6091742376541
 30
0.0
 10
832.2569924873968
 20
471.9536656856034
 30
0.0
 10
832.1295249306027
 20
472.6593314084641
 30
0.0
 10
832.0619249585119
 20
473.0149226979226
 30
0.0
 10
831.8471113973104
 20
474.0893809579655
 30
0.0
 10
831.687916134585
 20
474.815823550249
 30
0.0
 10
831.5113461165258
 20
475.5522544188216
 30
0.0
  0
LWPOLYLINE
  5
15E
330
1F
100
AcDbEntity
  8
0
  6
Continuous
 62
     7
370
    15
100
AcDbPolyline
 90
        9
 70
   128
 43
0.0
 10
834.4615849563
 20
476.0963807976
 10
834.4049009391
 20
476.0859257704
 10
834.2370170065
 20
476.0549611574
 10
833.9643853613
 20
476.0046790516
 10
833.5974815198
 20
475.9370091533
 10
833.1504094311
 20
475.8545535779
 10
832.6403575846
 20
475.7604825473
 10
832.0869061061
 20
475.6584077304
 10
831.511348755
 20
475.5522537207
  0
LINE
  5
15F
330
1F
100
AcDbEntity
  8
0
  6
Continuous
 62
     7
370
    15
100
AcDbLine
 10
813.5833891936
 20
475.5522537207
 30
0.0
 11
831.511348755
 21
475.5522537207
 31
0.0
  0
ARC
  5
160
330
1F
100
AcDbEntity
  8
0
  6
Continuous
 62
     7
370
    15
100
AcDbCircle
 10
736.6610693642
 20
458.0586127168
 30
0.0
 40
96.45000000000003
100
AcDbArc
 50
10.4498737771
 51
169.5501262229
  0
ARC
  5
161
330
1F
100
AcDbEntity
  8
0
  6
Continuous
 62
     7
370
    15
100
AcDbCircle
 10
736.6610693642
 20
458.0586127168
 30
0.0
 40
96.45000000000003
100
AcDbArc
 50
190.4498737771
 51
349.5501262229
  0
ARC
  5
162
330
1F
100
AcDbEntity
  8
0
  6
Continuous
 62
     7
370
    15
100
AcDbCircle
 10
736.6610693642
 20
458.0586127168
 30
0.0
 40
99.45000000000006
100
AcDbArc
 50
10.4498737771
 51
169.5501262229
  0
ARC
  5
163
330
1F
100
AcDbEntity
  8
0
  6
Continuous
 62
     7
370
    15
100
AcDbCircle
 10
736.6610693642
 20
458.0586127168
 30
0.0
 40
99.45000000000005
100
AcDbArc
 50
190.4498737771
 51
349.5501262229
  0
LINE
  5
164
330
1F
100
AcDbEntity
  8
0
  6
Continuous
 62
     7
370
    15
100
AcDbLine
 10
868.6110752531
 20
510.0586137896
 30
0.0
 11
864.6110671469
 21
510.0586137896
 31
0.0
  0
LINE
  5
165
330
1F
100
AcDbEntity
  8
0
  6
Continuous
 62
     7
370
    15
100
AcDbLine
 10
862.6110630938
 20
512.0586141175
 30
0.0
 11
870.6110644051
 21
512.0586141175
 31
0.0
  0
CIRCLE
  5
166
330
1F
100
AcDbEntity
  8
0
  6
Continuous
 62
     7
370
    15
100
AcDbCircle
 10
736.6610693642
 20
458.0586127168
 30
0.0
 40
100.5
  0
CIRCLE
  5
167
330
1F
100
AcDbEntity
  8
0
  6
Continuous
 62
     7
370
    15
100
AcDbCircle
 10
736.6610693642
 20
458.0586127168
 30
0.0
 40
99.99999999999989
  0
CIRCLE
  5
168
330
1F
100
AcDbEntity
  8
0
  6
Continuous
 62
     7
370
    15
100
AcDbCircle
 10
736.6610693642
 20
458.0586127168
 30
0.0
 40
127.0
  0
CIRCLE
  5
169
330
1F
100
AcDbEntity
  8
0
  6
Continuous
 62
     7
370
    15
100
AcDbCircle
 10
736.6610693642
 20
578.0586127168
 30
0.0
 40
5.499999999999886
  0
CIRCLE
  5
16A
330
1F
100
AcDbEntity
  8
0
  6
Continuous
 62
     7
370
    15
100
AcDbCircle
 10
632.73802091
 20
398.0586127168
 30
0.0
 40
5.5
  0
CIRCLE
  5
16B
330
1F
100
AcDbEntity
  8
0
  6
Continuous
 62
     7
370
    15
100
AcDbCircle
 10
632.73802091
 20
518.0586127168
 30
0.0
 40
5.500000000000114
  0
CIRCLE
  5
16C
330
1F
100
AcDbEntity
  8
0
  6
Continuous
 62
     7
370
    15
100
AcDbCircle
 10
840.5841178183
 20
398.0586127168
 30
0.0
 40
5.500000000000114
  0
CIRCLE
  5
16D
330
1F
100
AcDbEntity
  8
0
  6
Continuous
 62
     7
370
    15
100
AcDbCircle
 10
736.6610693642
 20
338.0586127168
 30
0.0
 40
5.5
  0
CIRCLE
  5
16E
330
1F
100
AcDbEntity
  8
0
  6
Continuous
 62
     7
370
    15
100
AcDbCircle
 10
840.5841178183
 20
518.0586127168
 30
0.0
 40
5.500000000000114
  0
LINE
  5
16F
330
1F
100
AcDbEntity
  8
0
  6
Continuous
 62
     7
370
    15
100
AcDbLine
 10
868.7368112513
 20
426.0586111968
 30
0.0
 11
871.6610747286
 21
426.0586111968
 31
0.0
  0
CIRCLE
  5
170
330
1F
100
AcDbEntity
  8
0
  6
Continuous
 62
     7
370
    15
100
AcDbCircle
 10
736.6610693642
 20
578.0586127168
 30
0.0
 40
4.0
  0
CIRCLE
  5
171
330
1F
100
AcDbEntity
  8
0
  6
Continuous
 62
     7
370
    15
100
AcDbCircle
 10
840.5841178183
 20
518.0586127168
 30
0.0
 40
4.0
  0
LINE
  5
172
330
1F
100
AcDbEntity
  8
0
  6
Continuous
 62
     7
370
    15
100
AcDbLine
 10
871.6610747286
 20
490.0586142367
 30
0.0
 11
868.7368112513
 21
490.0586142367
 31
0.0
  0
ARC
  5
173
330
1F
100
AcDbEntity
  8
0
  6
Continuous
 62
     7
370
    15
100
AcDbCircle
 10
764.6600165259
 20
322.9288271111
 30
0.0
 40
7.999999999999955
100
AcDbArc
 50
101.7060633836
 51
179.0704382906
  0
ARC
  5
174
330
1F
100
AcDbEntity
  8
0
  6
Continuous
 62
     7
370
    15
100
AcDbCircle
 10
601.7425754502
 20
487.0586127168
 30
0.0
 40
8.00000000000011
100
AcDbArc
 50
270.0
 51
347.869154499
  0
CIRCLE
  5
175
330
1F
100
AcDbEntity
  8
0
  6
Continuous
 62
     7
370
    15
100
AcDbCircle
 10
632.73802091
 20
398.0586127168
 30
0.0
 40
4.0
  0
ARC
  5
176
330
1F
100
AcDbEntity
  8
0
  6
Continuous
 62
     7
370
    15
100
AcDbCircle
 10
736.6610693642
 20
458.0586127168
 30
0.0
 40
130.0
100
AcDbArc
 50
16.8492796228
 51
78.2939366164
  0
ARC
  5
177
330
1F
100
AcDbEntity
  8
0
  6
Continuous
 62
     7
370
    15
100
AcDbCircle
 10
736.6610693642
 20
458.0586127168
 30
0.0
 40
130.0
100
AcDbArc
 50
281.7060633836
 51
343.1507203772
  0
ARC
  5
178
330
1F
100
AcDbEntity
  8
0
  6
Continuous
 62
     7
370
    15
100
AcDbCircle
 10
764.6600165259
 20
593.1883983224
 30
0.0
 40
7.999999999999987
100
AcDbArc
 50
180.9295617094
 51
258.2939366164
  0
ARC
  5
179
330
1F
100
AcDbEntity
  8
0
  6
Continuous
 62
     7
370
    15
100
AcDbCircle
 10
601.7425754502
 20
429.0586127168
 30
0.0
 40
8.000000000000135
100
AcDbArc
 50
12.130845501
 51
90.0
  0
ARC
  5
17A
330
1F
100
AcDbEntity
  8
0
  6
Continuous
 62
     7
370
    15
100
AcDbCircle
 10
708.6621222024
 20
322.9288271111
 30
0.0
 40
8.0000000000001
100
AcDbArc
 50
0.9295617094
 51
78.2939366164
  0
LINE
  5
17B
330
1F
100
AcDbEntity
  8
0
  6
Continuous
 62
     7
370
    15
100
AcDbLine
 10
601.6610639997
 20
479.0586124336
 30
0.0
 11
601.6610639997
 21
437.0586129999
 31
0.0
  0
CIRCLE
  5
17C
330
1F
100
AcDbEntity
  8
0
  6
Continuous
 62
     7
370
    15
100
AcDbCircle
 10
736.6610693642
 20
338.0586127168
 30
0.0
 40
4.000000000000114
  0
CIRCLE
  5
17D
330
1F
100
AcDbEntity
  8
0
  6
Continuous
 62
     7
370
    15
100
AcDbCircle
 10
632.73802091
 20
518.0586127168
 30
0.0
 40
4.0
  0
ARC
  5
17E
330
1F
100
AcDbEntity
  8
0
  6
Continuous
 62
     7
370
    15
100
AcDbCircle
 10
868.736805213
 20
498.0586127168
 30
0.0
 40
8.000000000000048
100
AcDbArc
 50
196.8492796228
 51
270.0
  0
ARC
  5
17F
330
1F
100
AcDbEntity
  8
0
  6
Continuous
 62
     7
370
    15
100
AcDbCircle
 10
708.6621222024
 20
593.1883983224
 30
0.0
 40
7.999999999999955
100
AcDbArc
 50
281.7060633836
 51
359.0704382906
  0
ARC
  5
180
330
1F
100
AcDbEntity
  8
0
  6
Continuous
 62
     7
370
    15
100
AcDbCircle
 10
736.6610693642
 20
458.0586127168
 30
0.0
 40
130.0
100
AcDbArc
 50
192.130845501
 51
258.2939366164
  0
CIRCLE
  5
181
330
1F
100
AcDbEntity
  8
0
  6
Continuous
 62
     7
370
    15
100
AcDbCircle
 10
840.5841178183
 20
398.0586127168
 30
0.0
 40
4.0
  0
LINE
  5
182
330
1F
100
AcDbEntity
  8
0
  6
Continuous
 62
     7
370
    15
100
AcDbLine
 10
601.6610639997
 20
437.0586129999
 30
0.0
 11
601.7425733515
 21
437.0586129999
 31
0.0
  0
LINE
  5
183
330
1F
100
AcDbEntity
  8
0
  6
Continuous
 62
     7
370
    15
100
AcDbLine
 10
756.6610689171
 20
593.0586180812
 30
0.0
 11
716.6610698112
 21
593.0586180812
 31
0.0
  0
ARC
  5
184
330
1F
100
AcDbEntity
  8
0
  6
Continuous
 62
     7
370
    15
100
AcDbCircle
 10
736.6610693642
 20
458.0586127168
 30
0.0
 40
130.0
100
AcDbArc
 50
101.7060633836
 51
167.869154499
  0
LINE
  5
185
330
1F
100
AcDbEntity
  8
0
  6
Continuous
 62
     7
370
    15
100
AcDbLine
 10
716.6610698112
 20
323.0586073523
 30
0.0
 11
756.6610689171
 21
323.0586073523
 31
0.0
  0
ARC
  5
186
330
1F
100
AcDbEntity
  8
0
  6
Continuous
 62
     7
370
    15
100
AcDbCircle
 10
868.736805213
 20
418.0586127168
 30
0.0
 40
8.000000000000048
100
AcDbArc
 50
90.0
 51
163.1507203772
  0
LINE
  5
187
330
1F
100
AcDbEntity
  8
0
  6
Continuous
 62
     7
370
    15
100
AcDbLine
 10
601.7425733515
 20
479.0586124336
 30
0.0
 11
601.6610639997
 21
479.0586124336
 31
0.0
  0
SPLINE
  5
188
330
1F
100
AcDbEntity
  8
0
  6
Continuous
 62
     8
370
    15
100
AcDbSpline
210
0.0
220
0.0
230
1.0
 70
     8
 71
     3
 72
    11
 73
     7
 74
     0
 42
0.00000001
 43
0.00000001
 40
0.0
 40
0.0
 40
0.0
 40
0.0
 40
0.261647775809235
 40
0.5645635649615537
 40
0.8758193714974377
 40
1.0
 40
1.0
 40
1.0
 40
1.0
 10
928.9137649246173
 20
539.584355724423
 30
0.0
 10
928.9056893318894
 20
539.5980923922154
 30
0.0
 10
928.8882644353636
 20
539.6277323236677
 30
0.0
 10
928.5879546669909
 20
540.1361183684359
 30
0.0
 10
928.1947011786456
 20
540.79798823903
 30
0.0
 10
927.8871968907739
 20
541.3107920420092
 30
0.0
 10
927.799500794025
 20
541.457036805718
 30
0.0
  0
LINE
  5
189
330
1F
100
AcDbEntity
  8
0
  6
Continuous
 62
     8
370
    15
100
AcDbLine
 10
927.799500794
 20
499.222303105
 30
0.0
 11
927.799500794
 21
499.1585373109
 31
0.0
  0
LINE
  5
18A
330
1F
100
AcDbEntity
  8
0
  6
Continuous
 62
     8
370
    15
100
AcDbLine
 10
919.6015971609
 20
505.5367893701
 30
0.0
 11
919.4229769417
 21
505.4842776781
 31
0.0
  0
SPLINE
  5
18B
330
1F
100
AcDbEntity
  8
0
  6
Continuous
 62
     8
370
    15
100
AcDbSpline
210
0.0
220
0.0
230
1.0
 70
     8
 71
     3
 72
    14
 73
    10
 74
     0
 42
0.00000001
 43
0.00000001
 40
0.0
 40
0.0
 40
0.0
 40
0.0
 40
0.0635703472208836
 40
0.2183888434477073
 40
0.377452437175181
 40
0.5361613303959435
 40
0.6998687991801231
 40
0.8587114683256604
 40
1.0
 40
1.0
 40
1.0
 40
1.0
 10
927.0835447021442
 20
499.0191183215071
 30
0.0
 10
927.1701122238003
 20
499.2670239884465
 30
0.0
 10
927.4675052971611
 20
500.1186762800239
 30
0.0
 10
927.8628592264083
 20
501.4767992348177
 30
0.0
 10
928.160095865337
 20
502.9439141775171
 30
0.0
 10
928.2385405804413
 20
504.1405864047349
 30
0.0
 10
928.0818828374065
 20
504.9856045711316
 30
0.0
 10
927.7334079548081
 20
505.4829033442381
 30
0.0
 10
927.3460088536514
 20
505.5190680108912
 30
0.0
 10
927.1636384435611
 20
505.5360927408624
 30
0.0
  0
LWPOLYLINE
  5
18C
330
1F
100
AcDbEntity
  8
0
  6
Continuous
 62
     8
370
    15
100
AcDbPolyline
 90
       21
 70
   128
 43
0.0
 10
900.9689169832
 20
700.9255758649
 10
900.968991489
 20
700.9255758649
 10
900.6494658895
 20
700.9308359748
 10
899.9247181126
 20
700.9426674968
 10
898.8068926044
 20
700.9605637914
 10
897.3791378447
 20
700.9827218181
 10
895.6504094311
 20
701.0083965188
 10
893.5999202438
 20
701.0397485619
 10
891.331024737
 20
701.0609529143
 10
888.8755070873
 20
701.0576448565
 10
886.3396572777
 20
701.0503134852
 10
883.9331495472
 20
701.0544113046
 10
881.5818953224
 20
701.0612062341
 10
879.2279886909
 20
701.0468862182
 10
877.0825493046
 20
701.0157278901
 10
875.2140032955
 20
700.9883395558
 10
873.6601251074
 20
700.9644231921
 10
872.4667060085
 20
700.9454242116
 10
871.6666328617
 20
700.9323856955
 10
871.2531405397
 20
700.9255758649
 10
871.2531405397
 20
700.9255758649
  0
LINE
  5
18D
330
1F
100
AcDbEntity
  8
0
  6
Continuous
 62
     8
370
    15
100
AcDbLine
 10
876.6110765644
 20
534.058610273
 30
0.0
 11
876.6110765644
 21
542.0586115843
 31
0.0
  0
LINE
  5
18E
330
1F
100
AcDbEntity
  8
0
  6
Continuous
 62
     8
370
    15
100
AcDbLine
 10
870.6110644051
 20
528.0586130148
 30
0.0
 11
862.6110630938
 21
528.0586130148
 31
0.0
  0
SPLINE
  5
18F
330
1F
100
AcDbEntity
  8
0
  6
Continuous
 62
     7
370
    15
100
AcDbSpline
210
0.0
220
0.0
230
1.0
 70
     8
 71
     3
 72
    20
 73
    16
 74
     0
 42
0.00000001
 43
0.00000001
 40
0.0
 40
0.0
 40
0.0
 40
0.0
 40
0.0906125277069748
 40
0.2623206190991364
 40
0.4073592694360087
 40
0.526517054061929
 40
0.6184215225720789
 40
0.6811048961470627
 40
0.7060079242599246
 40
0.7174762733664012
 40
0.7258190685367013
 40
0.7373334948082133
 40
0.7595040265850939
 40
0.8235543825930074
 40
1.0
 40
1.0
 40
1.0
 40
1.0
 10
378.7965528463906
 20
505.4770543402124
 30
0.0
 10
378.8180027638666
 20
505.5027144369242
 30
0.0
 10
378.8800996479764
 20
505.576999666858
 30
0.0
 10
378.9300949844448
 20
505.7219209609236
 30
0.0
 10
378.9556971262994
 20
505.880316235934
 30
0.0
 10
378.9499215916727
 20
506.0118414375548
 30
0.0
 10
378.9303839758437
 20
506.1109648622539
 30
0.0
 10
378.9106445860266
 20
506.1734942821238
 30
0.0
 10
378.8973454956729
 20
506.2077124847306
 30
0.0
 10
378.8922494108661
 20
506.2199511060338
 30
0.0
 10
378.8899583924732
 20
506.2253176245351
 30
0.0
 10
378.8881073668657
 20
506.2295899535681
 30
0.0
 10
378.8860263265922
 20
506.2343025239859
 30
0.0
 10
378.8839990616559
 20
506.2388666976727
 30
0.0
 10
378.8792004736933
 20
506.2494957691897
 30
0.0
 10
378.875679874975
 20
506.2572940414835
 30
0.0
  0
SPLINE
  5
190
330
1F
100
AcDbEntity
  8
0
  6
Continuous
 62
     7
370
    15
100
AcDbSpline
210
0.0
220
0.0
230
1.0
 70
     8
 71
     3
 72
    20
 73
    16
 74
     0
 42
0.00000001
 43
0.00000001
 40
0.0
 40
0.0
 40
0.0
 40
0.0
 40
0.0906175738479213
 40
0.2623183147076395
 40
0.4073576823573228
 40
0.5265168394872525
 40
0.6184222280663256
 40
0.6811056819592529
 40
0.7060086986787841
 40
0.7174760787476292
 40
0.725818944258226
 40
0.7373335368823206
 40
0.7595041844340443
 40
0.8235544792471242
 40
1.0
 40
1.0
 40
1.0
 40
1.0
 10
383.6222976243084
 20
526.6194067126203
 30
0.0
 10
383.6156095434309
 20
526.652177664721
 30
0.0
 10
383.5962489930438
 20
526.7470424967988
 30
0.0
 10
383.5141167231618
 20
526.8764878625863
 30
0.0
 10
383.4062375194551
 20
526.9952549762575
 30
0.0
 10
383.2998134317207
 20
527.0727566281719
 30
0.0
 10
383.2101282384153
 20
527.1192764963483
 30
0.0
 10
383.1489342863043
 20
527.1428302809638
 30
0.0
 10
383.1138895976706
 20
527.1537699653288
 30
0.0
 10
383.1011448833214
 20
527.157415153102
 30
0.0
 10
383.0955201986009
 20
527.1589682792386
 30
0.0
 10
383.0910271375406
 20
527.1601926165009
 30
0.0
 10
383.0860394644669
 20
527.161487458145
 30
0.0
 10
383.0812168546872
 20
527.1627783376016
 30
0.0
 10
383.0699115948879
 20
527.1656443639046
 30
0.0
 10
383.061617220003
 20
527.1677470928121
 30
0.0
  0
SPLINE
  5
191
330
1F
100
AcDbEntity
  8
0
  6
Continuous
 62
     7
370
    15
100
AcDbSpline
210
0.0
220
0.0
230
1.0
 70
     8
 71
     3
 72
    17
 73
    13
 74
     0
 42
0.00000001
 43
0.00000001
 40
0.0
 40
0.0
 40
0.0
 40
0.0
 40
0.0494754762511517
 40
0.1321313211639618
 40
0.1578023348916304
 40
0.1719183260919849
 40
0.184475384778806
 40
0.2066312021877027
 40
0.3520259399359655
 40
0.5246296399022319
 40
0.7255887644828385
 40
1.0
 40
1.0
 40
1.0
 40
1.0
 10
383.3668209409302
 20
525.8923194533277
 30
0.0
 10
383.3679110930142
 20
525.8932332134503
 30
0.0
 10
383.3708224997564
 20
525.8956735402827
 30
0.0
 10
383.3727952395216
 20
525.8973232408063
 30
0.0
 10
383.3780835811646
 20
525.9018353766858
 30
0.0
 10
383.3833021710118
 20
525.9063459252488
 30
0.0
 10
383.391959851536
 20
525.9139804224404
 30
0.0
 10
383.4336697414431
 20
525.9522279942987
 30
0.0
 10
383.5066372913929
 20
526.0346867028486
 30
0.0
 10
383.5889109716537
 20
526.1791067664362
 30
0.0
 10
383.6526800691223
 20
526.3803862987317
 30
0.0
 10
383.6361700100734
 20
526.5331420607862
 30
0.0
 10
383.6266394501513
 20
526.6213215118337
 30
0.0
  0
SPLINE
  5
192
330
1F
100
AcDbEntity
  8
0
  6
Continuous
 62
     7
370
    15
100
AcDbSpline
210
0.0
220
0.0
230
1.0
 70
     8
 71
     3
 72
    17
 73
    13
 74
     0
 42
0.00000001
 43
0.00000001
 40
0.0
 40
0.0
 40
0.0
 40
0.0
 40
0.0494751459385015
 40
0.1321309771664836
 40
0.157801661222413
 40
0.1719186829288677
 40
0.1844760206533885
 40
0.2066303891306156
 40
0.3520241398432286
 40
0.5246304629019963
 40
0.7255880409722335
 40
1.0
 40
1.0
 40
1.0
 40
1.0
 10
378.0688062107151
 20
505.2234626537252
 30
0.0
 10
378.0701985959389
 20
505.2231788548738
 30
0.0
 10
378.0739171745648
 20
505.2224209264462
 30
0.0
 10
378.076444851162
 20
505.2219138290696
 30
0.0
 10
378.0832626760367
 20
505.2205867654185
 30
0.0
 10
378.0900470850701
 20
505.2193201358478
 30
0.0
 10
378.1014138972982
 20
505.2173139551937
 30
0.0
 10
378.1573198029941
 20
505.2085381135228
 30
0.0
 10
378.2672859925776
 20
505.2029193127595
 30
0.0
 10
378.431494075578
 20
505.2286319412029
 30
0.0
 10
378.6286207932582
 20
505.3042747903399
 30
0.0
 10
378.7377568970604
 20
505.4124230166602
 30
0.0
 10
378.8007568364924
 20
505.474852693646
 30
0.0
  0
SPLINE
  5
193
330
1F
100
AcDbEntity
  8
0
  6
Continuous
 62
     7
370
    15
100
AcDbSpline
210
0.0
220
0.0
230
1.0
 70
     8
 71
     3
 72
    17
 73
    13
 74
     0
 42
0.00000001
 43
0.00000001
 40
0.0
 40
0.0
 40
0.0
 40
0.0
 40
0.049474692450648
 40
0.1321299060081303
 40
0.1578005852482731
 40
0.1719173355589533
 40
0.1844738436254315
 40
0.2066312092726124
 40
0.352026541278741
 40
0.5246306934668686
 40
0.7255863806837655
 40
0.9999999999999999
 40
0.9999999999999999
 40
0.9999999999999999
 40
0.9999999999999999
 10
370.5105135014242
 20
542.9212994104314
 30
0.0
 10
370.5104806608467
 20
542.9227194649362
 30
0.0
 10
370.5103929549469
 20
542.9265119426442
 30
0.0
 10
370.5103261842835
 20
542.9290871860292
 30
0.0
 10
370.5101026412038
 20
542.9360312978212
 30
0.0
 10
370.5098269672168
 20
542.9429267984216
 30
0.0
 10
370.5092531756735
 20
542.9544546970975
 30
0.0
 10
370.5053688052464
 20
543.0109160194016
 30
0.0
 10
370.4863818886734
 20
543.1193750871107
 30
0.0
 10
370.4247664072388
 20
543.2737432795539
 30
0.0
 10
370.3071595736494
 20
543.4490976298052
 30
0.0
 10
370.1774366732954
 20
543.5314329423356
 30
0.0
 10
370.1025523042267
 20
543.5789621597219
 30
0.0
  0
SPLINE
  5
194
330
1F
100
AcDbEntity
  8
0
  6
Continuous
 62
     7
370
    15
100
AcDbSpline
210
0.0
220
0.0
230
1.0
 70
     8
 71
     3
 72
    20
 73
    16
 74
     0
 42
0.00000001
 43
0.00000001
 40
0.0
 40
0.0
 40
0.0
 40
0.0
 40
0.0906126757520334
 40
0.2623191268013403
 40
0.4073579478354498
 40
0.5265146450270791
 40
0.6184201621482366
 40
0.6811061802745544
 40
0.706007832782351
 40
0.7174753028651231
 40
0.7258195074982489
 40
0.7373333678029427
 40
0.7595038244783046
 40
0.8235542289574712
 40
1.0
 40
1.0
 40
1.0
 40
1.0
 10
370.1013434475249
 20
543.5743726020742
 30
0.0
 10
370.0715529277053
 20
543.5895732649718
 30
0.0
 10
369.9853108751317
 20
543.6335784175071
 30
0.0
 10
369.8329004217758
 20
543.6500770155924
 30
0.0
 10
369.6727796137256
 20
543.6397894210572
 30
0.0
 10
369.5458389146914
 20
543.6048911293026
 30
0.0
 10
369.4535422249739
 20
543.563792968626
 30
0.0
 10
369.3969815137048
 20
543.5306225374436
 30
0.0
 10
369.3665723713073
 20
543.5100505841114
 30
0.0
 10
369.3557784202888
 20
543.502359359849
 30
0.0
 10
369.3510553068099
 20
543.4989246260488
 30
0.0
 10
369.3473040881065
 20
543.4961748665022
 30
0.0
 10
369.3431674068512
 20
543.4931003825488
 30
0.0
 10
369.3391738018928
 20
543.4901068235672
 30
0.0
 10
369.3298783920699
 20
543.4830629443666
 30
0.0
 10
369.3230585923379
 20
543.4778950339246
 30
0.0
  0
SPLINE
  5
195
330
1F
100
AcDbEntity
  8
0
  6
Continuous
 62
     7
370
    15
100
AcDbSpline
210
0.0
220
0.0
230
1.0
 70
     8
 71
     3
 72
    20
 73
    16
 74
     0
 42
0.00000001
 43
0.00000001
 40
0.0
 40
0.0
 40
0.0
 40
0.0
 40
0.0906138677328026
 40
0.2623201101390071
 40
0.407359888877885
 40
0.5265164655494323
 40
0.6184222314260387
 40
0.6811065190303134
 40
0.7060085216354192
 40
0.7174757558416296
 40
0.7258189209334425
 40
0.7373336435248443
 40
0.7595040666188957
 40
0.8235545467009286
 40
1.0
 40
1.0
 40
1.0
 40
1.0
 10
359.2579916823928
 20
496.0679321711947
 30
0.0
 10
359.2914277696293
 20
496.067161234991
 30
0.0
 10
359.3882226455784
 20
496.0649294345512
 30
0.0
 10
359.5327005098042
 20
496.1161920725987
 30
0.0
 10
359.6724978036332
 20
496.1949390150085
 30
0.0
 10
359.7717293532099
 20
496.281456394151
 30
0.0
 10
359.8370461284233
 20
496.3585353379737
 30
0.0
 10
359.8736223670081
 20
496.4129561314402
 30
0.0
 10
359.8920901211642
 20
496.4446855097985
 30
0.0
 10
359.8984767567691
 20
496.456300376301
 30
0.0
 10
359.9012455417075
 20
496.4614377177137
 30
0.0
 10
359.903429670875
 20
496.4655514082601
 30
0.0
 10
359.9058220730295
 20
496.4701105120188
 30
0.0
 10
359.9081200767162
 20
496.4745511496531
 30
0.0
 10
359.913439630118
 20
496.4849255864719
 30
0.0
 10
359.9173424445985
 20
496.492537034123
 30
0.0
  0
SPLINE
  5
196
330
1F
100
AcDbEntity
  8
0
  6
Continuous
 62
     7
370
    15
100
AcDbSpline
210
0.0
220
0.0
230
1.0
 70
     8
 71
     3
 72
    17
 73
    13
 74
     0
 42
0.00000001
 43
0.00000001
 40
0.0
 40
0.0
 40
0.0
 40
0.0
 40
0.0494750467064627
 40
0.1321308221194021
 40
0.1578013257032893
 40
0.1719191261410317
 40
0.1844747286923903
 40
0.2066279173663299
 40
0.3520230531363338
 40
0.5246317476450935
 40
0.7255863220212069
 40
1.0
 40
1.0
 40
1.0
 40
1.0
 10
358.6059849040544
 20
496.478794438212
 30
0.0
 10
358.6066311646533
 20
496.4775293572446
 30
0.0
 10
358.6083571042917
 20
496.4741507613786
 30
0.0
 10
358.609534804284
 20
496.471853996651
 30
0.0
 10
358.6127489664043
 20
496.4657013041911
 30
0.0
 10
358.6159886388459
 20
496.4596036191876
 30
0.0
 10
358.6215068642358
 20
496.4494694990255
 30
0.0
 10
358.6495075880272
 20
496.4002892874565
 30
0.0
 10
358.7136681940007
 20
496.3108072432965
 30
0.0
 10
358.836158782349
 20
496.1984577900023
 30
0.0
 10
359.0182043320781
 20
496.0915005999565
 30
0.0
 10
359.1708031021988
 20
496.0736033166846
 30
0.0
 10
359.2588931030696
 20
496.0632718330313
 30
0.0
  0
SPLINE
  5
197
330
1F
100
AcDbEntity
  8
0
  6
Continuous
 62
     7
370
    15
100
AcDbSpline
210
0.0
220
0.0
230
1.0
 70
     8
 71
     3
 72
    17
 73
    13
 74
     0
 42
0.00000001
 43
0.00000001
 40
0.0
 40
0.0
 40
0.0
 40
0.0
 40
0.0494752854283105
 40
0.1321310833659285
 40
0.1578016453550009
 40
0.1719185988939437
 40
0.1844752689111277
 40
0.2066305973696487
 40
0.3520234010949099
 40
0.5246302429562044
 40
0.7255858209458806
 40
0.9999999999999999
 40
0.9999999999999999
 40
0.9999999999999999
 40
0.9999999999999999
 10
349.1809485277122
 20
543.487223160832
 30
0.0
 10
349.179817138775
 20
543.4880844530383
 30
0.0
 10
349.1767955969145
 20
543.4903846615429
 30
0.0
 10
349.1747376111932
 20
543.4919384965624
 30
0.0
 10
349.1691717969152
 20
543.496092182855
 30
0.0
 10
349.1636079375481
 20
543.500175829507
 30
0.0
 10
349.1542386099016
 20
543.5069158029175
 30
0.0
 10
349.1076762575157
 20
543.539080967532
 30
0.0
 10
349.0110383690276
 20
543.5918547970946
 30
0.0
 10
348.8519341613368
 20
543.6399284531425
 30
0.0
 10
348.6415095842348
 20
543.6573209381795
 30
0.0
 10
348.4962577741642
 20
543.6072298031347
 30
0.0
 10
348.412409031946
 20
543.5783139592099
 30
0.0
  0
SPLINE
  5
198
330
1F
100
AcDbEntity
  8
0
  6
Continuous
 62
     7
370
    15
100
AcDbSpline
210
0.0
220
0.0
230
1.0
 70
     8
 71
     3
 72
    20
 73
    16
 74
     0
 42
0.00000001
 43
0.00000001
 40
0.0
 40
0.0
 40
0.0
 40
0.0
 40
0.0906128919481681
 40
0.2623201866058141
 40
0.4073604108843727
 40
0.5265155328600857
 40
0.6184241041817201
 40
0.6811076198732093
 40
0.7060080745887649
 40
0.7174776253639366
 40
0.7258187261866359
 40
0.7373328533928752
 40
0.7595043828923846
 40
0.823554377987937
 40
1.0
 40
1.0
 40
1.0
 40
1.0
 10
348.4152430465406
 20
543.5745067125249
 30
0.0
 10
348.3847837952949
 20
543.5606944252035
 30
0.0
 10
348.2966056531029
 20
543.5207084838023
 30
0.0
 10
348.1886791151527
 20
543.4118335357252
 30
0.0
 10
348.0968920160042
 20
543.2802303808915
 30
0.0
 10
348.0450255977599
 20
543.1592245266943
 30
0.0
 10
348.0196209864937
 20
543.061440257566
 30
0.0
 10
348.0102786912432
 20
542.9965353964471
 30
0.0
 10
348.0074071167983
 20
542.9599399515233
 30
0.0
 10
348.0066936591314
 20
542.9466993129661
 30
0.0
 10
348.0064273861471
 20
542.940875290915
 30
0.0
 10
348.0062434107812
 20
542.9362239057742
 30
0.0
 10
348.0060681450803
 20
542.9310601774393
 30
0.0
 10
348.0059218353802
 20
542.926094553672
 30
0.0
 10
348.0056313758023
 20
542.9144284134494
 30
0.0
 10
348.0054182728713
 20
542.9058692580152
 30
0.0
  0
SPLINE
  5
199
330
1F
100
AcDbEntity
  8
0
  6
Continuous
 62
     7
370
    15
100
AcDbSpline
210
0.0
220
0.0
230
1.0
 70
     8
 71
     3
 72
    17
 73
    13
 74
     0
 42
0.00000001
 43
0.00000001
 40
0.0
 40
0.0
 40
0.0
 40
0.0
 40
0.0494749397368903
 40
0.1321305401433944
 40
0.15780172808983
 40
0.1719177405019403
 40
0.1844746817849687
 40
0.2066301303966329
 40
0.352021558066155
 40
0.5246297021444284
 40
0.7255864052523738
 40
0.9999999999999999
 40
0.9999999999999999
 40
0.9999999999999999
 40
0.9999999999999999
 10
339.6342579072302
 20
506.2432310706068
 30
0.0
 10
339.6336710082575
 20
506.2419369500246
 30
0.0
 10
339.6321036030479
 20
506.2384807992451
 30
0.0
 10
339.631045086952
 20
506.2361353755682
 30
0.0
 10
339.6282351451445
 20
506.2297741876338
 30
0.0
 10
339.625490562347
 20
506.2234458512334
 30
0.0
 10
339.6210045690842
 20
506.2128103914519
 30
0.0
 10
339.60001919093
 20
506.1602548207132
 30
0.0
 10
339.5700548106137
 20
506.0543016284601
 30
0.0
 10
339.5585939231995
 20
505.8884861306881
 30
0.0
 10
339.5884680393297
 20
505.6794685141662
 30
0.0
 10
339.6696221982315
 20
505.5490031855194
 30
0.0
 10
339.7164694761818
 20
505.4736904030729
 30
0.0
  0
SPLINE
  5
19A
330
1F
100
AcDbEntity
  8
0
  6
Continuous
 62
     7
370
    15
100
AcDbSpline
210
0.0
220
0.0
230
1.0
 70
     8
 71
     3
 72
    20
 73
    16
 74
     0
 42
0.00000001
 43
0.00000001
 40
0.0
 40
0.0
 40
0.0
 40
0.0
 40
0.0906115972494271
 40
0.2623192052176178
 40
0.4073589798197764
 40
0.5265162210310871
 40
0.6184215556473627
 40
0.6811051864193851
 40
0.7060096317227111
 40
0.7174757602387632
 40
0.7258191513421413
 40
0.7373331683692941
 40
0.7595039594079984
 40
0.8235544375323925
 40
1.0
 40
1.0
 40
1.0
 40
1.0
 10
339.7195502912587
 20
505.4773002093721
 30
0.0
 10
339.7397949569799
 20
505.4506795585647
 30
0.0
 10
339.7984029584178
 20
505.3736131766207
 30
0.0
 10
339.9285593956218
 20
505.2926154474437
 30
0.0
 10
340.0772882635694
 20
505.2324124474623
 30
0.0
 10
340.2068007520385
 20
505.2087735705991
 30
0.0
 10
340.3077878107965
 20
505.2057712994036
 30
0.0
 10
340.3731406667056
 20
505.2110966984039
 30
0.0
 10
340.4094631458863
 20
505.2164504172976
 30
0.0
 10
340.4225251726601
 20
505.2186948591913
 30
0.0
 10
340.4282688758935
 20
505.2197356275389
 30
0.0
 10
340.4328432590755
 20
505.2205847511723
 30
0.0
 10
340.437905508886
 20
505.22157197881
 30
0.0
 10
340.4428039601206
 20
505.2225225141497
 30
0.0
 10
340.4542334976064
 20
505.2248396917799
 30
0.0
 10
340.4626190459317
 20
505.2265397435118
 30
0.0
  0
SPLINE
  5
19B
330
1F
100
AcDbEntity
  8
0
  6
Continuous
 62
     7
370
    15
100
AcDbSpline
210
0.0
220
0.0
230
1.0
 70
     8
 71
     3
 72
    17
 73
    13
 74
     0
 42
0.00000001
 43
0.00000001
 40
0.0
 40
0.0
 40
0.0
 40
0.0
 40
0.0494749633592845
 40
0.1321308510086016
 40
0.1578016233163931
 40
0.1719184240087287
 40
0.1844769180598851
 40
0.2066288775407361
 40
0.3520238223454942
 40
0.5246333473637446
 40
0.7255896392017653
 40
1.0
 40
1.0
 40
1.0
 40
1.0
 10
335.4397207295483
 20
527.1639472967076
 30
0.0
 10
335.4383433426775
 20
527.1636013110394
 30
0.0
 10
335.4346648093942
 20
527.1626773006374
 30
0.0
 10
335.4321666169807
 20
527.1620378421081
 30
0.0
 10
335.4254472636185
 20
527.160272756023
 30
0.0
 10
335.4187859420637
 20
527.1584713195518
 30
0.0
 10
335.4076753617328
 20
527.1553384394547
 30
0.0
 10
335.3534949811878
 20
527.1390113517602
 30
0.0
 10
335.2519834079233
 20
527.0963371044221
 30
0.0
 10
335.1151937014741
 20
527.0019299889652
 30
0.0
 10
334.9704076377853
 20
526.8482463893371
 30
0.0
 10
334.9190032793631
 20
526.7034571807593
 30
0.0
 10
334.8893295770472
 20
526.6198760991979
 30
0.0
  0
SPLINE
  5
19C
330
1F
100
AcDbEntity
  8
0
  6
Continuous
 62
     7
370
    15
100
AcDbSpline
210
0.0
220
0.0
230
1.0
 70
     8
 71
     3
 72
    20
 73
    16
 74
     0
 42
0.00000001
 43
0.00000001
 40
0.0
 40
0.0
 40
0.0
 40
0.0
 40
0.0906171463652748
 40
0.262324159690783
 40
0.4073617751919734
 40
0.526517414488734
 40
0.6184237196507475
 40
0.6811076479469762
 40
0.706008598630825
 40
0.7174759352815593
 40
0.7258205031348013
 40
0.7373338849838883
 40
0.759504706303086
 40
0.8235547213978773
 40
1.0
 40
1.0
 40
1.0
 40
1.0
 10
334.8940737342423
 20
526.6197196370053
 30
0.0
 10
334.8858819602144
 20
526.5872920026555
 30
0.0
 10
334.8621679025063
 20
526.4934184668758
 30
0.0
 10
334.8799976400275
 20
526.3411552564088
 30
0.0
 10
334.9256576748155
 20
526.1873391903586
 30
0.0
 10
334.9879245579026
 20
526.0713431533101
 30
0.0
 10
335.048541678451
 20
525.9905166163843
 30
0.0
 10
335.0934494104898
 20
525.9427394409192
 30
0.0
 10
335.120283516036
 20
525.9176828316431
 30
0.0
 10
335.1301824155835
 20
525.9088709301082
 30
0.0
 10
335.1345765346072
 20
525.9050216840529
 30
0.0
 10
335.1380984645179
 20
525.9019891407487
 30
0.0
 10
335.1420180102171
 20
525.898628003695
 30
0.0
 10
335.1458255631937
 20
525.8954213892863
 30
0.0
 10
335.1547599512003
 20
525.8879164004849
 30
0.0
 10
335.161314884383
 20
525.8824101811338
 30
0.0
  0
SPLINE
  5
19D
330
1F
100
AcDbEntity
  8
0
  6
Continuous
 62
     7
370
    15
100
AcDbSpline
210
0.0
220
0.0
230
1.0
 70
     8
 71
     3
 72
    25
 73
    21
 74
     0
 42
0.00000001
 43
0.00000001
 40
0.0
 40
0.0
 40
0.0
 40
0.0
 40
0.1107404597228369
 40
0.2180856343535898
 40
0.3158854056321213
 40
0.4041396356755044
 40
0.4828486187802679
 40
0.5520127315507533
 40
0.6116320835173292
 40
0.6617073830232303
 40
0.6984689331206906
 40
0.7288512847655487
 40
0.759270447856685
 40
0.7906084926706112
 40
0.8228655617732584
 40
0.8488552971772706
 40
0.8768973331087078
 40
0.9112984929736401
 40
0.9523325190156655
 40
1.0
 40
1.0
 40
1.0
 40
1.0
 10
344.266524145562
 20
701.0504922991681
 30
0.0
 10
344.2848281649221
 20
696.6943765536797
 30
0.0
 10
344.3208750052854
 20
688.1157028868896
 30
0.0
 10
344.3750468700266
 20
675.690113961164
 30
0.0
 10
344.4261648930814
 20
664.149187235254
 30
0.0
 10
344.4728516623644
 20
653.7348592488099
 30
0.0
 10
344.5147116947443
 20
644.4471225544308
 30
0.0
 10
344.5515451388911
 20
636.2859787115351
 30
0.0
 10
344.5832540728825
 20
629.251401620227
 30
0.0
 10
344.6092229154859
 20
623.4917084309548
 30
0.0
 10
344.6300499102629
 20
618.8823324409502
 30
0.0
 10
344.6478141431248
 20
615.0469683645125
 30
0.0
 10
344.6637214414808
 20
611.4244202038545
 30
0.0
 10
344.6791225255021
 20
607.7279288406039
 30
0.0
 10
344.6929093318157
 20
604.2053594642541
 30
0.0
 10
344.7054184875589
 20
600.8122506209858
 30
0.0
 10
344.7174165844712
 20
597.3345891034613
 30
0.0
 10
344.7301956013414
 20
593.2647146488143
 30
0.0
 10
344.7442589843286
 20
588.4227000454268
 30
0.0
 10
344.7532948852881
 20
584.9336176901617
 30
0.0
 10
344.75815070625
 20
583.058612716763
 30
0.0
  0
SPLINE
  5
19E
330
1F
100
AcDbEntity
  8
0
  6
Continuous
 62
     7
370
    15
100
AcDbSpline
210
0.0
220
0.0
230
1.0
 70
     8
 71
     3
 72
    24
 73
    20
 74
     0
 42
0.00000001
 43
0.00000001
 40
0.0
 40
0.0
 40
0.0
 40
0.0
 40
0.059516310467446
 40
0.1082878239090649
 40
0.1463580782871806
 40
0.1794685516709789
 40
0.2116600175565555
 40
0.2423819073593171
 40
0.2722175628730799
 40
0.3021198350798869
 40
0.3382919837992349
 40
0.3883671973978258
 40
0.4479864498499448
 40
0.5171504415210775
 40
0.5958592917981537
 40
0.6841133704358817
 40
0.7819129739327849
 40
0.8892579644061726
 40
1.0
 40
1.0
 40
1.0
 40
1.0
 10
373.758149871785
 20
583.058612716763
 30
0.0
 10
373.764253451397
 20
585.3996886603927
 30
0.0
 10
373.7753586988333
 20
589.6591936187884
 30
0.0
 10
373.7926099926912
 20
595.4158704473999
 30
0.0
 10
373.8083571882682
 20
600.1333195301191
 30
0.0
 10
373.8233376039428
 20
604.198166403303
 30
0.0
 10
373.8381757579704
 20
607.9739223229088
 30
0.0
 10
373.8534257207991
 20
611.6206551224295
 30
0.0
 10
373.8690823952483
 20
615.1771521972471
 30
0.0
 10
373.8865485205095
 20
618.9475530736512
 30
0.0
 10
373.9071808966433
 20
623.5148867740298
 30
0.0
 10
373.9330469689388
 20
629.2514013459706
 30
0.0
 10
373.964755281038
 20
636.2859784266404
 30
0.0
 10
374.0015889362527
 20
644.4471229336233
 30
0.0
 10
374.0434488984343
 20
653.7348590170707
 30
0.0
 10
374.0901356894221
 20
664.149187277708
 30
0.0
 10
374.1412537101683
 20
675.6901139613152
 30
0.0
 10
374.1954258601131
 20
688.1157722924229
 30
0.0
 10
374.2314730322837
 20
696.694515611315
 30
0.0
 10
374.2497773637956
 20
701.0507009154248
 30
0.0
  0
ARC
  5
19F
330
1F
100
AcDbEntity
  8
0
  6
Continuous
 62
     7
370
    15
100
AcDbCircle
 10
372.2498235371
 20
701.0586018698
 30
0.0
 40
2.00001561538793
100
AcDbArc
 50
359.9358718106
 51
89.9996512951
  0
ARC
  5
1A0
330
1F
100
AcDbEntity
  8
0
  6
Continuous
 62
     7
370
    15
100
AcDbCircle
 10
346.2664593832
 20
701.0586127168
 30
0.0
 40
2.000000000000053
100
AcDbArc
 50
90.0000189073
 51
180.1699205162
  0
LINE
  5
1A1
330
1F
100
AcDbEntity
  8
0
  6
Continuous
 62
     7
370
    15
100
AcDbLine
 10
384.0581510013
 20
585.0586167699
 30
0.0
 11
380.2581500059
 21
585.0586167699
 31
0.0
  0
LINE
  5
1A2
330
1F
100
AcDbEntity
  8
0
  6
Continuous
 62
     7
370
    15
100
AcDbLine
 10
380.2581500059
 20
331.0586086636
 30
0.0
 11
384.0581510013
 21
331.0586086636
 31
0.0
  0
LINE
  5
1A3
330
1F
100
AcDbEntity
  8
0
  6
Continuous
 62
     7
370
    15
100
AcDbLine
 10
338.2581505721
 20
585.0586167699
 30
0.0
 11
334.4581495767
 21
585.0586167699
 31
0.0
  0
LINE
  5
1A4
330
1F
100
AcDbEntity
  8
0
  6
Continuous
 62
     7
370
    15
100
AcDbLine
 10
334.4581495767
 20
331.0586086636
 30
0.0
 11
338.2581505721
 21
331.0586086636
 31
0.0
  0
LINE
  5
1A5
330
1F
100
AcDbEntity
  8
0
  6
Continuous
 62
     7
370
    15
100
AcDbLine
 10
380.2581500059
 20
564.0586114651
 30
0.0
 11
380.0581503456
 21
564.0586114651
 31
0.0
  0
LINE
  5
1A6
330
1F
100
AcDbEntity
  8
0
  6
Continuous
 62
     7
370
    15
100
AcDbLine
 10
338.4581502324
 20
564.0586114651
 30
0.0
 11
338.2581505721
 21
564.0586114651
 31
0.0
  0
LINE
  5
1A7
330
1F
100
AcDbEntity
  8
0
  6
Continuous
 62
     7
370
    15
100
AcDbLine
 10
338.2581505721
 20
352.0586139685
 30
0.0
 11
338.4581502324
 21
352.0586139685
 31
0.0
  0
LINE
  5
1A8
330
1F
100
AcDbEntity
  8
0
  6
Continuous
 62
     7
370
    15
100
AcDbLine
 10
380.0581503456
 20
352.0586139685
 30
0.0
 11
380.2581500059
 21
352.0586139685
 31
0.0
  0
SPLINE
  5
1A9
330
1F
100
AcDbEntity
  8
0
  6
Continuous
 62
     7
370
    15
100
AcDbSpline
210
0.0
220
0.0
230
1.0
 70
     8
 71
     3
 72
    18
 73
    14
 74
     0
 42
0.00000001
 43
0.00000001
 40
0.0
 40
0.0
 40
0.0
 40
0.0
 40
0.0344352525759839
 40
0.0724914444077308
 40
0.1306343893828393
 40
0.2236190681394236
 40
0.4104357333910802
 40
0.50019551067612
 40
0.7376499130752737
 40
0.8568696462261745
 40
0.9094902468171299
 40
0.9625687166774045
 40
0.9999999999999999
 40
0.9999999999999999
 40
0.9999999999999999
 40
0.9999999999999999
 10
352.2581500729507
 20
432.3058354830433
 30
0.0
 10
352.249842186749
 20
432.3010390995873
 30
0.0
 10
352.2323528226328
 20
432.2909419828641
 30
0.0
 10
352.0724805127077
 20
432.198638932429
 30
0.0
 10
351.72115413723
 20
431.9958005005537
 30
0.0
 10
350.9198170406722
 20
431.5331495745946
 30
0.0
 10
349.9579189109733
 20
430.9777953721911
 30
0.0
 10
348.6261921466592
 20
430.2089251233044
 30
0.0
 10
347.4572199758429
 20
429.5340187061502
 30
0.0
 10
346.445140715421
 20
428.9496922926425
 30
0.0
 10
346.0000279673675
 20
428.6927083333551
 30
0.0
 10
345.7923309017675
 20
428.5727917104133
 30
0.0
 10
345.7681501494257
 20
428.5588328357354
 30
0.0
 10
345.7581499388402
 20
428.5530599927593
 30
0.0
  0
SPLINE
  5
1AA
330
1F
100
AcDbEntity
  8
0
  6
Continuous
 62
     7
370
    15
100
AcDbSpline
210
0.0
220
0.0
230
1.0
 70
     8
 71
     3
 72
    18
 73
    14
 74
     0
 42
0.00000001
 43
0.00000001
 40
0.0
 40
0.0
 40
0.0
 40
0.0
 40
0.0391144119034069
 40
0.078093408974101
 40
0.1389211913490468
 40
0.2382986550740601
 40
0.4914349478662688
 40
0.7614771786732301
 40
0.8314852848035629
 40
0.9019334967458568
 40
0.9480399717019665
 40
0.9875238058522229
 40
1.0
 40
1.0
 40
1.0
 40
1.0
 10
345.7581499388402
 20
428.5530599927593
 30
0.0
 10
345.7474175909867
 20
428.5592566344191
 30
0.0
 10
345.7259900508707
 20
428.5716284648483
 30
0.0
 10
345.5428101911003
 20
428.6773840725215
 30
0.0
 10
345.1597636536658
 20
428.8985385957588
 30
0.0
 10
344.1618210582655
 20
429.4747014653416
 30
0.0
 10
342.532995751537
 20
430.4151030438146
 30
0.0
 10
340.9683196916878
 20
431.31847007485
 30
0.0
 10
339.9781542066604
 20
431.890141966999
 30
0.0
 10
339.5791348949247
 20
432.1205149485379
 30
0.0
 10
339.3407191149649
 20
432.2581664204365
 30
0.0
 10
339.2639324113576
 20
432.3024962421028
 30
0.0
 10
339.2592701887588
 20
432.3051889364784
 30
0.0
 10
339.2581507360524
 20
432.3058354830433
 30
0.0
  0
SPLINE
  5
1AB
330
1F
100
AcDbEntity
  8
0
  6
Continuous
 62
     7
370
    15
100
AcDbSpline
210
0.0
220
0.0
230
1.0
 70
    24
 71
     3
 72
    18
 73
    14
 74
     0
 42
0.00000001
 43
0.00000001
 40
0.0
 40
0.0
 40
0.0
 40
0.0
 40
0.0391144220028492
 40
0.0780934873876555
 40
0.1389212026400468
 40
0.2382986239597648
 40
0.4914348450329667
 40
0.7614773207528106
 40
0.8314851898061555
 40
0.9019333850182957
 40
0.9480400169873977
 40
0.9875237889369614
 40
1.0
 40
1.0
 40
1.0
 40
1.0
 10
339.2581507360524
 20
432.3058354830433
 30
0.0
 10
339.2581507360524
 20
432.318228385892
 30
0.0
 10
339.2581507360524
 20
432.3429713055812
 30
0.0
 10
339.2581507360524
 20
432.5544893509322
 30
0.0
 10
339.2581507360524
 20
432.9967929625975
 30
0.0
 10
339.2581507360524
 20
434.1491183798801
 30
0.0
 10
339.2581507360524
 20
436.029923059088
 30
0.0
 10
339.2581507360524
 20
437.8366556562791
 30
0.0
 10
339.2581507360524
 20
438.9800002862729
 30
0.0
 10
339.2581507360524
 20
439.4407448298568
 30
0.0
 10
339.2581507360524
 20
439.7160509457296
 30
0.0
 10
339.2581507360524
 20
439.8047081022841
 30
0.0
 10
339.2581507360524
 20
439.8100963954959
 30
0.0
 10
339.2581507360524
 20
439.8113901889015
 30
0.0
  0
SPLINE
  5
1AC
330
1F
100
AcDbEntity
  8
0
  6
Continuous
 62
     7
370
    15
100
AcDbSpline
210
0.0
220
0.0
230
1.0
 70
     8
 71
     3
 72
    18
 73
    14
 74
     0
 42
0.00000001
 43
0.00000001
 40
0.0
 40
0.0
 40
0.0
 40
0.0
 40
0.0344352394795566
 40
0.0724914515936577
 40
0.1306344596127227
 40
0.2236191004444465
 40
0.4104356673623103
 40
0.5001954601018112
 40
0.7376499558017985
 40
0.8568695616832559
 40
0.9094902689982631
 40
0.9625687137148118
 40
1.0
 40
1.0
 40
1.0
 40
1.0
 10
339.2581507360524
 20
439.8113901889015
 30
0.0
 10
339.2664582108075
 20
439.8161865760276
 30
0.0
 10
339.2839467171509
 20
439.8262837053181
 30
0.0
 10
339.4438200944381
 20
439.9185868020033
 30
0.0
 10
339.79514719049
 20
440.1214248517891
 30
0.0
 10
340.5964830380902
 20
440.584076701531
 30
0.0
 10
341.5583831549242
 20
441.1394270440565
 30
0.0
 10
342.8901067670301
 20
441.908302495955
 30
0.0
 10
344.059080700792
 20
442.5832072186217
 30
0.0
 10
345.071159459674
 20
443.1675318632684
 30
0.0
 10
345.5162725851699
 20
443.4245179390379
 30
0.0
 10
345.7239702999672
 20
443.5444320763674
 30
0.0
 10
345.7481501133354
 20
443.5583929421975
 30
0.0
 10
345.7581499388402
 20
443.564166610508
 30
0.0
  0
SPLINE
  5
1AD
330
1F
100
AcDbEntity
  8
0
  6
Continuous
 62
     7
370
    15
100
AcDbSpline
210
0.0
220
0.0
230
1.0
 70
     8
 71
     3
 72
    18
 73
    14
 74
     0
 42
0.00000001
 43
0.00000001
 40
0.0
 40
0.0
 40
0.0
 40
0.0
 40
0.0391144275348088
 40
0.0780934735673154
 40
0.1389211545624288
 40
0.2382986526585598
 40
0.4914349086415306
 40
0.7614772292640539
 40
0.8314852532489198
 40
0.9019334654039421
 40
0.9480399914833755
 40
0.9875238007937313
 40
1.0
 40
1.0
 40
1.0
 40
1.0
 10
345.7581499388402
 20
443.564166610508
 30
0.0
 10
345.7688826916562
 20
443.55797016332
 30
0.0
 10
345.7903110494558
 20
443.5455987158724
 30
0.0
 10
345.973490277051
 20
443.4398396963489
 30
0.0
 10
346.3565362421139
 20
443.2186876059067
 30
0.0
 10
347.3544805489661
 20
442.6425257254494
 30
0.0
 10
348.9833036140148
 20
441.7021214666872
 30
0.0
 10
350.5479810082018
 20
440.798756412643
 30
0.0
 10
351.538145978002
 20
440.2270835051954
 30
0.0
 10
351.9371643089005
 20
439.996710606168
 30
0.0
 10
352.1755826285628
 20
439.8590593499844
 30
0.0
 10
352.2523665000072
 20
439.8147294195246
 30
0.0
 10
352.2570302521121
 20
439.8120367338786
 30
0.0
 10
352.2581500729507
 20
439.8113901889015
 30
0.0
  0
CIRCLE
  5
1AE
330
1F
100
AcDbEntity
  8
0
  6
Continuous
 62
     7
370
    15
100
AcDbCircle
 10
345.758150289
 20
436.0586127168
 30
0.0
 40
5.505553499465115
  0
SPLINE
  5
1AF
330
1F
100
AcDbEntity
  8
0
  6
Continuous
 62
     7
370
    15
100
AcDbSpline
210
0.0
220
0.0
230
1.0
 70
    24
 71
     3
 72
    18
 73
    14
 74
     0
 42
0.00000001
 43
0.00000001
 40
0.0
 40
0.0
 40
0.0
 40
0.0
 40
0.0391144220028492
 40
0.0780934873876555
 40
0.1389212026400468
 40
0.2382986239597648
 40
0.4914348450329667
 40
0.7614773207528106
 40
0.8314851898061555
 40
0.9019333850182957
 40
0.9480400169873977
 40
0.9875237889369614
 40
1.0
 40
1.0
 40
1.0
 40
1.0
 10
352.2581500729507
 20
439.8113901889015
 30
0.0
 10
352.2581500729507
 20
439.7989972860529
 30
0.0
 10
352.2581500729507
 20
439.7742543663636
 30
0.0
 10
352.2581500729507
 20
439.5627363210126
 30
0.0
 10
352.2581500729507
 20
439.1204327093473
 30
0.0
 10
352.2581500729507
 20
437.9681072920646
 30
0.0
 10
352.2581500729507
 20
436.0873026128567
 30
0.0
 10
352.2581500729507
 20
434.2805700156657
 30
0.0
 10
352.2581500729507
 20
433.1372253856719
 30
0.0
 10
352.2581500729507
 20
432.6764808420879
 30
0.0
 10
352.2581500729507
 20
432.4011747262151
 30
0.0
 10
352.2581500729507
 20
432.3125175696607
 30
0.0
 10
352.2581500729507
 20
432.3071292764489
 30
0.0
 10
352.2581500729507
 20
432.3058354830433
 30
0.0
  0
SPLINE
  5
1B0
330
1F
100
AcDbEntity
  8
0
  6
Continuous
 62
     7
370
    15
100
AcDbSpline
210
0.0
220
0.0
230
1.0
 70
     8
 71
     3
 72
    11
 73
     7
 74
     0
 42
0.00000001
 43
0.00000001
 40
0.0
 40
0.0
 40
0.0
 40
0.0
 40
0.2999188080438095
 40
0.5572974269870642
 40
0.8169155825161898
 40
0.9999999999999999
 40
0.9999999999999999
 40
0.9999999999999999
 40
0.9999999999999999
 10
371.758150475282
 20
486.986816225021
 30
0.0
 10
371.9096059086872
 20
487.074259201174
 30
0.0
 10
372.1910344856092
 20
487.2367423276443
 30
0.0
 10
372.5149265648856
 20
487.4237399457087
 30
0.0
 10
372.7241941457709
 20
487.5445633230704
 30
0.0
 10
372.7482161009051
 20
487.5584305144191
 30
0.0
 10
372.7581506391948
 20
487.5641654407669
 30
0.0
  0
SPLINE
  5
1B1
330
1F
100
AcDbEntity
  8
0
  6
Continuous
 62
     7
370
    15
100
AcDbSpline
210
0.0
220
0.0
230
1.0
 70
     8
 71
     3
 72
    18
 73
    14
 74
     0
 42
0.00000001
 43
0.00000001
 40
0.0
 40
0.0
 40
0.0
 40
0.0
 40
0.0344352394795566
 40
0.0724914515936577
 40
0.1306344596127227
 40
0.2236191004444465
 40
0.4104356673623103
 40
0.5001954601018112
 40
0.7376499558017985
 40
0.8568695616832559
 40
0.9094902689982631
 40
0.9625687137148118
 40
1.0
 40
1.0
 40
1.0
 40
1.0
 10
379.2581498419827
 20
476.3058352446247
 30
0.0
 10
379.2498423672276
 20
476.3010388574986
 30
0.0
 10
379.2323538608843
 20
476.2909417282081
 30
0.0
 10
379.072480483597
 20
476.1986386315229
 30
0.0
 10
378.7211533875451
 20
475.9958005817371
 30
0.0
 10
377.9198175399449
 20
475.5331487319951
 30
0.0
 10
376.9579174231109
 20
474.9777983894696
 30
0.0
 10
375.626193811005
 20
474.2089229375712
 30
0.0
 10
374.4572198772431
 20
473.5340182149045
 30
0.0
 10
373.4451411183611
 20
472.9496935702578
 30
0.0
 10
373.0000279928652
 20
472.6927074944883
 30
0.0
 10
372.7923302780679
 20
472.5727933571588
 30
0.0
 10
372.7681504646997
 20
472.5588324913287
 30
0.0
 10
372.7581506391948
 20
472.5530588230181
 30
0.0
  0
SPLINE
  5
1B2
330
1F
100
AcDbEntity
  8
0
  6
Continuous
 62
     7
370
    15
100
AcDbSpline
210
0.0
220
0.0
230
1.0
 70
     8
 71
     3
 72
    11
 73
     7
 74
     0
 42
0.00000001
 43
0.00000001
 40
0.0
 40
0.0
 40
0.0
 40
0.0
 40
0.1905141882337386
 40
0.3803689753554451
 40
0.6766416552153754
 40
1.0
 40
1.0
 40
1.0
 40
1.0
 10
372.7581506391948
 20
472.5530588230181
 30
0.0
 10
372.7474628754538
 20
472.5592292937654
 30
0.0
 10
372.7261243400894
 20
472.5715488782401
 30
0.0
 10
372.5421478421017
 20
472.6777682372395
 30
0.0
 10
372.2274514621585
 20
472.8594583934037
 30
0.0
 10
371.9190774117267
 20
473.037498534658
 30
0.0
 10
371.758150475282
 20
473.1304099014092
 30
0.0
  0
SPLINE
  5
1B3
330
1F
100
AcDbEntity
  8
0
  6
Continuous
 62
     7
370
    15
100
AcDbSpline
210
0.0
220
0.0
230
1.0
 70
     8
 71
     3
 72
    18
 73
    14
 74
     0
 42
0.00000001
 43
0.00000001
 40
0.0
 40
0.0
 40
0.0
 40
0.0
 40
0.0391144119034069
 40
0.078093408974101
 40
0.1389211913490468
 40
0.2382986550740601
 40
0.4914349478662688
 40
0.7614771786732301
 40
0.8314852848035629
 40
0.9019334967458568
 40
0.9480399717019665
 40
0.9875238058522229
 40
1.0
 40
1.0
 40
1.0
 40
1.0
 10
372.7581506391948
 20
487.5641654407669
 30
0.0
 10
372.7688829870484
 20
487.5579687991071
 30
0.0
 10
372.7903105271644
 20
487.5455969686779
 30
0.0
 10
372.9734903869347
 20
487.4398413610047
 30
0.0
 10
373.3565369243693
 20
487.2186868377675
 30
0.0
 10
374.3544795197697
 20
486.6425239681846
 30
0.0
 10
375.9833048264981
 20
485.7021223897117
 30
0.0
 10
377.5479808863473
 20
484.7987553586761
 30
0.0
 10
378.5381463713748
 20
484.2270834665273
 30
0.0
 10
378.9371656831105
 20
483.9967104849883
 30
0.0
 10
379.1755814630702
 20
483.8590590130897
 30
0.0
 10
379.2523681666775
 20
483.8147291914235
 30
0.0
 10
379.2570303892763
 20
483.8120364970479
 30
0.0
 10
379.2581498419827
 20
483.811389950483
 30
0.0
  0
SPLINE
  5
1B4
330
1F
100
AcDbEntity
  8
0
  6
Continuous
 62
     7
370
    15
100
AcDbSpline
210
0.0
220
0.0
230
1.0
 70
    24
 71
     3
 72
    18
 73
    14
 74
     0
 42
0.00000001
 43
0.00000001
 40
0.0
 40
0.0
 40
0.0
 40
0.0
 40
0.0391144220028492
 40
0.0780934873876555
 40
0.1389212026400468
 40
0.2382986239597648
 40
0.4914348450329667
 40
0.7614773207528106
 40
0.8314851898061555
 40
0.9019333850182957
 40
0.9480400169873977
 40
0.9875237889369614
 40
1.0
 40
1.0
 40
1.0
 40
1.0
 10
379.2581498419827
 20
483.8113899504829
 30
0.0
 10
379.2581498419827
 20
483.7989970476343
 30
0.0
 10
379.2581498419827
 20
483.774254127945
 30
0.0
 10
379.2581498419827
 20
483.562736082594
 30
0.0
 10
379.2581498419827
 20
483.1204324709287
 30
0.0
 10
379.2581498419827
 20
481.9681070536461
 30
0.0
 10
379.2581498419827
 20
480.0873023744381
 30
0.0
 10
379.2581498419827
 20
478.2805697772471
 30
0.0
 10
379.2581498419827
 20
477.1372251472533
 30
0.0
 10
379.2581498419827
 20
476.6764806036693
 30
0.0
 10
379.2581498419827
 20
476.4011744877965
 30
0.0
 10
379.2581498419827
 20
476.3125173312421
 30
0.0
 10
379.2581498419827
 20
476.3071290380303
 30
0.0
 10
379.2581498419827
 20
476.3058352446247
 30
0.0
  0
SPLINE
  5
1B5
330
1F
100
AcDbEntity
  8
0
  6
Continuous
 62
     7
370
    15
100
AcDbSpline
210
0.0
220
0.0
230
1.0
 70
     8
 71
     3
 72
    14
 73
    10
 74
     0
 42
0.00000001
 43
0.00000001
 40
0.0
 40
0.0
 40
0.0
 40
0.0
 40
0.1575839895624381
 40
0.3151114587898928
 40
0.4729863876660276
 40
0.6308559498580241
 40
0.784361663980855
 40
0.9379123528715234
 40
1.0
 40
1.0
 40
1.0
 40
1.0
 10
367.2279413586443
 20
541.457036805718
 30
0.0
 10
366.4498956518843
 20
541.103737666029
 30
0.0
 10
364.8940832984649
 20
540.3972661037484
 30
0.0
 10
362.3433875787132
 20
539.7617510893284
 30
0.0
 10
359.7128168216501
 20
539.4960379647587
 30
0.0
 10
357.0863292465057
 20
539.6214569885509
 30
0.0
 10
354.5533802593735
 20
540.1346892728192
 30
0.0
 10
352.6362174444291
 20
540.8032437740412
 30
0.0
 10
351.5896826494384
 20
541.3108766568341
 30
0.0
 10
351.2883592193907
 20
541.457036805718
 30
0.0
  0
ARC
  5
1B6
330
1F
100
AcDbEntity
  8
0
  6
Continuous
 62
     7
370
    15
100
AcDbCircle
 10
359.258150289
 20
521.0586127168
 30
0.0
 40
21.9000758142471
100
AcDbArc
 50
59.9123247387
 51
68.6591038327
  0
SPLINE
  5
1B7
330
1F
100
AcDbEntity
  8
0
  6
Continuous
 62
     7
370
    15
100
AcDbSpline
210
0.0
220
0.0
230
1.0
 70
     8
 71
     3
 72
    14
 73
    10
 74
     0
 42
0.00000001
 43
0.00000001
 40
0.0
 40
0.0
 40
0.0
 40
0.0
 40
0.1575840198299455
 40
0.3151116070368226
 40
0.4729863857642592
 40
0.6308560555277986
 40
0.7843618572767252
 40
0.9379125400831833
 40
1.0
 40
1.0
 40
1.0
 40
1.0
 10
380.1753647422379
 20
527.5457895523
 30
0.0
 10
379.4140407532526
 20
527.9338119765531
 30
0.0
 10
377.8916654140289
 20
528.7097178698325
 30
0.0
 10
375.8044716906508
 20
530.3076999363112
 30
0.0
 10
373.9565872077776
 20
532.1986857097377
 30
0.0
 10
372.4170566142006
 20
534.3303556840991
 30
0.0
 10
371.2390559346803
 20
536.6306929343888
 30
0.0
 10
370.5664117707663
 20
538.5464242298855
 30
0.0
 10
370.310795475404
 20
539.6811415059781
 30
0.0
 10
370.2371973341292
 20
540.0078541761327
 30
0.0
  0
ARC
  5
1B8
330
1F
100
AcDbEntity
  8
0
  6
Continuous
 62
     7
370
    15
100
AcDbCircle
 10
359.258150289
 20
521.0586127168
 30
0.0
 40
21.90007581424712
100
AcDbArc
 50
8.4837533101
 51
17.2305324042
  0
SPLINE
  5
1B9
330
1F
100
AcDbEntity
  8
0
  6
Continuous
 62
     7
370
    15
100
AcDbSpline
210
0.0
220
0.0
230
1.0
 70
     8
 71
     3
 72
    14
 73
    10
 74
     0
 42
0.00000001
 43
0.00000001
 40
0.0
 40
0.0
 40
0.0
 40
0.0
 40
0.1575838565980358
 40
0.3151113298603443
 40
0.4729863064621247
 40
0.6308559195139813
 40
0.7843617631301113
 40
0.9379122054815406
 40
1.0
 40
1.0
 40
1.0
 40
1.0
 10
377.3716982250994
 20
508.7495654052187
 30
0.0
 10
377.2003881832044
 20
509.5867194679545
 30
0.0
 10
376.8578293939646
 20
511.2607280605959
 30
0.0
 10
376.8058363474457
 20
513.8888871907842
 30
0.0
 10
377.1321357422386
 20
516.5126315939585
 30
0.0
 10
377.838859696937
 20
519.0453607396844
 30
0.0
 10
378.9028626055102
 20
521.400595220817
 30
0.0
 10
379.9812550411933
 20
523.1209289612522
 30
0.0
 10
380.7090415149506
 20
524.0282614827023
 30
0.0
 10
380.9185899591034
 20
524.2895058518338
 30
0.0
  0
ARC
  5
1BA
330
1F
100
AcDbEntity
  8
0
  6
Continuous
 62
     7
370
    15
100
AcDbCircle
 10
359.258150289
 20
521.0586127168
 30
0.0
 40
21.90007581424718
100
AcDbArc
 50
317.0551818815
 51
325.8019609756
  0
SPLINE
  5
1BB
330
1F
100
AcDbEntity
  8
0
  6
Continuous
 62
     7
370
    15
100
AcDbSpline
210
0.0
220
0.0
230
1.0
 70
     8
 71
     3
 72
    14
 73
    10
 74
     0
 42
0.00000001
 43
0.00000001
 40
0.0
 40
0.0
 40
0.0
 40
0.0
 40
0.1575840496719295
 40
0.3151114511940764
 40
0.472986404612245
 40
0.6308559173735081
 40
0.7843616450530936
 40
0.9379122282134457
 40
1.0
 40
1.0
 40
1.0
 40
1.0
 10
360.9281613754069
 20
499.2223031049658
 30
0.0
 10
361.4758655527905
 20
499.8781967473239
 30
0.0
 10
362.5710770194312
 20
501.1897482520779
 30
0.0
 10
364.593438146127
 20
502.8690293214857
 30
0.0
 10
366.848207912506
 20
504.2497959313346
 30
0.0
 10
369.2690090494148
 20
505.2763895750739
 30
0.0
 10
371.7738012576389
 20
505.9129808777452
 30
0.0
 10
373.7911794585507
 20
506.1424713233977
 30
0.0
 10
374.9543289383462
 20
506.1391782095595
 30
0.0
 10
375.2892292832917
 20
506.1382300382543
 30
0.0
  0
ARC
  5
1BC
330
1F
100
AcDbEntity
  8
0
  6
Continuous
 62
     7
370
    15
100
AcDbCircle
 10
359.258150289
 20
521.0586127168
 30
0.0
 40
21.90007581424715
100
AcDbArc
 50
265.626610453
 51
274.373389547
  0
SPLINE
  5
1BD
330
1F
100
AcDbEntity
  8
0
  6
Continuous
 62
     7
370
    15
100
AcDbSpline
210
0.0
220
0.0
230
1.0
 70
     8
 71
     3
 72
    14
 73
    10
 74
     0
 42
0.00000001
 43
0.00000001
 40
0.0
 40
0.0
 40
0.0
 40
0.0
 40
0.1575839707205444
 40
0.3151114256560936
 40
0.4729863368774326
 40
0.630855849297625
 40
0.7843616147782884
 40
0.9379121894722523
 40
0.9999999999999999
 40
0.9999999999999999
 40
0.9999999999999999
 40
0.9999999999999999
 10
343.2270712947434
 20
506.1382300382543
 30
0.0
 10
344.0813571274359
 20
506.1189607528451
 30
0.0
 10
345.7896224124562
 20
506.0804290927474
 30
0.0
 10
348.3634584858313
 20
505.5462978933433
 30
0.0
 10
350.8488112032913
 20
504.6443415446025
 30
0.0
 10
353.1607794518125
 20
503.3917538326105
 30
0.0
 10
355.220198304976
 20
501.8303354345956
 30
0.0
 10
356.6574370174051
 20
500.3961711543386
 30
0.0
 10
357.3800736264661
 20
499.4847302657791
 30
0.0
 10
357.5881392026281
 20
499.2223031049658
 30
0.0
  0
ARC
  5
1BE
330
1F
100
AcDbEntity
  8
0
  6
Continuous
 62
     7
370
    15
100
AcDbCircle
 10
359.258150289
 20
521.0586127168
 30
0.0
 40
21.90007581424711
100
AcDbArc
 50
214.1980390244
 51
222.9448181185
  0
SPLINE
  5
1BF
330
1F
100
AcDbEntity
  8
0
  6
Continuous
 62
     7
370
    15
100
AcDbSpline
210
0.0
220
0.0
230
1.0
 70
     8
 71
     3
 72
    14
 73
    10
 74
     0
 42
0.00000001
 43
0.00000001
 40
0.0
 40
0.0
 40
0.0
 40
0.0
 40
0.1575838729478261
 40
0.3151114770653424
 40
0.472986390394961
 40
0.6308558517556957
 40
0.784361732766761
 40
0.9379122330564561
 40
1.0
 40
1.0
 40
1.0
 40
1.0
 10
337.5977106189316
 20
524.2895058518338
 30
0.0
 10
338.1152832308784
 20
523.609584726952
 30
0.0
 10
339.1502436439478
 20
522.2499852581634
 30
0.0
 10
340.3374047297856
 20
519.9046548259137
 30
0.0
 10
341.1818188414036
 20
517.3991672685173
 30
0.0
 10
341.6439925824441
 20
514.8106221448431
 30
0.0
 10
341.7072552177085
 20
512.2269760281209
 30
0.0
 10
341.4820837900014
 20
510.2091114847658
 30
0.0
 10
341.2200488946127
 20
509.0758580306072
 30
0.0
 10
341.1446023529356
 20
508.7495654052187
 30
0.0
  0
ARC
  5
1C0
330
1F
100
AcDbEntity
  8
0
  6
Continuous
 62
     7
370
    15
100
AcDbCircle
 10
359.258150289
 20
521.0586127168
 30
0.0
 40
21.9000758142471
100
AcDbArc
 50
162.7694675958
 51
171.5162466899
  0
SPLINE
  5
1C1
330
1F
100
AcDbEntity
  8
0
  6
Continuous
 62
     7
370
    15
100
AcDbSpline
210
0.0
220
0.0
230
1.0
 70
     8
 71
     3
 72
    14
 73
    10
 74
     0
 42
0.00000001
 43
0.00000001
 40
0.0
 40
0.0
 40
0.0
 40
0.0
 40
0.1575837626739429
 40
0.3151114913564611
 40
0.4729863663336266
 40
0.630855829780329
 40
0.7843617205427525
 40
0.9379123559027851
 40
1.0
 40
1.0
 40
1.0
 40
1.0
 10
348.2791032439059
 20
540.0078541761327
 30
0.0
 10
348.0702194738462
 20
539.1792767187159
 30
0.0
 10
347.6525262090912
 20
537.522416431332
 30
0.0
 10
346.5590604617822
 20
535.1319646568119
 30
0.0
 10
345.1266713794738
 20
532.9096303095647
 30
0.0
 10
343.3910253044909
 20
530.9343576630623
 30
0.0
 10
341.4104954984495
 20
529.2740158821405
 30
0.0
 10
339.6924734819895
 20
528.1919416760314
 30
0.0
 10
338.6430818770698
 20
527.6902415450326
 30
0.0
 10
338.3409358357972
 20
527.5457895523
 30
0.0
  0
ARC
  5
1C2
330
1F
100
AcDbEntity
  8
0
  6
Continuous
 62
     7
370
    15
100
AcDbCircle
 10
359.258150289
 20
521.0586127168
 30
0.0
 40
21.9000758142471
100
AcDbArc
 50
111.3408961673
 51
120.0876752613
  0
LWPOLYLINE
  5
1C3
330
1F
100
AcDbEntity
  8
0
  6
Continuous
 62
     7
370
    15
100
AcDbPolyline
 90
        9
 70
   128
 43
0.0
 10
380.9185899591
 20
524.2895058518
 10
381.0053203052
 20
524.204055143
 10
381.0823965615
 20
524.1199157363
 10
381.1476580596
 20
524.0394494658
 10
381.1992775446
 20
523.9649138575
 10
381.2358096039
 20
523.8984025246
 10
381.2562260574
 20
523.8417706614
 10
381.2599587982
 20
523.7966126924
 10
381.2469016558
 20
523.7641877657
  0
SPLINE
  5
1C4
330
1F
100
AcDbEntity
  8
0
  6
Continuous
 62
     7
370
    15
100
AcDbSpline
210
0.0
220
0.0
230
1.0
 70
     8
 71
     3
 72
    14
 73
    10
 74
     0
 42
0.00000001
 43
0.00000001
 40
0.0
 40
0.0
 40
0.0
 40
0.0
 40
0.062197086405053
 40
0.2157644472205569
 40
0.3692821796409627
 40
0.5269933041682833
 40
0.6847104685996322
 40
0.8423237299839177
 40
1.0
 40
1.0
 40
1.0
 40
1.0
 10
381.246901655752
 20
523.7641877656865
 30
0.0
 10
381.0489204397896
 20
523.5173719041942
 30
0.0
 10
380.3621148337523
 20
522.6611567501058
 30
0.0
 10
379.3431337571861
 20
521.0360194689413
 30
0.0
 10
378.337132539676
 20
518.8100737731472
 30
0.0
 10
377.6691171617102
 20
516.415545700826
 30
0.0
 10
377.360518472378
 20
513.935001479538
 30
0.0
 10
377.41023081784
 20
511.4508283410699
 30
0.0
 10
377.7336724682123
 20
509.8706561507947
 30
0.0
 10
377.8954256122893
 20
509.0804121619154
 30
0.0
  0
LWPOLYLINE
  5
1C5
330
1F
100
AcDbEntity
  8
0
  6
Continuous
 62
     7
370
    15
100
AcDbPolyline
 90
        9
 70
   128
 43
0.0
 10
377.8954256123
 20
509.0804121619
 10
377.8931215202
 20
509.0455322689
 10
377.8701644188
 20
509.0064651495
 10
377.8271969205
 20
508.9643023139
 10
377.7654260194
 20
508.9202246791
 10
377.6865783876
 20
508.8754690414
 10
377.5928668475
 20
508.8312908238
 10
377.4869177287
 20
508.7889268225
 10
377.3716982251
 20
508.7495654052
  0
LWPOLYLINE
  5
1C6
330
1F
100
AcDbEntity
  8
0
  6
Continuous
 62
     7
370
    15
100
AcDbPolyline
 90
        9
 70
   128
 43
0.0
 10
370.2371973341
 20
540.0078541761
 10
370.358084867
 20
540.0223828083
 10
370.4719241505
 20
540.0301835662
 10
370.5755235424
 20
540.031040383
 10
370.6659801101
 20
540.0249309069
 10
370.7407587936
 20
540.0120190507
 10
370.7977641171
 20
539.9926698929
 10
370.8353988623
 20
539.9674347764
 10
370.8526078409
 20
539.9370066052
  0
SPLINE
  5
1C7
330
1F
100
AcDbEntity
  8
0
  6
Continuous
 62
     7
370
    15
100
AcDbSpline
210
0.0
220
0.0
230
1.0
 70
     8
 71
     3
 72
    14
 73
    10
 74
     0
 42
0.00000001
 43
0.00000001
 40
0.0
 40
0.0
 40
0.0
 40
0.0
 40
0.0621967807521329
 40
0.2157646413451217
 40
0.3692818905850748
 40
0.5269933969035341
 40
0.6847104251939594
 40
0.8423236864402633
 40
1.0
 40
1.0
 40
1.0
 40
1.0
 10
370.8526078408545
 20
539.9370066052365
 30
0.0
 10
370.9221364952343
 20
539.6283331503082
 30
0.0
 10
371.1633358787721
 20
538.5575250395028
 30
0.0
 10
371.7985984686695
 20
536.7475990185701
 30
0.0
 10
372.9116811619717
 20
534.573220139303
 30
0.0
 10
374.3672940555417
 20
532.5579795233523
 30
0.0
 10
376.1142573611713
 20
530.7701157263607
 30
0.0
 10
378.0874560808064
 20
529.2601259966054
 30
0.0
 10
379.5245467668574
 20
528.5277810409633
 30
0.0
 10
380.2432358061856
 20
528.1615353351522
 30
0.0
  0
LWPOLYLINE
  5
1C8
330
1F
100
AcDbEntity
  8
0
  6
Continuous
 62
     7
370
    15
100
AcDbPolyline
 90
        9
 70
   128
 43
0.0
 10
380.2432358062
 20
528.1615353352
 10
380.2690688318
 20
528.1379840499
 10
380.2852999216
 20
528.0956796533
 10
380.2914745903
 20
528.035799337
 10
380.2874214744
 20
527.9600194817
 10
380.2732523328
 20
527.8704709536
 10
380.2493639087
 20
527.7696645981
 10
380.2164267546
 20
527.6604167348
 10
380.1753647422
 20
527.5457895523
  0
LWPOLYLINE
  5
1C9
330
1F
100
AcDbEntity
  8
0
  6
Continuous
 62
     7
370
    15
100
AcDbPolyline
 90
        9
 70
   128
 43
0.0
 10
351.2883592194
 20
541.4570368057
 10
351.3523736766
 20
541.5606073266
 10
351.4172514697
 20
541.6544771915
 10
351.4811755886
 20
541.736008895
 10
351.5423532372
 20
541.8029151088
 10
351.5990703164
 20
541.8533331877
 10
351.6497375241
 20
541.8858400708
 10
351.6929345934
 20
541.8995267874
 10
351.7274512706
 20
541.8940133577
  0
SPLINE
  5
1CA
330
1F
100
AcDbEntity
  8
0
  6
Continuous
 62
     7
370
    15
100
AcDbSpline
210
0.0
220
0.0
230
1.0
 70
     8
 71
     3
 72
    14
 73
    10
 74
     0
 42
0.00000001
 43
0.00000001
 40
0.0
 40
0.0
 40
0.0
 40
0.0
 40
0.0621969817802278
 40
0.2157646271429416
 40
0.3692821123259299
 40
0.5269933332726533
 40
0.6847105920687145
 40
0.8423237521247355
 40
1.0
 40
1.0
 40
1.0
 40
1.0
 10
351.7274512706285
 20
541.8940133577275
 30
0.0
 10
352.0121331304194
 20
541.7559172127781
 30
0.0
 10
352.9997095943253
 20
541.2768543648377
 30
0.0
 10
354.8108481410234
 20
540.6450532602584
 30
0.0
 10
357.2048403448053
 20
540.1595885080965
 30
0.0
 10
359.6879807614471
 20
540.0411541477704
 30
0.0
 10
362.1750022416674
 20
540.2922725846123
 30
0.0
 10
364.5858303483211
 20
540.8935170001032
 30
0.0
 10
366.0544117024724
 20
541.560470087204
 30
0.0
 10
366.7888493074065
 20
541.8940133577275
 30
0.0
  0
LWPOLYLINE
  5
1CB
330
1F
100
AcDbEntity
  8
0
  6
Continuous
 62
     7
370
    15
100
AcDbPolyline
 90
        9
 70
   128
 43
0.0
 10
366.7888493074
 20
541.8940133577
 10
366.8233659847
 20
541.8995267874
 10
366.866563054
 20
541.8858400708
 10
366.9172302617
 20
541.8533331877
 10
366.9739473408
 20
541.8029151088
 10
367.0351249894
 20
541.736008895
 10
367.0990491083
 20
541.6544771915
 10
367.1639269015
 20
541.5606073266
 10
367.2279413586
 20
541.4570368057
  0
LWPOLYLINE
  5
1CC
330
1F
100
AcDbEntity
  8
0
  6
Continuous
 62
     7
370
    15
100
AcDbPolyline
 90
        9
 70
   128
 43
0.0
 10
375.2892292833
 20
506.1382300383
 10
375.2764925158
 20
506.0171394771
 10
375.2587657219
 20
505.9044196433
 10
375.2365480905
 20
505.8032258576
 10
375.2104598826
 20
505.7164005166
 10
375.1812331175
 20
505.6463687843
 10
375.1496892219
 20
505.5950976139
 10
375.1167092269
 20
505.5640212422
 10
375.0832170045
 20
505.5540151125
  0
SPLINE
  5
1CD
330
1F
100
AcDbEntity
  8
0
  6
Continuous
 62
     7
370
    15
100
AcDbSpline
210
0.0
220
0.0
230
1.0
 70
     8
 71
     3
 72
    14
 73
    10
 74
     0
 42
0.00000001
 43
0.00000001
 40
0.0
 40
0.0
 40
0.0
 40
0.0
 40
0.062196975307339
 40
0.2157645574773338
 40
0.369282116691738
 40
0.5269933299990428
 40
0.684710509271484
 40
0.8423237565605366
 40
1.0
 40
1.0
 40
1.0
 40
1.0
 10
375.0832170044964
 20
505.5540151124883
 30
0.0
 10
374.7668098987271
 20
505.5549160125639
 30
0.0
 10
373.669177114791
 20
505.5580412820026
 30
0.0
 10
371.7632696354029
 20
505.3414512971181
 30
0.0
 10
369.3957226568037
 20
504.7401222864233
 30
0.0
 10
367.1071045789563
 20
503.7694338076887
 30
0.0
 10
364.9753265890556
 20
502.4641140989767
 30
0.0
 10
363.0641196104333
 20
500.8763874601
 30
0.0
 10
362.0303527632744
 20
499.6382904933443
 30
0.0
 10
361.5133660642391
 20
499.0191183215071
 30
0.0
  0
LWPOLYLINE
  5
1CE
330
1F
100
AcDbEntity
  8
0
  6
Continuous
 62
     7
370
    15
100
AcDbPolyline
 90
        9
 70
   128
 43
0.0
 10
361.5133660642
 20
499.0191183215
 10
361.484660607
 20
498.9991731172
 10
361.4398022911
 20
498.9927618926
 10
361.3800484018
 20
499.0000671869
 10
361.3070736902
 20
499.0208803838
 10
361.2229228748
 20
499.0546203381
 10
361.1299546465
 20
499.1003445512
 10
361.0307742638
 20
499.1567640727
 10
360.9281613754
 20
499.222303105
  0
LWPOLYLINE
  5
1CF
330
1F
100
AcDbEntity
  8
0
  6
Continuous
 62
     7
370
    15
100
AcDbPolyline
 90
        9
 70
   128
 43
0.0
 10
357.5881392026
 20
499.222303105
 10
357.4855263142
 20
499.1567640727
 10
357.3863459315
 20
499.1003445512
 10
357.2933777032
 20
499.0546203381
 10
357.2092268879
 20
499.0208803838
 10
357.1362521762
 20
499.0000671869
 10
357.076498287
 20
498.9927618926
 10
357.031639971
 20
498.9991731172
 10
357.0029345138
 20
499.0191183215
  0
SPLINE
  5
1D0
330
1F
100
AcDbEntity
  8
0
  6
Continuous
 62
     7
370
    15
100
AcDbSpline
210
0.0
220
0.0
230
1.0
 70
     8
 71
     3
 72
    14
 73
    10
 74
     0
 42
0.00000001
 43
0.00000001
 40
0.0
 40
0.0
 40
0.0
 40
0.0
 40
0.0621970482684216
 40
0.2157646135090356
 40
0.3692820874012769
 40
0.5269933548666913
 40
0.6847105547087513
 40
0.8423237772052743
 40
1.0
 40
1.0
 40
1.0
 40
1.0
 10
357.0029345137959
 20
499.0191183215071
 30
0.0
 10
356.8063626094264
 20
499.2670578834528
 30
0.0
 10
356.1244450240453
 20
500.1271723944491
 30
0.0
 10
354.7667919803195
 20
501.4822269421239
 30
0.0
 10
352.820514160464
 20
502.9583286515533
 30
0.0
 10
350.6346686730225
 20
504.1424272786362
 30
0.0
 10
348.2849864135038
 20
504.9952645998736
 30
0.0
 10
345.8520339012044
 20
505.4995761560104
 30
0.0
 10
344.239507752989
 20
505.5358663765239
 30
0.0
 10
343.4330835735386
 20
505.5540151124883
 30
0.0
  0
LWPOLYLINE
  5
1D1
330
1F
100
AcDbEntity
  8
0
  6
Continuous
 62
     7
370
    15
100
AcDbPolyline
 90
        9
 70
   128
 43
0.0
 10
343.4330835735
 20
505.5540151125
 10
343.3995913511
 20
505.5640212422
 10
343.3666113561
 20
505.5950976139
 10
343.3350674605
 20
505.6463687843
 10
343.3058406955
 20
505.7164005166
 10
343.2797524875
 20
505.8032258576
 10
343.2575348562
 20
505.9044196433
 10
343.2398080623
 20
506.0171394771
 10
343.2270712947
 20
506.1382300383
  0
LWPOLYLINE
  5
1D2
330
1F
100
AcDbEntity
  8
0
  6
Continuous
 62
     7
370
    15
100
AcDbPolyline
 90
        9
 70
   128
 43
0.0
 10
338.3409358358
 20
527.5457895523
 10
338.2998738235
 20
527.6604167348
 10
338.2669366693
 20
527.7696645981
 10
338.2430482453
 20
527.8704709536
 10
338.2288791036
 20
527.9600194817
 10
338.2248259878
 20
528.035799337
 10
338.2310006564
 20
528.0956796533
 10
338.2472317463
 20
528.1379840499
 10
338.2730647718
 20
528.1615353352
  0
SPLINE
  5
1D3
330
1F
100
AcDbEntity
  8
0
  6
Continuous
 62
     7
370
    15
100
AcDbSpline
210
0.0
220
0.0
230
1.0
 70
     8
 71
     3
 72
    14
 73
    10
 74
     0
 42
0.00000001
 43
0.00000001
 40
0.0
 40
0.0
 40
0.0
 40
0.0
 40
0.0621969638425502
 40
0.2157645920421235
 40
0.36928226903717
 40
0.52699345793155
 40
0.6847107692943805
 40
0.8423237361046756
 40
1.0
 40
1.0
 40
1.0
 40
1.0
 10
338.2730647718495
 20
528.1615353351522
 30
0.0
 10
338.5585286885552
 20
528.2980070345634
 30
0.0
 10
339.5488182738585
 20
528.771434654331
 30
0.0
 10
341.1720077867383
 20
529.7935172155081
 30
0.0
 10
343.0441843578587
 20
531.3625392273666
 30
0.0
 10
344.68499432226
 20
533.2300922723679
 30
0.0
 10
346.0392985757796
 20
535.3310894593741
 30
0.0
 10
347.0723523119112
 20
537.5908194863282
 30
0.0
 10
347.4665528823474
 20
539.1548395686732
 30
0.0
 10
347.6636927371806
 20
539.9370066052365
 30
0.0
  0
LWPOLYLINE
  5
1D4
330
1F
100
AcDbEntity
  8
0
  6
Continuous
 62
     7
370
    15
100
AcDbPolyline
 90
        9
 70
   128
 43
0.0
 10
347.6636927372
 20
539.9370066052
 10
347.6809017157
 20
539.9674347764
 10
347.718536461
 20
539.9926698929
 10
347.7755417844
 20
540.0120190507
 10
347.8503204679
 20
540.0249309069
 10
347.9407770356
 20
540.031040383
 10
348.0443764275
 20
540.0301835662
 10
348.1582157111
 20
540.0223828083
 10
348.2791032439
 20
540.0078541761
  0
LWPOLYLINE
  5
1D5
330
1F
100
AcDbEntity
  8
0
  6
Continuous
 62
     7
370
    15
100
AcDbPolyline
 90
        9
 70
   128
 43
0.0
 10
341.1446023529
 20
508.7495654052
 10
341.0293828493
 20
508.7889268225
 10
340.9234337306
 20
508.8312908238
 10
340.8297221905
 20
508.8754690414
 10
340.7508745586
 20
508.9202246791
 10
340.6891036576
 20
508.9643023139
 10
340.6461361593
 20
509.0064651495
 10
340.6231790578
 20
509.0455322689
 10
340.6208749657
 20
509.0804121619
  0
SPLINE
  5
1D6
330
1F
100
AcDbEntity
  8
0
  6
Continuous
 62
     7
370
    15
100
AcDbSpline
210
0.0
220
0.0
230
1.0
 70
     8
 71
     3
 72
    14
 73
    10
 74
     0
 42
0.00000001
 43
0.00000001
 40
0.0
 40
0.0
 40
0.0
 40
0.0
 40
0.0621969450988841
 40
0.2157646484037262
 40
0.3692820507633522
 40
0.5269932192246933
 40
0.6847105563481471
 40
0.8423238890070012
 40
1.0
 40
1.0
 40
1.0
 40
1.0
 10
340.6208749657458
 20
509.0804121619154
 30
0.0
 10
340.6921614475326
 20
509.3886854069772
 30
0.0
 10
340.9394582022881
 20
510.4581023731532
 30
0.0
 10
341.1523961652125
 20
512.3644211020705
 30
0.0
 10
341.0929784620737
 20
514.806416149661
 30
0.0
 10
340.6558885946458
 20
517.2536515025931
 30
0.0
 10
339.8576625690926
 20
519.6224431956183
 30
0.0
 10
338.7350294280789
 20
521.8390366613474
 30
0.0
 10
337.7580072702634
 20
523.1223855536122
 30
0.0
 10
337.269398922283
 20
523.7641877656865
 30
0.0
  0
LWPOLYLINE
  5
1D7
330
1F
100
AcDbEntity
  8
0
  6
Continuous
 62
     7
370
    15
100
AcDbPolyline
 90
        9
 70
   128
 43
0.0
 10
337.2693989223
 20
523.7641877657
 10
337.2563417798
 20
523.7966126924
 10
337.2600745207
 20
523.8417706614
 10
337.2804909741
 20
523.8984025246
 10
337.3170230335
 20
523.9649138575
 10
337.3686425185
 20
524.0394494658
 10
337.4339040166
 20
524.1199157363
 10
337.5109802728
 20
524.204055143
 10
337.5977106189
 20
524.2895058518
  0
SPLINE
  5
1D8
330
1F
100
AcDbEntity
  8
0
  6
Continuous
 62
     7
370
    15
100
AcDbSpline
210
0.0
220
0.0
230
1.0
 70
     8
 71
     3
 72
     9
 73
     5
 74
     0
 42
0.00000001
 43
0.00000001
 40
0.0
 40
0.0
 40
0.0
 40
0.0
 40
0.0183955929897484
 40
1.0
 40
1.0
 40
1.0
 40
1.0
 10
378.7515513395851
 20
505.5131449526239
 30
0.0
 10
378.7521850973821
 20
505.5126396935678
 30
0.0
 10
378.7866367074652
 20
505.4851733837629
 30
0.0
 10
378.795006829749
 20
505.4784950240038
 30
0.0
 10
378.80322297867
 20
505.4719395166326
 30
0.0
  0
SPLINE
  5
1D9
330
1F
100
AcDbEntity
  8
0
  6
Continuous
 62
     7
370
    15
100
AcDbSpline
210
0.0
220
0.0
230
1.0
 70
     8
 71
     3
 72
    11
 73
     7
 74
     0
 42
0.00000001
 43
0.00000001
 40
0.0
 40
0.0
 40
0.0
 40
0.0
 40
0.1990397230720635
 40
0.4636309433290151
 40
0.7350855713532586
 40
1.0
 40
1.0
 40
1.0
 40
1.0
 10
378.7515513395851
 20
505.5131449526239
 30
0.0
 10
378.710137013676
 20
505.5930745508803
 30
0.0
 10
378.6136690187841
 20
505.7792576628117
 30
0.0
 10
378.2799958160093
 20
506.4609784283417
 30
0.0
 10
377.8249978608391
 20
507.4841088102411
 30
0.0
 10
377.5215648031684
 20
508.3311894908532
 30
0.0
 10
377.3716982250994
 20
508.7495654052187
 30
0.0
  0
SPLINE
  5
1DA
330
1F
100
AcDbEntity
  8
0
  6
Continuous
 62
     7
370
    15
100
AcDbSpline
210
0.0
220
0.0
230
1.0
 70
     8
 71
     3
 72
    12
 73
     8
 74
     0
 42
0.00000001
 43
0.00000001
 40
0.0
 40
0.0
 40
0.0
 40
0.0
 40
0.2490775700840004
 40
0.5012620868513469
 40
0.7464894001816916
 40
0.9925887383378214
 40
1.0
 40
1.0
 40
1.0
 40
1.0
 10
377.8954256122893
 20
509.0804121619154
 30
0.0
 10
377.9940509829187
 20
508.7169567512301
 30
0.0
 10
378.1925319584697
 20
507.9855122555409
 30
0.0
 10
378.5219261294879
 20
507.0879782139809
 30
0.0
 10
378.7629294524515
 20
506.5053793433688
 30
0.0
 10
378.8874630493212
 20
506.2310338036614
 30
0.0
 10
378.8760308535798
 20
506.2565553809068
 30
0.0
 10
378.8756966387814
 20
506.2573014920641
 30
0.0
  0
SPLINE
  5
1DB
330
1F
100
AcDbEntity
  8
0
  6
Continuous
 62
     7
370
    15
100
AcDbSpline
210
0.0
220
0.0
230
1.0
 70
     8
 71
     3
 72
     9
 73
     5
 74
     0
 42
0.00000001
 43
0.00000001
 40
0.0
 40
0.0
 40
0.0
 40
0.0
 40
0.0183955742224841
 40
1.0
 40
1.0
 40
1.0
 40
1.0
 10
383.5660233890599
 20
526.6067258244443
 30
0.0
 10
383.5668137152241
 20
526.6069054688553
 30
0.0
 10
383.6097765580615
 20
526.616671101
 30
0.0
 10
383.620212269514
 20
526.6190742897902
 30
0.0
 10
383.6304560100621
 20
526.6214332705426
 30
0.0
  0
SPLINE
  5
1DC
330
1F
100
AcDbEntity
  8
0
  6
Continuous
 62
     7
370
    15
100
AcDbSpline
210
0.0
220
0.0
230
1.0
 70
     8
 71
     3
 72
    11
 73
     7
 74
     0
 42
0.00000001
 43
0.00000001
 40
0.0
 40
0.0
 40
0.0
 40
0.0
 40
0.1990397775842763
 40
0.4636310035219456
 40
0.7350859116478996
 40
1.0
 40
1.0
 40
1.0
 40
1.0
 10
383.5660233890599
 20
526.6067258244443
 30
0.0
 10
383.4777100912415
 20
526.624180813526
 30
0.0
 10
383.2719985325328
 20
526.6648393904326
 30
0.0
 10
382.5309678294844
 20
526.8290148803223
 30
0.0
 10
381.4473657069566
 20
527.111197863591
 30
0.0
 10
380.5959039777852
 20
527.4021081702773
 30
0.0
 10
380.1753647422379
 20
527.5457895523
 30
0.0
  0
SPLINE
  5
1DD
330
1F
100
AcDbEntity
  8
0
  6
Continuous
 62
     7
370
    15
100
AcDbSpline
210
0.0
220
0.0
230
1.0
 70
     8
 71
     3
 72
    12
 73
     8
 74
     0
 42
0.00000001
 43
0.00000001
 40
0.0
 40
0.0
 40
0.0
 40
0.0
 40
0.2490775577340139
 40
0.5012619988615852
 40
0.746489596738261
 40
0.9925887536988371
 40
0.9999999999999999
 40
0.9999999999999999
 40
0.9999999999999999
 40
0.9999999999999999
 10
380.2432358061856
 20
528.1615353351522
 30
0.0
 10
380.5888886536671
 20
528.012032382758
 30
0.0
 10
381.2845058695137
 20
527.7111616442031
 30
0.0
 10
382.1915986107441
 20
527.4090937256403
 30
0.0
 10
382.7973646468312
 20
527.2342619155636
 30
0.0
 10
383.0894830549108
 20
527.1605838911518
 30
0.0
 10
383.0624141533583
 20
527.167558106377
 30
0.0
 10
383.0616228079384
 20
527.1677619939733
 30
0.0
  0
SPLINE
  5
1DE
330
1F
100
AcDbEntity
  8
0
  6
Continuous
 62
     7
370
    15
100
AcDbSpline
210
0.0
220
0.0
230
1.0
 70
     8
 71
     3
 72
    11
 73
     7
 74
     0
 42
0.00000001
 43
0.00000001
 40
0.0
 40
0.0
 40
0.0
 40
0.0
 40
0.3340942098482632
 40
0.6236934160485719
 40
0.9185171567950849
 40
1.0
 40
1.0
 40
1.0
 40
1.0
 10
380.9185899591034
 20
524.2895058518338
 30
0.0
 10
381.3184059731724
 20
524.6795220782243
 30
0.0
 10
382.0647901015261
 20
525.4076117768224
 30
0.0
 10
382.9877134189757
 20
526.1648858209348
 30
0.0
 10
383.4273807309187
 20
526.5026150505549
 30
0.0
 10
383.5413461088418
 20
526.588194942424
 30
0.0
 10
383.5660233890599
 20
526.6067258244443
 30
0.0
  0
SPLINE
  5
1DF
330
1F
100
AcDbEntity
  8
0
  6
Continuous
 62
     7
370
    15
100
AcDbSpline
210
0.0
220
0.0
230
1.0
 70
     8
 71
     3
 72
    11
 73
     7
 74
     0
 42
0.00000001
 43
0.00000001
 40
0.0
 40
0.0
 40
0.0
 40
0.0
 40
0.2289939524639953
 40
0.4754087807087898
 40
0.7174852726717309
 40
0.9999999999999999
 40
0.9999999999999999
 40
0.9999999999999999
 40
0.9999999999999999
 10
383.3668246662205
 20
525.8923194533277
 30
0.0
 10
383.3528649525459
 20
525.8810578692406
 30
0.0
 10
383.3238835301733
 20
525.8576779681467
 30
0.0
 10
382.8680367665369
 20
525.4641695671681
 30
0.0
 10
382.1399254564514
 20
524.7824948075514
 30
0.0
 10
381.559490574975
 20
524.1206301106772
 30
0.0
 10
381.246901655752
 20
523.7641877656865
 30
0.0
  0
SPLINE
  5
1E0
330
1F
100
AcDbEntity
  8
0
  6
Continuous
 62
     7
370
    15
100
AcDbSpline
210
0.0
220
0.0
230
1.0
 70
     8
 71
     3
 72
    11
 73
     7
 74
     0
 42
0.00000001
 43
0.00000001
 40
0.0
 40
0.0
 40
0.0
 40
0.0
 40
0.3340936910425514
 40
0.6236934665616011
 40
0.9185172436665022
 40
0.9999999999999999
 40
0.9999999999999999
 40
0.9999999999999999
 40
0.9999999999999999
 10
375.2892292832917
 20
506.1382300382543
 30
0.0
 10
375.8434357382118
 20
506.0688101993666
 30
0.0
 10
376.8780405641253
 20
505.9392157139724
 30
0.0
 10
378.0455376047454
 20
505.6898018898093
 30
0.0
 10
378.5837162144702
 20
505.5566272768655
 30
0.0
 10
378.7216780574672
 20
505.5208844513631
 30
0.0
 10
378.7515513395851
 20
505.5131449526239
 30
0.0
  0
SPLINE
  5
1E1
330
1F
100
AcDbEntity
  8
0
  6
Continuous
 62
     7
370
    15
100
AcDbSpline
210
0.0
220
0.0
230
1.0
 70
     8
 71
     3
 72
    11
 73
     7
 74
     0
 42
0.00000001
 43
0.00000001
 40
0.0
 40
0.0
 40
0.0
 40
0.0
 40
0.2289940104156674
 40
0.4754088132423777
 40
0.7174854151439867
 40
0.9999999999999999
 40
0.9999999999999999
 40
0.9999999999999999
 40
0.9999999999999999
 10
378.0688062107151
 20
505.2234589284349
 30
0.0
 10
378.051297612516
 20
505.2273517121253
 30
0.0
 10
378.0149484439229
 20
505.2354334242675
 30
0.0
 10
377.423076240066
 20
505.3464761335301
 30
0.0
 10
376.4361517803626
 20
505.490724895117
 30
0.0
 10
375.5567903823413
 20
505.5318613748805
 30
0.0
 10
375.0832170044964
 20
505.5540151124883
 30
0.0
  0
SPLINE
  5
1E2
330
1F
100
AcDbEntity
  8
0
  6
Continuous
 62
     7
370
    15
100
AcDbSpline
210
0.0
220
0.0
230
1.0
 70
     8
 71
     3
 72
    11
 73
     7
 74
     0
 42
0.00000001
 43
0.00000001
 40
0.0
 40
0.0
 40
0.0
 40
0.0
 40
0.3340935920687578
 40
0.6236932283992602
 40
0.9185173274860267
 40
1.0
 40
1.0
 40
1.0
 40
1.0
 10
370.2371973341292
 20
540.0078541761327
 30
0.0
 10
370.1815533830517
 20
540.5636129787995
 30
0.0
 10
370.0776760375643
 20
541.6011156728805
 30
0.0
 10
370.061046277063
 20
542.7948378614999
 30
0.0
 10
370.0711218166038
 20
543.349165173519
 30
0.0
 10
370.0752728311325
 20
543.4916186003758
 30
0.0
 10
370.0761716609782
 20
543.5224644070554
 30
0.0
  0
SPLINE
  5
1E3
330
1F
100
AcDbEntity
  8
0
  6
Continuous
 62
     7
370
    15
100
AcDbSpline
210
0.0
220
0.0
230
1.0
 70
     8
 71
     3
 72
    10
 73
     6
 74
     0
 42
0.00000001
 43
0.00000001
 40
0.0
 40
0.0
 40
0.0
 40
0.0
 40
0.0181983674307245
 40
0.994628241283222
 40
1.0
 40
1.0
 40
1.0
 40
1.0
 10
370.0761716609782
 20
543.5224644070554
 30
0.0
 10
370.0765215968951
 20
543.5231922161832
 30
0.0
 10
370.0956472765466
 20
543.5629704828659
 30
0.0
 10
370.1142539418433
 20
543.6017404405587
 30
0.0
 10
370.104898270994
 20
543.58211681448
 30
0.0
 10
370.1048470830506
 20
543.582009447186
 30
0.0
  0
SPLINE
  5
1E4
330
1F
100
AcDbEntity
  8
0
  6
Continuous
 62
     7
370
    15
100
AcDbSpline
210
0.0
220
0.0
230
1.0
 70
     8
 71
     3
 72
    11
 73
     7
 74
     0
 42
0.00000001
 43
0.00000001
 40
0.0
 40
0.0
 40
0.0
 40
0.0
 40
0.228993765262603
 40
0.4754090572825531
 40
0.7174846373331285
 40
0.9999999999999999
 40
0.9999999999999999
 40
0.9999999999999999
 40
0.9999999999999999
 10
370.5105200206822
 20
542.9212994104314
 30
0.0
 10
370.5106207389749
 20
542.9033659936389
 30
0.0
 10
370.5108298380678
 20
542.8661348106787
 30
0.0
 10
370.5342724017929
 20
542.2643793973059
 30
0.0
 10
370.6132552374133
 20
541.2701091683025
 30
0.0
 10
370.7688260798705
 20
540.4036390073926
 30
0.0
 10
370.8526078408545
 20
539.9370066052365
 30
0.0
  0
SPLINE
  5
1E5
330
1F
100
AcDbEntity
  8
0
  6
Continuous
 62
     7
370
    15
100
AcDbSpline
210
0.0
220
0.0
230
1.0
 70
     8
 71
     3
 72
    11
 73
     7
 74
     0
 42
0.00000001
 43
0.00000001
 40
0.0
 40
0.0
 40
0.0
 40
0.0
 40
0.1990397669900164
 40
0.4636306987388487
 40
0.7350854611498059
 40
1.0
 40
1.0
 40
1.0
 40
1.0
 10
370.0761716609782
 20
543.5224644070554
 30
0.0
 10
370.0074613257808
 20
543.4643021811378
 30
0.0
 10
369.847411797991
 20
543.3288227548389
 30
0.0
 10
369.2570334303313
 20
542.8518231933671
 30
0.0
 10
368.3608003294208
 20
542.1805644744824
 30
0.0
 10
367.6024788156631
 20
541.696244174095
 30
0.0
 10
367.2279413586443
 20
541.457036805718
 30
0.0
  0
SPLINE
  5
1E6
330
1F
100
AcDbEntity
  8
0
  6
Continuous
 62
     7
370
    15
100
AcDbSpline
210
0.0
220
0.0
230
1.0
 70
     8
 71
     3
 72
    12
 73
     8
 74
     0
 42
0.00000001
 43
0.00000001
 40
0.0
 40
0.0
 40
0.0
 40
0.0
 40
0.2490770039230044
 40
0.5012621749288917
 40
0.7464893708737228
 40
0.9925887868751846
 40
1.0
 40
1.0
 40
1.0
 40
1.0
 10
366.7888493074065
 20
541.8940133577275
 30
0.0
 10
367.1212454252678
 20
542.0710412355262
 30
0.0
 10
367.7901855456032
 20
542.4273060759199
 30
0.0
 10
368.591914098591
 20
542.9481632933773
 30
0.0
 10
369.1062948130331
 20
543.3127770696251
 30
0.0
 10
369.3460144378354
 20
543.4951838463911
 30
0.0
 10
369.3237006756535
 20
543.4784005825421
 30
0.0
 10
369.3230483477896
 20
543.4779099350858
 30
0.0
  0
SPLINE
  5
1E7
330
1F
100
AcDbEntity
  8
0
  6
Continuous
 62
     7
370
    15
100
AcDbSpline
210
0.0
220
0.0
230
1.0
 70
     8
 71
     3
 72
    11
 73
     7
 74
     0
 42
0.00000001
 43
0.00000001
 40
0.0
 40
0.0
 40
0.0
 40
0.0
 40
0.1990398935210144
 40
0.4636310893162942
 40
0.7350860357854342
 40
1.0
 40
1.0
 40
1.0
 40
1.0
 10
359.2581502890175
 20
496.1256182914663
 30
0.0
 10
359.2948205689058
 20
496.2078331247826
 30
0.0
 10
359.3802380272321
 20
496.3993392196368
 30
0.0
 10
359.7051862641018
 20
497.0852590508071
 30
0.0
 10
360.2214160930266
 20
498.0789026073986
 30
0.0
 10
360.6945027009106
 20
498.8442808509224
 30
0.0
 10
360.9281613754069
 20
499.2223031049658
 30
0.0
  0
SPLINE
  5
1E8
330
1F
100
AcDbEntity
  8
0
  6
Continuous
 62
     7
370
    15
100
AcDbSpline
210
0.0
220
0.0
230
1.0
 70
     8
 71
     3
 72
    11
 73
     7
 74
     0
 42
0.00000001
 43
0.00000001
 40
0.0
 40
0.0
 40
0.0
 40
0.0
 40
0.3340939036946958
 40
0.623693372276107
 40
0.9185172237481677
 40
1.0
 40
1.0
 40
1.0
 40
1.0
 10
357.5881392026281
 20
499.2223031049658
 30
0.0
 10
357.8794076753887
 20
498.7457244802166
 30
0.0
 10
358.4231536522077
 20
497.8560376995317
 30
0.0
 10
358.9560742298279
 20
496.7877464965816
 30
0.0
 10
359.1875055197198
 20
496.2839493446325
 30
0.0
 10
359.2455760968671
 20
496.1537999262242
 30
0.0
 10
359.2581502890175
 20
496.1256182914663
 30
0.0
  0
SPLINE
  5
1E9
330
1F
100
AcDbEntity
  8
0
  6
Continuous
 62
     7
370
    15
100
AcDbSpline
210
0.0
220
0.0
230
1.0
 70
    24
 71
     3
 72
     9
 73
     5
 74
     0
 42
0.00000001
 43
0.00000001
 40
0.0
 40
0.0
 40
0.0
 40
0.0
 40
0.0183958375774793
 40
1.0
 40
1.0
 40
1.0
 40
1.0
 10
359.2581502890175
 20
496.1256182914663
 30
0.0
 10
359.2581502890174
 20
496.1248073794676
 30
0.0
 10
359.2581502890105
 20
496.0807261031817
 30
0.0
 10
359.258150289014
 20
496.0700286151049
 30
0.0
 10
359.2581502890174
 20
496.0595279162813
 30
0.0
  0
SPLINE
  5
1EA
330
1F
100
AcDbEntity
  8
0
  6
Continuous
 62
     7
370
    15
100
AcDbSpline
210
0.0
220
0.0
230
1.0
 70
     8
 71
     3
 72
    12
 73
     8
 74
     0
 42
0.00000001
 43
0.00000001
 40
0.0
 40
0.0
 40
0.0
 40
0.0
 40
0.2490775105523554
 40
0.5012618434541865
 40
0.7464894207951862
 40
0.9925887556283933
 40
1.0
 40
1.0
 40
1.0
 40
1.0
 10
361.5133660642391
 20
499.0191183215071
 30
0.0
 10
361.2906979921103
 20
498.7153983649704
 30
0.0
 10
360.8425844387581
 20
498.1041700570844
 30
0.0
 10
360.3462386073322
 20
497.2870407447947
 30
0.0
 10
360.0409902133467
 20
496.7353682672948
 30
0.0
 10
359.9041878514401
 20
496.4669546045175
 30
0.0
 10
359.9169836742687
 20
496.4918031497901
 30
0.0
 10
359.9173577532133
 20
496.4925295835424
 30
0.0
  0
SPLINE
  5
1EB
330
1F
100
AcDbEntity
  8
0
  6
Continuous
 62
     7
370
    15
100
AcDbSpline
210
0.0
220
0.0
230
1.0
 70
     8
 71
     3
 72
    11
 73
     7
 74
     0
 42
0.00000001
 43
0.00000001
 40
0.0
 40
0.0
 40
0.0
 40
0.0
 40
0.2289939345890294
 40
0.4754089161865532
 40
0.7174853176715339
 40
1.0
 40
1.0
 40
1.0
 40
1.0
 10
358.6059797817802
 20
496.478794438212
 30
0.0
 10
358.5981070260499
 20
496.4949087121458
 30
0.0
 10
358.5817625832337
 20
496.5283631768668
 30
0.0
 10
358.2995551378521
 20
497.0603477218638
 30
0.0
 10
357.7969936293791
 20
497.9218899477306
 30
0.0
 10
357.2808824212447
 20
498.6350507823282
 30
0.0
 10
357.0029345137959
 20
499.0191183215071
 30
0.0
  0
SPLINE
  5
1EC
330
1F
100
AcDbEntity
  8
0
  6
Continuous
 62
     7
370
    15
100
AcDbSpline
210
0.0
220
0.0
230
1.0
 70
     8
 71
     3
 72
    11
 73
     7
 74
     0
 42
0.00000001
 43
0.00000001
 40
0.0
 40
0.0
 40
0.0
 40
0.0
 40
0.1990398481205498
 40
0.4636309830289351
 40
0.7350855818313166
 40
1.0
 40
1.0
 40
1.0
 40
1.0
 10
348.4401289170569
 20
543.5224644070554
 30
0.0
 10
348.4427619114821
 20
543.4324805311868
 30
0.0
 10
348.4488950441448
 20
543.2228777143655
 30
0.0
 10
348.4537361631906
 20
542.4638951689283
 30
0.0
 10
348.4197541133337
 20
541.344670314025
 30
0.0
 10
348.3256041967589
 20
540.449822465801
 30
0.0
 10
348.2791032439059
 20
540.0078541761327
 30
0.0
  0
SPLINE
  5
1ED
330
1F
100
AcDbEntity
  8
0
  6
Continuous
 62
     7
370
    15
100
AcDbSpline
210
0.0
220
0.0
230
1.0
 70
     8
 71
     3
 72
    11
 73
     7
 74
     0
 42
0.00000001
 43
0.00000001
 40
0.0
 40
0.0
 40
0.0
 40
0.0
 40
0.3340939984919393
 40
0.6236936653271609
 40
0.9185171619848397
 40
1.0
 40
1.0
 40
1.0
 40
1.0
 10
351.2883592193907
 20
541.457036805718
 30
0.0
 10
350.8191557473775
 20
541.7600429364707
 30
0.0
 10
349.9432368905135
 20
542.3257011199719
 30
0.0
 10
348.9995777039319
 20
543.0569793287193
 30
0.0
 10
348.5724750162712
 20
543.4104586510094
 30
0.0
 10
348.4636854719245
 20
543.502528271775
 30
0.0
 10
348.4401289170569
 20
543.5224644070554
 30
0.0
  0
SPLINE
  5
1EE
330
1F
100
AcDbEntity
  8
0
  6
Continuous
 62
     7
370
    15
100
AcDbSpline
210
0.0
220
0.0
230
1.0
 70
     8
 71
     3
 72
    10
 73
     6
 74
     0
 42
0.00000001
 43
0.00000001
 40
0.0
 40
0.0
 40
0.0
 40
0.0
 40
0.005371758716778
 40
0.9818016325692756
 40
1.0
 40
1.0
 40
1.0
 40
1.0
 10
348.4114534949845
 20
543.582009447186
 30
0.0
 10
348.411402307041
 20
543.58211681448
 30
0.0
 10
348.4020466361917
 20
543.60174044056
 30
0.0
 10
348.4206533014885
 20
543.5629704828657
 30
0.0
 10
348.4397789811399
 20
543.5231922161834
 30
0.0
 10
348.4401289170569
 20
543.5224644070554
 30
0.0
  0
SPLINE
  5
1EF
330
1F
100
AcDbEntity
  8
0
  6
Continuous
 62
     7
370
    15
100
AcDbSpline
210
0.0
220
0.0
230
1.0
 70
     8
 71
     3
 72
    11
 73
     7
 74
     0
 42
0.00000001
 43
0.00000001
 40
0.0
 40
0.0
 40
0.0
 40
0.0
 40
0.2289939585150409
 40
0.4754088814391948
 40
0.7174853892032148
 40
0.9999999999999999
 40
0.9999999999999999
 40
0.9999999999999999
 40
0.9999999999999999
 10
349.1809513216799
 20
543.4872306114125
 30
0.0
 10
349.1950366847818
 20
543.4761279275748
 30
0.0
 10
349.2242789703005
 20
543.4530779111531
 30
0.0
 10
349.709357392054
 20
543.0962225522746
 30
0.0
 10
350.5359592330752
 20
542.5380518664654
 30
0.0
 10
351.3103883047582
 20
542.1194488639023
 30
0.0
 10
351.7274512706285
 20
541.8940133577275
 30
0.0
  0
SPLINE
  5
1F0
330
1F
100
AcDbEntity
  8
0
  6
Continuous
 62
     7
370
    15
100
AcDbSpline
210
0.0
220
0.0
230
1.0
 70
     8
 71
     3
 72
    12
 73
     8
 74
     0
 42
0.00000001
 43
0.00000001
 40
0.0
 40
0.0
 40
0.0
 40
0.0
 40
0.2490774965805392
 40
0.5012619417829152
 40
0.7464894866799567
 40
0.9925887699551922
 40
1.0
 40
1.0
 40
1.0
 40
1.0
 10
347.6636927371806
 20
539.9370066052365
 30
0.0
 10
347.7325312550772
 20
540.3072609400022
 30
0.0
 10
347.8710669703625
 20
541.0523880965941
 30
0.0
 10
347.9637166590836
 20
542.003952362429
 30
0.0
 10
347.999377408414
 20
542.633440236153
 30
0.0
 10
348.0061648962172
 20
542.9346150061366
 30
0.0
 10
348.0054231923395
 20
542.9066857532194
 30
0.0
 10
348.005401509065
 20
542.9058692580152
 30
0.0
  0
SPLINE
  5
1F1
330
1F
100
AcDbEntity
  8
0
  6
Continuous
 62
     7
370
    15
100
AcDbSpline
210
0.0
220
0.0
230
1.0
 70
     8
 71
     3
 72
    11
 73
     7
 74
     0
 42
0.00000001
 43
0.00000001
 40
0.0
 40
0.0
 40
0.0
 40
0.0
 40
0.3340939731626235
 40
0.6236933867161985
 40
0.9185172561105333
 40
0.9999999999999999
 40
0.9999999999999999
 40
0.9999999999999999
 40
0.9999999999999999
 10
341.1446023529356
 20
508.7495654052187
 30
0.0
 10
340.9536010306893
 20
508.2247001985253
 30
0.0
 10
340.5970358989947
 20
507.2448712143827
 30
0.0
 10
340.0940814339733
 20
506.162149077313
 30
0.0
 10
339.8444932696393
 20
505.6670936614896
 30
0.0
 10
339.7789430207393
 20
505.5405465577947
 30
0.0
 10
339.7647492384499
 20
505.5131449526239
 30
0.0
  0
SPLINE
  5
1F2
330
1F
100
AcDbEntity
  8
0
  6
Continuous
 62
     7
370
    15
100
AcDbSpline
210
0.0
220
0.0
230
1.0
 70
     8
 71
     3
 72
    10
 73
     6
 74
     0
 42
0.00000001
 43
0.00000001
 40
0.0
 40
0.0
 40
0.0
 40
0.0
 40
0.0181979781576609
 40
0.9946288635019511
 40
0.9999999999999999
 40
0.9999999999999999
 40
0.9999999999999999
 40
0.9999999999999999
 10
339.7647492384499
 20
505.5131449526239
 30
0.0
 10
339.7641182837945
 20
505.5126419139784
 30
0.0
 10
339.7296328202769
 20
505.4851478290867
 30
0.0
 10
339.6962120350777
 20
505.4586266431875
 30
0.0
 10
339.7129858350712
 20
505.4718633772468
 30
0.0
 10
339.7130775993651
 20
505.4719357913423
 30
0.0
  0
SPLINE
  5
1F3
330
1F
100
AcDbEntity
  8
0
  6
Continuous
 62
     7
370
    15
100
AcDbSpline
210
0.0
220
0.0
230
1.0
 70
     8
 71
     3
 72
    11
 73
     7
 74
     0
 42
0.00000001
 43
0.00000001
 40
0.0
 40
0.0
 40
0.0
 40
0.0
 40
0.2289939352826905
 40
0.4754088533104702
 40
0.7174851834349135
 40
1.0
 40
1.0
 40
1.0
 40
1.0
 10
339.6342523192948
 20
506.2432347958971
 30
0.0
 10
339.6419424731084
 20
506.2594372619716
 30
0.0
 10
339.6579078182247
 20
506.2930748157689
 30
0.0
 10
339.8978766688235
 20
506.8453992322914
 30
0.0
 10
340.2581176095684
 20
507.775479634629
 30
0.0
 10
340.4938974279701
 20
508.6236409443054
 30
0.0
 10
340.6208749657458
 20
509.0804121619154
 30
0.0
  0
SPLINE
  5
1F4
330
1F
100
AcDbEntity
  8
0
  6
Continuous
 62
     7
370
    15
100
AcDbSpline
210
0.0
220
0.0
230
1.0
 70
     8
 71
     3
 72
    11
 73
     7
 74
     0
 42
0.00000001
 43
0.00000001
 40
0.0
 40
0.0
 40
0.0
 40
0.0
 40
0.1990398958630833
 40
0.4636309419593653
 40
0.7350858673694979
 40
1.0
 40
1.0
 40
1.0
 40
1.0
 10
339.7647492384499
 20
505.5131449526239
 30
0.0
 10
339.8518913081311
 20
505.5357350713173
 30
0.0
 10
340.0548745325514
 20
505.588355064728
 30
0.0
 10
340.793748433741
 20
505.7619658989715
 30
0.0
 10
341.8924758442761
 20
505.9778835139373
 30
0.0
 10
342.785837533335
 20
506.0852174942446
 30
0.0
 10
343.2270712947434
 20
506.1382300382543
 30
0.0
  0
SPLINE
  5
1F5
330
1F
100
AcDbEntity
  8
0
  6
Continuous
 62
     7
370
    15
100
AcDbSpline
210
0.0
220
0.0
230
1.0
 70
     8
 71
     3
 72
    12
 73
     8
 74
     0
 42
0.00000001
 43
0.00000001
 40
0.0
 40
0.0
 40
0.0
 40
0.0
 40
0.2490774024356143
 40
0.5012618876978359
 40
0.7464894455233066
 40
0.9925887541513094
 40
1.0
 40
1.0
 40
1.0
 40
1.0
 10
343.4330835735386
 20
505.5540151124883
 30
0.0
 10
343.0567947352977
 20
505.5387376416635
 30
0.0
 10
342.2995230939048
 20
505.5079921232423
 30
0.0
 10
341.3511987246422
 20
505.3865762987377
 30
0.0
 10
340.7295646442807
 20
505.2812698093699
 30
0.0
 10
340.4344157965158
 20
505.2208682448963
 30
0.0
 10
340.4618215778225
 20
505.2263605523804
 30
0.0
 10
340.462622771222
 20
505.2265211170603
 30
0.0
  0
SPLINE
  5
1F6
330
1F
100
AcDbEntity
  8
0
  6
Continuous
 62
     7
370
    15
100
AcDbSpline
210
0.0
220
0.0
230
1.0
 70
     8
 71
     3
 72
    11
 73
     7
 74
     0
 42
0.00000001
 43
0.00000001
 40
0.0
 40
0.0
 40
0.0
 40
0.0
 40
0.3340939569781355
 40
0.6236934286604647
 40
0.9185171615578488
 40
1.0
 40
1.0
 40
1.0
 40
1.0
 10
338.3409358357972
 20
527.5457895523
 30
0.0
 10
337.8114929548944
 20
527.3678713172333
 30
0.0
 10
336.8231181615972
 20
527.0357299188863
 30
0.0
 10
335.6630223507333
 20
526.7538922869878
 30
0.0
 10
335.1203612790983
 20
526.6403713271937
 30
0.0
 10
334.9805507910747
 20
526.6127144537272
 30
0.0
 10
334.9502771889752
 20
526.6067258244443
 30
0.0
  0
SPLINE
  5
1F7
330
1F
100
AcDbEntity
  8
0
  6
Continuous
 62
     7
370
    15
100
AcDbSpline
210
0.0
220
0.0
230
1.0
 70
     8
 71
     3
 72
    10
 73
     6
 74
     0
 42
0.00000001
 43
0.00000001
 40
0.0
 40
0.0
 40
0.0
 40
0.0
 40
0.0181979533415736
 40
0.9946286675330137
 40
0.9999999999999999
 40
0.9999999999999999
 40
0.9999999999999999
 40
0.9999999999999999
 10
334.9502771889752
 20
526.6067258244443
 30
0.0
 10
334.9494903671364
 20
526.6069046924405
 30
0.0
 10
334.9064857752242
 20
526.6166809147031
 30
0.0
 10
334.8647329699184
 20
526.6260228217725
 30
0.0
 10
334.8857278446463
 20
526.6214582428587
 30
0.0
 10
334.8858427053278
 20
526.6214332705426
 30
0.0
  0
SPLINE
  5
1F8
330
1F
100
AcDbEntity
  8
0
  6
Continuous
 62
     7
370
    15
100
AcDbSpline
210
0.0
220
0.0
230
1.0
 70
     8
 71
     3
 72
    11
 73
     7
 74
     0
 42
0.00000001
 43
0.00000001
 40
0.0
 40
0.0
 40
0.0
 40
0.0
 40
0.2289939861360192
 40
0.4754088477050813
 40
0.717485132991716
 40
1.0
 40
1.0
 40
1.0
 40
1.0
 10
335.4397188669031
 20
527.1639547472882
 30
0.0
 10
335.4571823607012
 20
527.1680450184798
 30
0.0
 10
335.4934378956326
 20
527.1765367310646
 30
0.0
 10
336.0748778595033
 20
527.3332933258921
 30
0.0
 10
337.0266525489174
 20
527.6315360691285
 30
0.0
 10
337.836777623721
 20
527.9760173628239
 30
0.0
 10
338.2730647718495
 20
528.1615353351522
 30
0.0
  0
SPLINE
  5
1F9
330
1F
100
AcDbEntity
  8
0
  6
Continuous
 62
     7
370
    15
100
AcDbSpline
210
0.0
220
0.0
230
1.0
 70
     8
 71
     3
 72
    11
 73
     7
 74
     0
 42
0.00000001
 43
0.00000001
 40
0.0
 40
0.0
 40
0.0
 40
0.0
 40
0.1990396920859
 40
0.4636311347598536
 40
0.73508510601762
 40
0.9999999999999999
 40
0.9999999999999999
 40
0.9999999999999999
 40
0.9999999999999999
 10
334.9502771889752
 20
526.6067258244443
 30
0.0
 10
335.022271326827
 20
526.5526824839633
 30
0.0
 10
335.189970158545
 20
526.4267971642518
 30
0.0
 10
335.786380569258
 20
525.9573508408579
 30
0.0
 10
336.640243374928
 20
525.2329691423892
 30
0.0
 10
337.2811594215345
 20
524.6014271590076
 30
0.0
 10
337.5977106189316
 20
524.2895058518338
 30
0.0
  0
SPLINE
  5
1FA
330
1F
100
AcDbEntity
  8
0
  6
Continuous
 62
     7
370
    15
100
AcDbSpline
210
0.0
220
0.0
230
1.0
 70
     8
 71
     3
 72
    12
 73
     8
 74
     0
 42
0.00000001
 43
0.00000001
 40
0.0
 40
0.0
 40
0.0
 40
0.0
 40
0.2490771536059501
 40
0.5012619806950943
 40
0.746489562889833
 40
0.9925887915403288
 40
1.0
 40
1.0
 40
1.0
 40
1.0
 10
337.269398922283
 20
523.7641877656865
 30
0.0
 10
337.0228430349658
 20
524.0488572828962
 30
0.0
 10
336.5266550440584
 20
524.6217480678365
 30
0.0
 10
335.8404567474523
 20
525.287469630711
 30
0.0
 10
335.3705423511552
 20
525.7078541134367
 30
0.0
 10
335.1392973267702
 20
525.9008791574225
 30
0.0
 10
335.1606786400853
 20
525.8829275342766
 30
0.0
 10
335.1613037085122
 20
525.8824027305532
 30
0.0
  0
LINE
  5
1FB
330
1F
100
AcDbEntity
  8
0
  6
Continuous
 62
     7
370
    15
100
AcDbLine
 10
298.2335664129
 20
426.0586111968
 30
0.0
 11
377.2581495142
 21
426.0586111968
 31
0.0
  0
ARC
  5
1FC
330
1F
100
AcDbEntity
  8
0
  6
Continuous
 62
     7
370
    15
100
AcDbCircle
 10
298.2335650794
 20
428.0586127168
 30
0.0
 40
2.000000000000055
100
AcDbArc
 50
206.178968704
 51
270.0
  0
ARC
  5
1FD
330
1F
100
AcDbEntity
  8
0
  6
Continuous
 62
     7
370
    15
100
AcDbCircle
 10
359.258150289
 20
458.0586127168
 30
0.0
 40
70.00000000000004
100
AcDbArc
 50
108.7192343652
 51
206.178968704
  0
CIRCLE
  5
1FE
330
1F
100
AcDbEntity
  8
0
  6
Continuous
 62
     7
370
    15
100
AcDbCircle
 10
296.258150289
 20
458.0586127168
 30
0.0
 40
2.0
  0
LINE
  5
1FF
330
1F
100
AcDbEntity
  8
0
  6
Continuous
 62
     7
370
    15
100
AcDbLine
 10
379.258149842
 20
428.0586133873
 30
0.0
 11
379.258149842
 21
476.1308266943
 31
0.0
  0
LINE
  5
200
330
1F
100
AcDbEntity
  8
0
  6
Continuous
 62
     7
370
    15
100
AcDbLine
 10
379.258149842
 20
483.9864003634
 30
0.0
 11
379.258149842
 21
520.7148737436
 31
0.0
  0
ARC
  5
201
330
1F
100
AcDbEntity
  8
0
  6
Continuous
 62
     7
370
    15
100
AcDbCircle
 10
377.258150289
 20
428.0586127168
 30
0.0
 40
2.0
100
AcDbArc
 50
270.0
 51
0.0
  0
CIRCLE
  5
202
330
1F
100
AcDbEntity
  8
0
  6
Continuous
 62
     7
370
    15
100
AcDbCircle
 10
296.258150289
 20
458.0586127168
 30
0.0
 40
0.5
  0
LINE
  5
203
330
1F
100
AcDbEntity
  8
0
  6
Continuous
 62
     7
370
    15
100
AcDbLine
 10
370.7581503114
 20
583.0586127168
 30
0.0
 11
373.7581498718
 21
583.0586127168
 31
0.0
  0
LINE
  5
204
330
1F
100
AcDbEntity
  8
0
  6
Continuous
 62
     7
370
    15
100
AcDbLine
 10
347.7581502667
 20
583.0586127168
 30
0.0
 11
370.7581503114
 21
583.0586127168
 31
0.0
  0
LINE
  5
205
330
1F
100
AcDbEntity
  8
0
  6
Continuous
 62
     7
370
    15
100
AcDbLine
 10
344.7581507063
 20
583.0586127168
 30
0.0
 11
347.7581502667
 21
583.0586127168
 31
0.0
  0
SPLINE
  5
206
330
1F
100
AcDbEntity
  8
0
  6
Continuous
 62
     7
370
    15
100
AcDbSpline
210
0.0
220
0.0
230
1.0
 70
    24
 71
     3
 72
    25
 73
    21
 74
     0
 42
0.00000001
 43
0.00000001
 40
0.0
 40
0.0
 40
0.0
 40
0.0
 40
0.0538123231101312
 40
0.1091759880269851
 40
0.1621848062399975
 40
0.2168212574523685
 40
0.2686305268618703
 40
0.3218383495235374
 40
0.3754863333651128
 40
0.4306773714206797
 40
0.497523548259531
 40
0.5514441948468405
 40
0.6069253404665967
 40
0.6608451445934758
 40
0.7163345826265648
 40
0.7701846486558553
 40
0.8256158485210645
 40
0.8791587532544757
 40
0.9344889497879436
 40
1.0
 40
1.0
 40
1.0
 40
1.0
 10
346.2679577788299
 20
703.0586174851346
 30
0.0
 10
346.3137350261925
 20
703.0586174851346
 30
0.0
 10
346.4066092215648
 20
703.0586174851347
 30
0.0
 10
346.9940354746026
 20
703.0586174851346
 30
0.0
 10
347.9526319628654
 20
703.0586174851346
 30
0.0
 10
349.2043431133637
 20
703.0586174851347
 30
0.0
 10
350.7280167959632
 20
703.0586174851346
 30
0.0
 10
352.4691596953206
 20
703.0586174851347
 30
0.0
 10
354.434189945425
 20
703.0586174851345
 30
0.0
 10
356.7102459810587
 20
703.0586174851347
 30
0.0
 10
359.0845068609966
 20
703.0586174851346
 30
0.0
 10
361.4593667586567
 20
703.0586174851347
 30
0.0
 10
363.5996280588407
 20
703.0586174851346
 30
0.0
 10
365.6356538873046
 20
703.0586174851346
 30
0.0
 10
367.4719186664597
 20
703.0586174851347
 30
0.0
 10
369.0885752052201
 20
703.0586174851347
 30
0.0
 10
370.4109310837551
 20
703.0586174851346
 30
0.0
 10
371.4133153984058
 20
703.0586174851347
 30
0.0
 10
372.139104216368
 20
703.0586174851347
 30
0.0
 10
372.1134931295641
 20
703.0586174851346
 30
0.0
 10
372.0996087213939
 20
703.0586174851346
 30
0.0
  0
ARC
  5
207
330
1F
100
AcDbEntity
  8
0
  6
Continuous
 62
     7
370
    15
100
AcDbCircle
 10
359.258150289
 20
458.0586127168
 30
0.0
 40
12.50000000000006
100
AcDbArc
 50
180.0
 51
0.0
  0
LINE
  5
208
330
1F
100
AcDbEntity
  8
0
  6
Continuous
 62
     7
370
    15
100
AcDbLine
 10
346.7581501028
 20
583.0586127168
 30
0.0
 11
346.7581501028
 21
537.071312142
 31
0.0
  0
LINE
  5
209
330
1F
100
AcDbEntity
  8
0
  6
Continuous
 62
     7
370
    15
100
AcDbLine
 10
346.7581501028
 20
505.2423573261
 30
0.0
 11
346.7581501028
 21
458.0586127168
 31
0.0
  0
LINE
  5
20A
330
1F
100
AcDbEntity
  8
0
  6
Continuous
 62
     7
370
    15
100
AcDbLine
 10
371.7581504753
 20
458.0586127168
 30
0.0
 11
371.7581504753
 21
505.2845276123
 31
0.0
  0
LINE
  5
20B
330
1F
100
AcDbEntity
  8
0
  6
Continuous
 62
     7
370
    15
100
AcDbLine
 10
371.7581504753
 20
537.0310715562
 30
0.0
 11
371.7581504753
 21
583.0586127168
 31
0.0
  0
LINE
  5
20C
330
1F
100
AcDbEntity
  8
0
  6
Continuous
 62
     7
370
    15
100
AcDbLine
 10
384.0581510013
 20
585.0586167699
 30
0.0
 11
384.0581510013
 21
331.0586086636
 31
0.0
  0
LINE
  5
20D
330
1F
100
AcDbEntity
  8
0
  6
Continuous
 62
     7
370
    15
100
AcDbLine
 10
380.2581500059
 20
585.0586167699
 30
0.0
 11
380.2581500059
 21
528.2411894923
 31
0.0
  0
LINE
  5
20E
330
1F
100
AcDbEntity
  8
0
  6
Continuous
 62
     7
370
    15
100
AcDbLine
 10
380.2581500059
 20
522.4254227405
 30
0.0
 11
380.2581500059
 21
331.0586086636
 31
0.0
  0
LINE
  5
20F
330
1F
100
AcDbEntity
  8
0
  6
Continuous
 62
     7
370
    15
100
AcDbLine
 10
338.2581505721
 20
585.0586167699
 30
0.0
 11
338.2581505721
 21
528.2410926348
 31
0.0
  0
LINE
  5
210
330
1F
100
AcDbEntity
  8
0
  6
Continuous
 62
     7
370
    15
100
AcDbLine
 10
338.2581505721
 20
426.0586111968
 30
0.0
 11
338.2581505721
 21
331.0586086636
 31
0.0
  0
LINE
  5
211
330
1F
100
AcDbEntity
  8
0
  6
Continuous
 62
     7
370
    15
100
AcDbLine
 10
334.4581495767
 20
585.0586167699
 30
0.0
 11
334.4581495767
 21
523.5182217484
 31
0.0
  0
LINE
  5
212
330
1F
100
AcDbEntity
  8
0
  6
Continuous
 62
     7
370
    15
100
AcDbLine
 10
334.4581495767
 20
426.0586111968
 30
0.0
 11
334.4581495767
 21
331.0586086636
 31
0.0
  0
LINE
  5
213
330
1F
100
AcDbEntity
  8
0
  6
Continuous
 62
     7
370
    15
100
AcDbLine
 10
377.2581495142
 20
426.0586111968
 30
0.0
 11
380.0581503456
 21
426.0586111968
 31
0.0
  0
LINE
  5
214
330
1F
100
AcDbEntity
  8
0
  6
Continuous
 62
     7
370
    15
100
AcDbLine
 10
379.258149842
 20
490.0586142367
 30
0.0
 11
380.0581503456
 21
490.0586142367
 31
0.0
  0
LINE
  5
215
330
1F
100
AcDbEntity
  8
0
  6
Continuous
 62
     7
370
    15
100
AcDbLine
 10
380.0581503456
 20
426.0586111968
 30
0.0
 11
380.0581503456
 21
490.0586142367
 31
0.0
  0
LINE
  5
216
330
1F
100
AcDbEntity
  8
0
  6
Continuous
 62
     7
370
    15
100
AcDbLine
 10
380.0581503456
 20
420.3774540847
 30
0.0
 11
338.4581502324
 21
420.3774540847
 31
0.0
  0
LINE
  5
217
330
1F
100
AcDbEntity
  8
0
  6
Continuous
 62
     7
370
    15
100
AcDbLine
 10
338.4581502324
 20
420.3774540847
 30
0.0
 11
338.4581502324
 21
426.0586111968
 31
0.0
  0
LINE
  5
218
330
1F
100
AcDbEntity
  8
0
  6
Continuous
 62
     7
370
    15
100
AcDbLine
 10
380.0581503456
 20
426.0586111968
 30
0.0
 11
380.0581503456
 21
420.3774540847
 31
0.0
  0
LINE
  5
219
330
1F
100
AcDbEntity
  8
0
  6
Continuous
 62
     7
370
    15
100
AcDbLine
 10
380.0581503456
 20
495.7397713488
 30
0.0
 11
380.0581503456
 21
490.0586142367
 31
0.0
  0
LINE
  5
21A
330
1F
100
AcDbEntity
  8
0
  6
Continuous
 62
     7
370
    15
100
AcDbLine
 10
338.4581502324
 20
330.7624331838
 30
0.0
 11
380.0581503456
 21
330.7624331838
 31
0.0
  0
LINE
  5
21B
330
1F
100
AcDbEntity
  8
0
  6
Continuous
 62
     7
370
    15
100
AcDbLine
 10
338.4581502324
 20
330.7624331838
 30
0.0
 11
338.4581502324
 21
420.3774540847
 31
0.0
  0
LINE
  5
21C
330
1F
100
AcDbEntity
  8
0
  6
Continuous
 62
     7
370
    15
100
AcDbLine
 10
380.0581503456
 20
330.7624331838
 30
0.0
 11
380.0581503456
 21
420.3774540847
 31
0.0
  0
LINE
  5
21D
330
1F
100
AcDbEntity
  8
0
  6
Continuous
 62
     7
370
    15
100
AcDbLine
 10
338.4581502324
 20
528.0332959419
 30
0.0
 11
338.4581502324
 21
585.3547922498
 31
0.0
  0
LINE
  5
21E
330
1F
100
AcDbEntity
  8
0
  6
Continuous
 62
     7
370
    15
100
AcDbLine
 10
380.0581503456
 20
495.7397713488
 30
0.0
 11
380.0581503456
 21
522.1047423011
 31
0.0
  0
LINE
  5
21F
330
1F
100
AcDbEntity
  8
0
  6
Continuous
 62
     7
370
    15
100
AcDbLine
 10
380.0581503456
 20
528.3411911851
 30
0.0
 11
380.0581503456
 21
585.3547922498
 31
0.0
  0
LINE
  5
220
330
1F
100
AcDbEntity
  8
0
  6
Continuous
 62
     7
370
    15
100
AcDbLine
 10
338.4581502324
 20
593.0586180812
 30
0.0
 11
344.7305844894
 21
593.0586180812
 31
0.0
  0
LINE
  5
221
330
1F
100
AcDbEntity
  8
0
  6
Continuous
 62
     7
370
    15
100
AcDbLine
 10
373.7858986279
 20
593.0586180812
 30
0.0
 11
380.0581503456
 21
593.0586180812
 31
0.0
  0
LINE
  5
222
330
1F
100
AcDbEntity
  8
0
  6
Continuous
 62
     7
370
    15
100
AcDbLine
 10
338.4581502324
 20
585.3547922498
 30
0.0
 11
338.4581502324
 21
593.0586180812
 31
0.0
  0
LINE
  5
223
330
1F
100
AcDbEntity
  8
0
  6
Continuous
 62
     7
370
    15
100
AcDbLine
 10
380.0581503456
 20
593.0586180812
 30
0.0
 11
380.0581503456
 21
585.3547922498
 31
0.0
  0
LINE
  5
224
330
1F
100
AcDbEntity
  8
0
  6
Continuous
 62
     7
370
    15
100
AcDbLine
 10
338.4581502324
 20
323.0586073523
 30
0.0
 11
380.0581503456
 21
323.0586073523
 31
0.0
  0
LINE
  5
225
330
1F
100
AcDbEntity
  8
0
  6
Continuous
 62
     7
370
    15
100
AcDbLine
 10
338.4581502324
 20
323.0586073523
 30
0.0
 11
338.4581502324
 21
330.7624331838
 31
0.0
  0
LINE
  5
226
330
1F
100
AcDbEntity
  8
0
  6
Continuous
 62
     7
370
    15
100
AcDbLine
 10
380.0581503456
 20
330.7624331838
 30
0.0
 11
380.0581503456
 21
323.0586073523
 31
0.0
  0
ARC
  5
227
330
1F
100
AcDbEntity
  8
0
  6
Continuous
 62
     8
370
    15
100
AcDbCircle
 10
372.758150289
 20
480.0586127168
 30
0.0
 40
5.505553499465124
100
AcDbArc
 50
259.5350043722
 51
300.0
  0
ARC
  5
228
330
1F
100
AcDbEntity
  8
0
  6
Continuous
 62
     8
370
    15
100
AcDbCircle
 10
372.758150289
 20
480.0586127168
 30
0.0
 40
5.50555349946518
100
AcDbArc
 50
300.0
 51
100.4649956278
  0
LINE
  5
229
330
1F
100
AcDbEntity
  8
0
  6
Continuous
 62
     8
370
    15
100
AcDbLine
 10
367.8717236763
 20
542.4979425198
 30
0.0
 11
366.7879529094
 21
541.8936408287
 31
0.0
  0
LINE
  5
22A
330
1F
100
AcDbEntity
  8
0
  6
Continuous
 62
     8
370
    15
100
AcDbLine
 10
342.1954117512
 20
505.4797290986
 30
0.0
 11
343.4340540117
 21
505.5539629584
 31
0.0
  0
SPLINE
  5
22B
330
1F
100
AcDbEntity
  8
0
  6
Continuous
 62
     8
370
    15
100
AcDbSpline
210
0.0
220
0.0
230
1.0
 70
     8
 71
     3
 72
    27
 73
    23
 74
     0
 42
0.00000001
 43
0.00000001
 40
0.0
 40
0.0
 40
0.0
 40
0.0
 40
0.0133474943967103
 40
0.0649880915211
 40
0.1186099276330642
 40
0.174022073050865
 40
0.227567945011265
 40
0.2826881975580287
 40
0.3362543219350547
 40
0.3913817584265136
 40
0.4449332291951966
 40
0.500033992762482
 40
0.5664043893058963
 40
0.6197037542952367
 40
0.6745337335692841
 40
0.7260352999118826
 40
0.7789241696857063
 40
0.8318974330674024
 40
0.8864296899230301
 40
0.9399842204142106
 40
0.9951549865944795
 40
1.0
 40
1.0
 40
1.0
 40
1.0
 10
374.2141319235748
 20
701.0508648281981
 30
0.0
 10
374.2246934105146
 20
701.0506970291644
 30
0.0
 10
374.2761166109632
 20
701.0498800264651
 30
0.0
 10
373.9857553834158
 20
701.0540511626762
 30
0.0
 10
373.3100745179457
 20
701.0684759129257
 30
0.0
 10
372.1421401046296
 20
701.0322618118374
 30
0.0
 10
370.6080759581935
 20
701.0047651864131
 30
0.0
 10
368.762737026455
 20
700.9778517514828
 30
0.0
 10
366.6294797726712
 20
700.9554897163539
 30
0.0
 10
364.3064877880755
 20
700.9385815082732
 30
0.0
 10
361.8189386540363
 20
700.9279916039886
 30
0.0
 10
359.0825203250332
 20
700.9241014311866
 30
0.0
 10
356.3466382548141
 20
700.9287751871519
 30
0.0
 10
353.7226955286597
 20
700.9415539463171
 30
0.0
 10
351.4730840461337
 20
700.9593327192342
 30
0.0
 10
349.4434142219948
 20
700.9819109690535
 30
0.0
 10
347.6951659268574
 20
701.0082512694091
 30
0.0
 10
346.2343785667993
 20
701.0360662993046
 30
0.0
 10
345.1167271665329
 20
701.0692611054545
 30
0.0
 10
344.4783005901147
 20
701.052413245667
 30
0.0
 10
344.2126077603467
 20
701.0494111567092
 30
0.0
 10
344.2773128017971
 20
701.0504666915491
 30
0.0
 10
344.2825363745874
 20
701.0505519038129
 30
0.0
  0
LINE
  5
22C
330
1F
100
AcDbEntity
  8
0
  6
Continuous
 62
     8
370
    15
100
AcDbLine
 10
379.258149842
 20
495.7397713488
 30
0.0
 11
380.0581503456
 21
495.7397713488
 31
0.0
  0
LINE
  5
22D
330
1F
100
AcDbEntity
  8
0
  6
Continuous
 62
     8
370
    15
100
AcDbLine
 10
380.0581503456
 20
585.3547922498
 30
0.0
 11
373.7643003261
 21
585.3547922498
 31
0.0
  0
LINE
  5
22E
330
1F
100
AcDbEntity
  8
0
  6
Continuous
 62
     8
370
    15
100
AcDbLine
 10
344.7520747578
 20
585.3547922498
 30
0.0
 11
338.4581502324
 21
585.3547922498
 31
0.0
  0
SPLINE
  5
22F
330
1F
100
AcDbEntity
  8
0
  6
Continuous
 62
     7
370
    15
100
AcDbSpline
210
0.0
220
0.0
230
1.0
 70
     8
 71
     3
 72
     9
 73
     5
 74
     0
 42
0.00000001
 43
0.00000001
 40
0.0
 40
0.0
 40
0.0
 40
0.0
 40
0.4999396635176762
 40
0.9999999999999999
 40
0.9999999999999999
 40
0.9999999999999999
 40
0.9999999999999999
 10
861.0697167821842
 20
205.2115450279822
 30
0.0
 10
860.8153341729636
 20
204.196243964691
 30
0.0
 10
860.3065075529059
 20
202.1653967697567
 30
0.0
 10
860.8182981868345
 20
200.1352841812511
 30
0.0
 10
861.0742243834453
 20
199.120105397146
 30
0.0
  0
LINE
  5
230
330
1F
100
AcDbEntity
  8
0
  6
Continuous
 62
     7
370
    15
100
AcDbLine
 10
874.6612149187
 20
205.1751442852
 30
0.0
 11
874.6610659071
 21
205.1751442852
 31
0.0
  0
LINE
  5
231
330
1F
100
AcDbEntity
  8
0
  6
Continuous
 62
     7
370
    15
100
AcDbLine
 10
871.6610747286
 20
205.1751442852
 30
0.0
 11
861.0609250971
 21
205.1751442852
 31
0.0
  0
LINE
  5
232
330
1F
100
AcDbEntity
  8
0
  6
Continuous
 62
     7
370
    15
100
AcDbLine
 10
861.0609250971
 20
199.1751446987
 30
0.0
 11
866.6110712
 21
199.1751446987
 31
0.0
  0
ARC
  5
233
330
1F
100
AcDbEntity
  8
0
  6
Continuous
 62
     7
370
    15
100
AcDbCircle
 10
877.9610693642
 20
176.1695910092
 30
0.0
 40
2.000000000000024
100
AcDbArc
 50
330.0356155143
 51
0.0
  0
LINE
  5
234
330
1F
100
AcDbEntity
  8
0
  6
Continuous
 62
     7
370
    15
100
AcDbLine
 10
874.6610659071
 20
175.1751449557
 30
0.0
 11
875.0610726782
 21
175.1751449557
 31
0.0
  0
ARC
  5
235
330
1F
100
AcDbEntity
  8
0
  6
Continuous
 62
     7
370
    15
100
AcDbCircle
 10
877.9610693642
 20
214.1806980081
 30
0.0
 40
2.000000000000017
100
AcDbArc
 50
0.0
 51
29.9594801506
  0
LINE
  5
236
330
1F
100
AcDbEntity
  8
0
  6
Continuous
 62
     7
370
    15
100
AcDbLine
 10
875.0610726782
 20
215.1751440616
 30
0.0
 11
874.6610659071
 21
215.1751440616
 31
0.0
  0
ARC
  5
237
330
1F
100
AcDbEntity
  8
0
  6
Continuous
 62
     7
370
    15
100
AcDbCircle
 10
867.6295313346
 20
195.1751445087
 30
0.0
 40
64.03153802959947
100
AcDbArc
 50
342.1867882218
 51
17.7801468858
  0
LINE
  5
238
330
1F
100
AcDbEntity
  8
0
  6
Continuous
 62
     7
370
    15
100
AcDbLine
 10
918.6610656687
 20
205.6751443671
 30
0.0
 11
899.6610718676
 21
205.6751443671
 31
0.0
  0
LINE
  5
239
330
1F
100
AcDbEntity
  8
0
  6
Continuous
 62
     7
370
    15
100
AcDbLine
 10
899.6610718676
 20
184.6751446502
 30
0.0
 11
918.6610656687
 21
184.6751446502
 31
0.0
  0
LINE
  5
23A
330
1F
100
AcDbEntity
  8
0
  6
Continuous
 62
     7
370
    15
100
AcDbLine
 10
871.6610747286
 20
125.1751442106
 30
0.0
 11
874.6610659071
 21
125.1751442106
 31
0.0
  0
LINE
  5
23B
330
1F
100
AcDbEntity
  8
0
  6
Continuous
 62
     7
370
    15
100
AcDbLine
 10
871.6610747286
 20
199.1751446987
 30
0.0
 11
866.6110712
 21
199.1751446987
 31
0.0
  0
LINE
  5
23C
330
1F
100
AcDbEntity
  8
0
  6
Continuous
 62
     7
370
    15
100
AcDbLine
 10
866.6110712
 20
191.1751443187
 30
0.0
 11
871.6610747286
 21
191.1751443187
 31
0.0
  0
LINE
  5
23D
330
1F
100
AcDbEntity
  8
0
  6
Continuous
 62
     7
370
    15
100
AcDbLine
 10
595.2110665747
 20
214.5751450809
 30
0.0
 11
591.2110733696
 21
210.5751444252
 31
0.0
  0
LINE
  5
23E
330
1F
100
AcDbEntity
  8
0
  6
Continuous
 62
     7
370
    15
100
AcDbLine
 10
591.2110733696
 20
179.7751445921
 30
0.0
 11
595.2110665747
 21
175.7751439365
 31
0.0
  0
LINE
  5
23F
330
1F
100
AcDbEntity
  8
0
  6
Continuous
 62
     7
370
    15
100
AcDbLine
 10
595.2110665747
 20
175.7751439365
 30
0.0
 11
598.711066217
 21
175.7751439365
 31
0.0
  0
LINE
  5
240
330
1F
100
AcDbEntity
  8
0
  6
Continuous
 62
     7
370
    15
100
AcDbLine
 10
598.711066217
 20
214.5751450809
 30
0.0
 11
595.2110665747
 21
214.5751450809
 31
0.0
  0
LINE
  5
241
330
1F
100
AcDbEntity
  8
0
  6
Continuous
 62
     7
370
    15
100
AcDbLine
 10
598.711066217
 20
179.2751435788
 30
0.0
 11
600.7110702702
 21
181.275144838
 31
0.0
  0
LINE
  5
242
330
1F
100
AcDbEntity
  8
0
  6
Continuous
 62
     7
370
    15
100
AcDbLine
 10
600.7110702702
 20
209.0751441794
 30
0.0
 11
598.711066217
 21
211.0751454385
 31
0.0
  0
LINE
  5
243
330
1F
100
AcDbEntity
  8
0
  6
Continuous
 62
     7
370
    15
100
AcDbLine
 10
601.6610639997
 20
203.1751448887
 30
0.0
 11
600.7110702702
 21
203.1751448887
 31
0.0
  0
LINE
  5
244
330
1F
100
AcDbEntity
  8
0
  6
Continuous
 62
     7
370
    15
100
AcDbLine
 10
600.7110702702
 20
187.1751441287
 30
0.0
 11
601.6610639997
 21
187.1751441287
 31
0.0
  0
LINE
  5
245
330
1F
100
AcDbEntity
  8
0
  6
Continuous
 62
     7
370
    15
100
AcDbLine
 10
609.661065311
 20
219.9751452209
 30
0.0
 11
609.661065311
 21
216.1751442255
 31
0.0
  0
LINE
  5
246
330
1F
100
AcDbEntity
  8
0
  6
Continuous
 62
     7
370
    15
100
AcDbLine
 10
863.6610734173
 20
216.1751442255
 30
0.0
 11
863.6610734173
 21
219.9751452209
 31
0.0
  0
LINE
  5
247
330
1F
100
AcDbEntity
  8
0
  6
Continuous
 62
     7
370
    15
100
AcDbLine
 10
609.661065311
 20
174.1751447918
 30
0.0
 11
609.661065311
 21
170.3751437964
 31
0.0
  0
LINE
  5
248
330
1F
100
AcDbEntity
  8
0
  6
Continuous
 62
     7
370
    15
100
AcDbLine
 10
863.6610734173
 20
170.3751437964
 30
0.0
 11
863.6610734173
 21
174.1751447918
 31
0.0
  0
LINE
  5
249
330
1F
100
AcDbEntity
  8
0
  6
Continuous
 62
     7
370
    15
100
AcDbLine
 10
630.6610706159
 20
174.375144452
 30
0.0
 11
630.6610706159
 21
174.1751447918
 31
0.0
  0
LINE
  5
24A
330
1F
100
AcDbEntity
  8
0
  6
Continuous
 62
     7
370
    15
100
AcDbLine
 10
630.6610706159
 20
216.1751442255
 30
0.0
 11
630.6610706159
 21
215.9751445653
 31
0.0
  0
LINE
  5
24B
330
1F
100
AcDbEntity
  8
0
  6
Continuous
 62
     7
370
    15
100
AcDbLine
 10
842.6610681125
 20
215.9751445653
 30
0.0
 11
842.6610681125
 21
216.1751442255
 31
0.0
  0
LINE
  5
24C
330
1F
100
AcDbEntity
  8
0
  6
Continuous
 62
     7
370
    15
100
AcDbLine
 10
842.6610681125
 20
174.1751447918
 30
0.0
 11
842.6610681125
 21
174.375144452
 31
0.0
  0
LWPOLYLINE
  5
24D
330
1F
100
AcDbEntity
  8
0
  6
Continuous
 62
     7
370
    15
100
AcDbPolyline
 90
       12
 70
   128
 43
0.0
 10
861.0609250971
 20
199.2139952855
 10
861.0609325477
 20
199.2449892351
 10
861.0609250971
 20
199.6231923478
 10
861.0608952948
 20
200.2891089434
 10
861.06096235
 20
201.1676613839
 10
861.0609101959
 20
202.159800254
 10
861.0609698006
 20
203.1536685901
 10
861.0608878442
 20
204.0372161793
 10
861.0609325477
 20
204.7108296903
 10
861.0609250971
 20
205.0985634925
 10
861.0609250971
 20
205.1747652369
 10
861.0609250971
 20
205.1747652369
  0
SPLINE
  5
24E
330
1F
100
AcDbEntity
  8
0
  6
Continuous
 62
     7
370
    15
100
AcDbSpline
210
0.0
220
0.0
230
1.0
 70
    24
 71
     3
 72
    10
 73
     6
 74
     0
 42
0.00000001
 43
0.00000001
 40
0.0
 40
0.0
 40
0.0
 40
0.0
 40
0.0482134718960426
 40
0.6336073366378592
 40
1.0
 40
1.0
 40
1.0
 40
1.0
 10
874.6612149187046
 20
204.6553498731961
 30
0.0
 10
874.6612149187046
 20
204.6740916198166
 30
0.0
 10
874.6612149187044
 20
204.9203901686074
 30
0.0
 10
874.6612149187046
 20
205.1059320598289
 30
0.0
 10
874.6612149187046
 20
205.1556328069005
 30
0.0
 10
874.6612149187046
 20
205.1747652368655
 30
0.0
  0
LINE
  5
24F
330
1F
100
AcDbEntity
  8
0
  6
Continuous
 62
     7
370
    15
100
AcDbLine
 10
875.0610726782
 20
184.9251442255
 30
0.0
 11
875.0610726782
 21
185.1736946629
 31
0.0
  0
SPLINE
  5
250
330
1F
100
AcDbEntity
  8
0
  6
Continuous
 62
     7
370
    15
100
AcDbSpline
210
0.0
220
0.0
230
1.0
 70
     8
 71
     3
 72
    10
 73
     6
 74
     0
 42
0.00000001
 43
0.00000001
 40
0.0
 40
0.0
 40
0.0
 40
0.0
 40
0.3305263512687682
 40
0.6599086961745293
 40
1.0
 40
1.0
 40
1.0
 40
1.0
 10
877.9610621639209
 20
181.6751441584935
 30
0.0
 10
878.0783022993597
 20
181.6862499809781
 30
0.0
 10
878.3123767827395
 20
181.708423186859
 30
0.0
 10
878.6345403463065
 20
181.8588323389125
 30
0.0
 10
878.7895960649602
 20
182.0159409286869
 30
0.0
 10
878.8683640666919
 20
182.0957517849317
 30
0.0
  0
LINE
  5
251
330
1F
100
AcDbEntity
  8
0
  6
Continuous
 62
     7
370
    15
100
AcDbLine
 10
877.9610621639
 20
181.6751441585
 30
0.0
 11
875.0610726782
 21
181.6751441585
 31
0.0
  0
LINE
  5
252
330
1F
100
AcDbEntity
  8
0
  6
Continuous
 62
     7
370
    15
100
AcDbLine
 10
875.0610726782
 20
181.6751441585
 30
0.0
 11
875.0610726782
 21
184.9251442255
 31
0.0
  0
SPLINE
  5
253
330
1F
100
AcDbEntity
  8
0
  6
Continuous
 62
     7
370
    15
100
AcDbSpline
210
0.0
220
0.0
230
1.0
 70
    24
 71
     3
 72
    13
 73
     9
 74
     0
 42
0.00000001
 43
0.00000001
 40
0.0
 40
0.0
 40
0.0
 40
0.0
 40
0.5225564912875813
 40
0.6626890889248451
 40
0.8037030738871911
 40
0.8959933005931686
 40
0.9750267521555018
 40
1.0
 40
1.0
 40
1.0
 40
1.0
 10
879.6858566709476
 20
175.1751449557056
 30
0.0
 10
879.659712490425
 20
175.1751449557056
 30
0.0
 10
879.6265572938867
 20
175.1751449557056
 30
0.0
 10
879.1611521356452
 20
175.1751449557056
 30
0.0
 10
878.8277956466868
 20
175.1751449557056
 30
0.0
 10
878.4417532774767
 20
175.1751449557056
 30
0.0
 10
878.1541813520885
 20
175.1751449557056
 30
0.0
 10
877.9984541264113
 20
175.1751449557056
 30
0.0
 10
877.9610621639209
 20
175.1751449557056
 30
0.0
  0
SPLINE
  5
254
330
1F
100
AcDbEntity
  8
0
  6
Continuous
 62
     7
370
    15
100
AcDbSpline
210
0.0
220
0.0
230
1.0
 70
     8
 71
     3
 72
    18
 73
    14
 74
     0
 42
0.00000001
 43
0.00000001
 40
0.0
 40
0.0
 40
0.0
 40
0.0
 40
0.0344352394795566
 40
0.0724914515936577
 40
0.1306344596127227
 40
0.2236191004444465
 40
0.4104356673623103
 40
0.5001954601018112
 40
0.7376499558017985
 40
0.8568695616832559
 40
0.9094902689982631
 40
0.9625687137148118
 40
1.0
 40
1.0
 40
1.0
 40
1.0
 10
877.9610621639209
 20
175.1751449557056
 30
0.0
 10
878.064659065063
 20
175.1834524304607
 30
0.0
 10
878.2827464040187
 20
175.2009409368041
 30
0.0
 10
878.6380529096197
 20
175.3608143140914
 30
0.0
 10
879.046113035593
 20
175.7121414101433
 30
0.0
 10
879.4990021732868
 20
176.5134772577435
 30
0.0
 10
879.6673042213755
 20
177.4753773745774
 30
0.0
 10
879.7191622966477
 20
178.8071009866833
 30
0.0
 10
879.6201521797892
 20
179.9760749204453
 30
0.0
 10
879.1644885360919
 20
180.9881536793273
 30
0.0
 10
878.7217025970007
 20
181.4332668048231
 30
0.0
 10
878.346122389036
 20
181.6409645196205
 30
0.0
 10
878.0737179785217
 20
181.6651443329887
 30
0.0
 10
877.9610621639209
 20
181.6751441584935
 30
0.0
  0
LINE
  5
255
330
1F
100
AcDbEntity
  8
0
  6
Continuous
 62
     7
370
    15
100
AcDbLine
 10
879.961066217
 20
178.9223679008
 30
0.0
 11
879.961066217
 21
181.600859076
 31
0.0
  0
LINE
  5
256
330
1F
100
AcDbEntity
  8
0
  6
Continuous
 62
     7
370
    15
100
AcDbLine
 10
879.961066217
 20
176.1695907118
 30
0.0
 11
879.961066217
 21
178.9223679008
 31
0.0
  0
LINE
  5
257
330
1F
100
AcDbEntity
  8
0
  6
Continuous
 62
     7
370
    15
100
AcDbLine
 10
877.9610621639
 20
175.1751449557
 30
0.0
 11
875.0610726782
 21
175.1751449557
 31
0.0
  0
LINE
  5
258
330
1F
100
AcDbEntity
  8
0
  6
Continuous
 62
     7
370
    15
100
AcDbLine
 10
875.0610726782
 20
175.1751449557
 30
0.0
 11
875.0610726782
 21
178.4251440914
 31
0.0
  0
LINE
  5
259
330
1F
100
AcDbEntity
  8
0
  6
Continuous
 62
     7
370
    15
100
AcDbLine
 10
875.0610726782
 20
178.4251440914
 30
0.0
 11
875.0610726782
 21
181.6751441585
 31
0.0
  0
LINE
  5
25A
330
1F
100
AcDbEntity
  8
0
  6
Continuous
 62
     7
370
    15
100
AcDbLine
 10
875.0610726782
 20
211.9251449259
 30
0.0
 11
875.0610726782
 21
215.1751440616
 31
0.0
  0
LINE
  5
25B
330
1F
100
AcDbEntity
  8
0
  6
Continuous
 62
     7
370
    15
100
AcDbLine
 10
877.9610621639
 20
215.1751440616
 30
0.0
 11
875.0610726782
 21
215.1751440616
 31
0.0
  0
SPLINE
  5
25C
330
1F
100
AcDbEntity
  8
0
  6
Continuous
 62
     7
370
    15
100
AcDbSpline
210
0.0
220
0.0
230
1.0
 70
     8
 71
     3
 72
    18
 73
    14
 74
     0
 42
0.00000001
 43
0.00000001
 40
0.0
 40
0.0
 40
0.0
 40
0.0
 40
0.0391144119034069
 40
0.078093408974101
 40
0.1389211913490468
 40
0.2382986550740601
 40
0.4914349478662688
 40
0.7614771786732301
 40
0.8314852848035629
 40
0.9019334967458568
 40
0.9480399717019665
 40
0.9875238058522229
 40
1.0
 40
1.0
 40
1.0
 40
1.0
 10
877.9610621639209
 20
208.6751448588481
 30
0.0
 10
878.0787817869311
 20
208.6858772067016
 30
0.0
 10
878.3138134853934
 20
208.7073047468176
 30
0.0
 10
878.6835099238738
 20
208.890484606588
 30
0.0
 10
879.0964622605319
 20
209.2735311440226
 30
0.0
 10
879.6075312995715
 20
210.2714737394229
 30
0.0
 10
879.7539465534311
 20
211.9002990461513
 30
0.0
 10
879.6323020699435
 20
213.4649751060005
 30
0.0
 10
879.1617300576371
 20
214.455140591028
 30
0.0
 10
878.8276990542091
 20
214.8541599027637
 30
0.0
 10
878.4417705792347
 20
215.0925756827235
 30
0.0
 10
878.1541806738728
 20
215.1693623863307
 30
0.0
 10
877.9984539279357
 20
215.1740246089296
 30
0.0
 10
877.9610621639209
 20
215.175144061636
 30
0.0
  0
LINE
  5
25D
330
1F
100
AcDbEntity
  8
0
  6
Continuous
 62
     7
370
    15
100
AcDbLine
 10
877.9610621639
 20
208.6751448588
 30
0.0
 11
875.0610726782
 21
208.6751448588
 31
0.0
  0
LINE
  5
25E
330
1F
100
AcDbEntity
  8
0
  6
Continuous
 62
     7
370
    15
100
AcDbLine
 10
875.0610726782
 20
208.6751448588
 30
0.0
 11
875.0610726782
 21
211.9251449259
 31
0.0
  0
SPLINE
  5
25F
330
1F
100
AcDbEntity
  8
0
  6
Continuous
 62
     7
370
    15
100
AcDbSpline
210
0.0
220
0.0
230
1.0
 70
     8
 71
     3
 72
    10
 73
     6
 74
     0
 42
0.00000001
 43
0.00000001
 40
0.0
 40
0.0
 40
0.0
 40
0.0
 40
0.2412468555584839
 40
0.6862094644748651
 40
1.0
 40
1.0
 40
1.0
 40
1.0
 10
878.8772451587635
 20
208.2508901732078
 30
0.0
 10
878.8227257875335
 20
208.308874992665
 30
0.0
 10
878.66764932675
 20
208.4738086736255
 30
0.0
 10
878.3443606437819
 20
208.6397336596163
 30
0.0
 10
878.0732025247361
 20
208.6647847221207
 30
0.0
 10
877.9610621639209
 20
208.6751448588481
 30
0.0
  0
SPLINE
  5
260
330
1F
100
AcDbEntity
  8
0
  6
Continuous
 62
     7
370
    15
100
AcDbSpline
210
0.0
220
0.0
230
1.0
 70
    24
 71
     3
 72
    13
 73
     9
 74
     0
 42
0.00000001
 43
0.00000001
 40
0.0
 40
0.0
 40
0.0
 40
0.0
 40
0.0781766375427698
 40
0.156082742511468
 40
0.2776569855744132
 40
0.476279188041851
 40
0.9822137664013276
 40
1.0
 40
1.0
 40
1.0
 40
1.0
 10
877.9610621639209
 20
215.175144061636
 30
0.0
 10
878.0787958751434
 20
215.175144061636
 30
0.0
 10
878.3138558765872
 20
215.175144061636
 30
0.0
 10
878.6833025501767
 20
215.175144061636
 30
0.0
 10
879.0980916561655
 20
215.175144061636
 30
0.0
 10
879.5901736524587
 20
215.175144061636
 30
0.0
 10
879.791376544835
 20
215.1751440616359
 30
0.0
 10
879.6894090262336
 20
215.175144061636
 30
0.0
 10
879.6859460779148
 20
215.175144061636
 30
0.0
  0
LINE
  5
261
330
1F
100
AcDbEntity
  8
0
  6
Continuous
 62
     7
370
    15
100
AcDbLine
 10
879.961066217
 20
208.7601503955
 30
0.0
 11
879.961066217
 21
214.1806983056
 31
0.0
  0
LINE
  5
262
330
1F
100
AcDbEntity
  8
0
  6
Continuous
 62
     7
370
    15
100
AcDbLine
 10
875.0610726782
 20
205.1399402918
 30
0.0
 11
875.0610726782
 21
205.4251447918
 31
0.0
  0
LINE
  5
263
330
1F
100
AcDbEntity
  8
0
  6
Continuous
 62
     7
370
    15
100
AcDbLine
 10
875.0610726782
 20
205.4251447918
 30
0.0
 11
875.0610726782
 21
208.6751448588
 31
0.0
  0
LINE
  5
264
330
1F
100
AcDbEntity
  8
0
  6
Continuous
 62
     7
370
    15
100
AcDbLine
 10
918.6610656687
 20
206.5351080747
 30
0.0
 11
918.6610656687
 21
201.2350844817
 31
0.0
  0
SPLINE
  5
265
330
1F
100
AcDbEntity
  8
0
  6
Continuous
 62
     7
370
    15
100
AcDbSpline
210
0.0
220
0.0
230
1.0
 70
     8
 71
     3
 72
    12
 73
     8
 74
     0
 42
0.00000001
 43
0.00000001
 40
0.0
 40
0.0
 40
0.0
 40
0.0
 40
0.1136336865065237
 40
0.3008418386255119
 40
0.491920561406495
 40
0.6964446490888997
 40
1.0
 40
1.0
 40
1.0
 40
1.0
 10
922.5805926032978
 20
205.9931658806314
 30
0.0
 10
922.3038432669057
 20
205.9912265260361
 30
0.0
 10
921.5711575488042
 20
205.986092141857
 30
0.0
 10
920.5001699275832
 20
205.9770786401502
 30
0.0
 10
919.533072003135
 20
206.0101663664209
 30
0.0
 10
918.7914144718661
 20
206.1359788169251
 30
0.0
 10
918.7098167537747
 20
206.3858317949602
 30
0.0
 10
918.661065668674
 20
206.5351080747356
 30
0.0
  0
SPLINE
  5
266
330
1F
100
AcDbEntity
  8
0
  6
Continuous
 62
     7
370
    15
100
AcDbSpline
210
0.0
220
0.0
230
1.0
 70
     8
 71
     3
 72
    12
 73
     8
 74
     0
 42
0.00000001
 43
0.00000001
 40
0.0
 40
0.0
 40
0.0
 40
0.0
 40
0.2917316733310575
 40
0.5225560604911572
 40
0.7611465280212062
 40
0.9714529755819049
 40
1.0
 40
1.0
 40
1.0
 40
1.0
 10
918.661065668674
 20
201.2350844817271
 30
0.0
 10
918.706241653498
 20
201.8877653901922
 30
0.0
 10
918.7871618511194
 20
203.0568614996099
 30
0.0
 10
919.5951450268406
 20
204.5217320757775
 30
0.0
 10
920.8066243311378
 20
205.5083101703467
 30
0.0
 10
921.9255811419482
 20
205.8916280032096
 30
0.0
 10
922.5106651782061
 20
205.9823259446359
 30
0.0
 10
922.5805926032978
 20
205.9931658806314
 30
0.0
  0
SPLINE
  5
267
330
1F
100
AcDbEntity
  8
0
  6
Continuous
 62
     7
370
    15
100
AcDbSpline
210
0.0
220
0.0
230
1.0
 70
     8
 71
     3
 72
    11
 73
     7
 74
     0
 42
0.00000001
 43
0.00000001
 40
0.0
 40
0.0
 40
0.0
 40
0.0
 40
0.3340935920687578
 40
0.6236932283992602
 40
0.9185173274860267
 40
1.0
 40
1.0
 40
1.0
 40
1.0
 10
927.799500794025
 20
206.1541915537825
 30
0.0
 10
927.5868463557325
 20
206.0985476027049
 30
0.0
 10
927.1898583969669
 20
205.9946702572176
 30
0.0
 10
926.0285593136228
 20
205.9780404967162
 30
0.0
 10
924.956495908338
 20
205.9881160362571
 30
0.0
 10
924.3051351246374
 20
205.9922670507858
 30
0.0
 10
924.1640942998844
 20
205.9931658806314
 30
0.0
  0
SPLINE
  5
268
330
1F
100
AcDbEntity
  8
0
  6
Continuous
 62
     7
370
    15
100
AcDbSpline
210
0.0
220
0.0
230
1.0
 70
     8
 71
     3
 72
    11
 73
     7
 74
     0
 42
0.00000001
 43
0.00000001
 40
0.0
 40
0.0
 40
0.0
 40
0.0
 40
0.0091482408254457
 40
0.499995327475713
 40
0.9908517591745543
 40
1.0
 40
1.0
 40
1.0
 40
1.0
 10
924.1640942998844
 20
205.9931658806314
 30
0.0
 10
924.1593164642861
 20
205.9935168508054
 30
0.0
 10
923.8981847866069
 20
206.0126990575718
 30
0.0
 10
923.3723459928626
 20
206.0311187802086
 30
0.0
 10
922.8465069970508
 20
206.0126994160681
 30
0.0
 10
922.5853704388933
 20
205.993516850805
 30
0.0
 10
922.5805926032978
 20
205.9931658806314
 30
0.0
  0
ARC
  5
269
330
1F
100
AcDbEntity
  8
0
  6
Continuous
 62
     7
370
    15
100
AcDbCircle
 10
919.4043416188
 20
206.5154920273
 30
0.0
 40
0.7435347519454879
100
AcDbArc
 50
88.5638369108
 51
178.4882385905
  0
SPLINE
  5
26A
330
1F
100
AcDbEntity
  8
0
  6
Continuous
 62
     7
370
    15
100
AcDbSpline
210
0.0
220
0.0
230
1.0
 70
     8
 71
     3
 72
    16
 73
    12
 74
     0
 42
0.00000001
 43
0.00000001
 40
0.0
 40
0.0
 40
0.0
 40
0.0
 40
0.1632157141350454
 40
0.2700785769403639
 40
0.3688077516211638
 40
0.4654144667921808
 40
0.5626673149923473
 40
0.663004039784038
 40
0.7707086914519241
 40
0.8765165161730368
 40
1.0
 40
1.0
 40
1.0
 40
1.0
 10
919.4229769416767
 20
207.2587932126632
 30
0.0
 10
919.4616261694783
 20
207.0722838791013
 30
0.0
 10
919.5255803573449
 20
206.7636605601922
 30
0.0
 10
920.1495156536865
 20
206.5503814388492
 30
0.0
 10
920.9637570855092
 20
206.460137690206
 30
0.0
 10
922.0010451599771
 20
206.4314739148208
 30
0.0
 10
923.1857675271674
 20
206.4263247628618
 30
0.0
 10
924.4390169772649
 20
206.428158154315
 30
0.0
 10
925.598947195311
 20
206.4511722051386
 30
0.0
 10
926.5776973649392
 20
206.5302775058797
 30
0.0
 10
926.906480487714
 20
206.6858301175868
 30
0.0
 10
927.0835447021442
 20
206.7696020605078
 30
0.0
  0
ARC
  5
26B
330
1F
100
AcDbEntity
  8
0
  6
Continuous
 62
     7
370
    15
100
AcDbCircle
 10
927.0286701595
 20
205.9815924856
 30
0.0
 40
0.7899179106210455
100
AcDbArc
 50
12.6210950537
 51
86.0165303286
  0
SPLINE
  5
26C
330
1F
100
AcDbEntity
  8
0
  6
Continuous
 62
     7
370
    15
100
AcDbSpline
210
0.0
220
0.0
230
1.0
 70
     8
 71
     3
 72
    12
 73
     8
 74
     0
 42
0.00000001
 43
0.00000001
 40
0.0
 40
0.0
 40
0.0
 40
0.0
 40
0.1136337346244193
 40
0.3008418561951701
 40
0.4919205817686866
 40
0.696444288847452
 40
1.0
 40
1.0
 40
1.0
 40
1.0
 10
922.5805926032978
 20
184.3571231367102
 30
0.0
 10
922.3038433011382
 20
184.409639110009
 30
0.0
 10
921.5711579411295
 20
184.5486735520197
 30
0.0
 10
920.5001696538903
 20
185.0628010006132
 30
0.0
 10
919.5330729811706
 20
185.9532012131874
 30
0.0
 10
918.791413256076
 20
187.2967662439636
 30
0.0
 10
918.7098163365029
 20
188.4350992656169
 30
0.0
 10
918.661065668674
 20
189.1152045356145
 30
0.0
  0
SPLINE
  5
26D
330
1F
100
AcDbEntity
  8
0
  6
Continuous
 62
     7
370
    15
100
AcDbSpline
210
0.0
220
0.0
230
1.0
 70
     8
 71
     3
 72
    12
 73
     8
 74
     0
 42
0.00000001
 43
0.00000001
 40
0.0
 40
0.0
 40
0.0
 40
0.0
 40
0.2917318168060024
 40
0.5225561673544158
 40
0.761146332989733
 40
0.9714529420605573
 40
0.9999999999999999
 40
0.9999999999999999
 40
0.9999999999999999
 40
0.9999999999999999
 10
918.661065668674
 20
183.815180942606
 30
0.0
 10
918.7062416665219
 20
183.9591808156643
 30
0.0
 10
918.7871618642238
 20
184.2171164175768
 30
0.0
 10
919.5951440886507
 20
184.3522347640216
 30
0.0
 10
920.8066261014842
 20
184.3743202515638
 30
0.0
 10
921.925581350892
 20
184.3609649361262
 30
0.0
 10
922.5106651781684
 20
184.3575332779712
 30
0.0
 10
922.5805926032978
 20
184.3571231367102
 30
0.0
  0
LINE
  5
26E
330
1F
100
AcDbEntity
  8
0
  6
Continuous
 62
     7
370
    15
100
AcDbLine
 10
918.6610656687
 20
189.1152045356
 30
0.0
 11
918.6610656687
 21
183.8151809426
 31
0.0
  0
LWPOLYLINE
  5
26F
330
1F
100
AcDbEntity
  8
0
  6
Continuous
 62
     7
370
    15
100
AcDbPolyline
 90
        9
 70
   128
 43
0.0
 10
918.6610656687
 20
189.1152045356
 10
918.6757135101
 20
189.1668868849
 10
918.719060988
 20
189.2165831888
 10
918.7894689747
 20
189.2623837704
 10
918.8842254587
 20
189.3025279643
 10
918.9996796556
 20
189.3354735004
 10
919.1314059206
 20
189.3599542456
 10
919.2743378588
 20
189.3750295641
 10
919.4229769417
 20
189.3801197076
  0
SPLINE
  5
270
330
1F
100
AcDbEntity
  8
0
  6
Continuous
 62
     7
370
    15
100
AcDbSpline
210
0.0
220
0.0
230
1.0
 70
     8
 71
     3
 72
    16
 73
    12
 74
     0
 42
0.00000001
 43
0.00000001
 40
0.0
 40
0.0
 40
0.0
 40
0.0
 40
0.1632158235346179
 40
0.2700787100048525
 40
0.3688077466665159
 40
0.4654146716126292
 40
0.5626674573353851
 40
0.6630042330094962
 40
0.7707086885917046
 40
0.876516884656158
 40
0.9999999999999999
 40
0.9999999999999999
 40
0.9999999999999999
 40
0.9999999999999999
 10
919.4229769416767
 20
189.3801197076251
 30
0.0
 10
919.4616262576704
 20
188.763174016452
 30
0.0
 10
919.5255805801137
 20
187.7422932414961
 30
0.0
 10
920.1495145645786
 20
186.5355049357458
 30
0.0
 10
920.9637594763143
 20
185.7491143183497
 30
0.0
 10
922.0010428350646
 20
185.2494544993046
 30
0.0
 10
923.1857689628994
 20
185.0446293852394
 30
0.0
 10
924.4390146166204
 20
185.1566947995214
 30
0.0
 10
925.5989511382428
 20
185.6221192325637
 30
0.0
 10
926.5776937736395
 20
186.4542107840191
 30
0.0
 10
926.9064795754953
 20
187.2278226333678
 30
0.0
 10
927.0835447021442
 20
187.6444454902818
 30
0.0
  0
ARC
  5
271
330
1F
100
AcDbEntity
  8
0
  6
Continuous
 62
     7
370
    15
100
AcDbCircle
 10
926.913937848
 20
186.564652457
 30
0.0
 40
1.093032240935925
100
AcDbArc
 50
35.8855765073
 51
81.0732889225
  0
SPLINE
  5
272
330
1F
100
AcDbEntity
  8
0
  6
Continuous
 62
     7
370
    15
100
AcDbSpline
210
0.0
220
0.0
230
1.0
 70
     8
 71
     3
 72
    11
 73
     7
 74
     0
 42
0.00000001
 43
0.00000001
 40
0.0
 40
0.0
 40
0.0
 40
0.0
 40
0.3340939984919393
 40
0.6236936653271609
 40
0.9185171619848397
 40
1.0
 40
1.0
 40
1.0
 40
1.0
 10
927.799500794025
 20
187.205353439044
 30
0.0
 10
927.5868463300759
 20
186.7361499670307
 30
0.0
 10
927.189858528238
 20
185.8602311101667
 30
0.0
 10
926.0285616888768
 20
184.9165719235852
 30
0.0
 10
924.9564934319004
 20
184.4894692359245
 30
0.0
 10
924.3051350539465
 20
184.3806796915778
 30
0.0
 10
924.1640942998844
 20
184.3571231367102
 30
0.0
  0
SPLINE
  5
273
330
1F
100
AcDbEntity
  8
0
  6
Continuous
 62
     7
370
    15
100
AcDbSpline
210
0.0
220
0.0
230
1.0
 70
     8
 71
     3
 72
    11
 73
     7
 74
     0
 42
0.00000001
 43
0.00000001
 40
0.0
 40
0.0
 40
0.0
 40
0.0
 40
0.0091482408254457
 40
0.5000046725242869
 40
0.9908517591745543
 40
1.0
 40
1.0
 40
1.0
 40
1.0
 10
922.5805926032978
 20
184.3571231367102
 30
0.0
 10
922.5853704388933
 20
184.3567721665366
 30
0.0
 10
922.8465069970506
 20
184.3375896012735
 30
0.0
 10
923.3723459928628
 20
184.319170237133
 30
0.0
 10
923.8981847866069
 20
184.3375899597698
 30
0.0
 10
924.1593164642861
 20
184.3567721665362
 30
0.0
 10
924.1640942998844
 20
184.3571231367102
 30
0.0
  0
ARC
  5
274
330
1F
100
AcDbEntity
  8
0
  6
Continuous
 62
     7
370
    15
100
AcDbCircle
 10
926.913937848
 20
203.7856365604
 30
0.0
 40
1.093032240935941
100
AcDbArc
 50
278.9267110775
 51
324.1144234927
  0
SPLINE
  5
275
330
1F
100
AcDbEntity
  8
0
  6
Continuous
 62
     7
370
    15
100
AcDbSpline
210
0.0
220
0.0
230
1.0
 70
     8
 71
     3
 72
    16
 73
    12
 74
     0
 42
0.00000001
 43
0.00000001
 40
0.0
 40
0.0
 40
0.0
 40
0.0
 40
0.0982184190307747
 40
0.1976624801407299
 40
0.2943628061832609
 40
0.3914070743547718
 40
0.4911101758443971
 40
0.5996267938496026
 40
0.7226911578946835
 40
0.843178526334625
 40
1.0
 40
1.0
 40
1.0
 40
1.0
 10
927.0835447021442
 20
202.7058435270598
 30
0.0
 10
926.949637628591
 20
203.0387562270971
 30
0.0
 10
926.6801524899773
 20
203.7087359580792
 30
0.0
 10
925.9121427915156
 20
204.5026655101214
 30
0.0
 10
924.9077606648765
 20
205.0460042978912
 30
0.0
 10
923.7380828872288
 20
205.2947720278736
 30
0.0
 10
922.481764888828
 20
205.2305938470926
 30
0.0
 10
921.2226959986016
 20
204.7923584694772
 30
0.0
 10
920.1996640644076
 20
203.9247309384182
 30
0.0
 10
919.5223079964875
 20
202.6098669971487
 30
0.0
 10
919.4588584312439
 20
201.562479494856
 30
0.0
 10
919.4229769416767
 20
200.9701693097165
 30
0.0
  0
LWPOLYLINE
  5
276
330
1F
100
AcDbEntity
  8
0
  6
Continuous
 62
     7
370
    15
100
AcDbPolyline
 90
        9
 70
   128
 43
0.0
 10
919.4229769417
 20
200.9701693097
 10
919.2743378588
 20
200.9752594532
 10
919.1314059206
 20
200.9903347718
 10
918.9996796556
 20
201.014815517
 10
918.8842254587
 20
201.047761053
 10
918.7894689747
 20
201.087905247
 10
918.719060988
 20
201.1337058285
 10
918.6757135101
 20
201.1834021324
 10
918.6610656687
 20
201.2350844817
  0
SPLINE
  5
277
330
1F
100
AcDbEntity
  8
0
  6
Continuous
 62
     7
370
    15
100
AcDbSpline
210
0.0
220
0.0
230
1.0
 70
     8
 71
     3
 72
    11
 73
     7
 74
     0
 42
0.00000001
 43
0.00000001
 40
0.0
 40
0.0
 40
0.0
 40
0.0
 40
0.1990397669900164
 40
0.4636306987388487
 40
0.7350854611498059
 40
1.0
 40
1.0
 40
1.0
 40
1.0
 10
924.1640942998844
 20
205.9931658806314
 30
0.0
 10
924.5071496746955
 20
205.9244555454341
 30
0.0
 10
925.3062412609403
 20
205.7644060176443
 30
0.0
 10
926.3999942979538
 20
205.1740276499846
 30
0.0
 10
927.3137352543152
 20
204.2777945490741
 30
0.0
 10
927.6389005828394
 20
203.5194730353164
 30
0.0
 10
927.799500794025
 20
203.1449355782976
 30
0.0
  0
SPLINE
  5
278
330
1F
100
AcDbEntity
  8
0
  6
Continuous
 62
     7
370
    15
100
AcDbSpline
210
0.0
220
0.0
230
1.0
 70
     8
 71
     3
 72
    11
 73
     7
 74
     0
 42
0.00000001
 43
0.00000001
 40
0.0
 40
0.0
 40
0.0
 40
0.0
 40
0.1990398481205498
 40
0.4636309830289351
 40
0.7350855818313166
 40
1.0
 40
1.0
 40
1.0
 40
1.0
 10
924.1640942998844
 20
184.3571231367102
 30
0.0
 10
924.5071497179056
 20
184.3597561311354
 30
0.0
 10
925.3062415690723
 20
184.3658892637981
 30
0.0
 10
926.3999933486451
 20
184.3707303828439
 30
0.0
 10
927.3137354459477
 20
184.336748332987
 30
0.0
 10
927.6389006381888
 20
184.2425984164122
 30
0.0
 10
927.799500794025
 20
184.1960974635591
 30
0.0
  0
ARC
  5
279
330
1F
100
AcDbEntity
  8
0
  6
Continuous
 62
     7
370
    15
100
AcDbCircle
 10
927.0286701595
 20
184.3686965317
 30
0.0
 40
0.7899179106210393
100
AcDbArc
 50
273.9834696714
 51
347.3789049463
  0
SPLINE
  5
27A
330
1F
100
AcDbEntity
  8
0
  6
Continuous
 62
     7
370
    15
100
AcDbSpline
210
0.0
220
0.0
230
1.0
 70
     8
 71
     3
 72
    16
 73
    12
 74
     0
 42
0.00000001
 43
0.00000001
 40
0.0
 40
0.0
 40
0.0
 40
0.0
 40
0.0982186338888643
 40
0.1976624296385515
 40
0.2943629135536827
 40
0.3914071497298175
 40
0.491110227647871
 40
0.5996268263630757
 40
0.7226908137244092
 40
0.8431783167123889
 40
1.0
 40
1.0
 40
1.0
 40
1.0
 10
927.0835447021442
 20
183.5806869568338
 30
0.0
 10
926.9496380940511
 20
183.6495415298809
 30
0.0
 10
926.6801545505285
 20
183.7881095557364
 30
0.0
 10
925.9121401206596
 20
183.8805168560342
 30
0.0
 10
924.9077622431868
 20
183.9170776076953
 30
0.0
 10
923.7380826478297
 20
183.9238201012206
 30
0.0
 10
922.4817647070462
 20
183.9225318842228
 30
0.0
 10
921.2226982563379
 20
183.9056680992792
 30
0.0
 10
920.1996615826624
 20
183.8197053302753
 30
0.0
 10
919.5223084817292
 20
183.5890276428807
 30
0.0
 10
919.4588586087193
 20
183.271219905926
 30
0.0
 10
919.4229769416767
 20
183.0914958046784
 30
0.0
  0
ARC
  5
27B
330
1F
100
AcDbEntity
  8
0
  6
Continuous
 62
     7
370
    15
100
AcDbCircle
 10
919.4043416188
 20
183.83479699
 30
0.0
 40
0.7435347519455447
100
AcDbArc
 50
181.5117614095
 51
271.4361630892
  0
SPLINE
  5
27C
330
1F
100
AcDbEntity
  8
0
  6
Continuous
 62
     7
370
    15
100
AcDbSpline
210
0.0
220
0.0
230
1.0
 70
     8
 71
     3
 72
    14
 73
    10
 74
     0
 42
0.00000001
 43
0.00000001
 40
0.0
 40
0.0
 40
0.0
 40
0.0
 40
0.0621969817802278
 40
0.2157646271429416
 40
0.3692821123259299
 40
0.5269933332726533
 40
0.6847105920687145
 40
0.8423237521247355
 40
1.0
 40
1.0
 40
1.0
 40
1.0
 10
927.0835447021442
 20
187.6444454902818
 30
0.0
 10
927.1701387590829
 20
187.9291273500727
 30
0.0
 10
927.470538133351
 20
188.9167038139786
 30
0.0
 10
927.8632303764203
 20
190.7278423606767
 30
0.0
 10
928.1629232643124
 20
193.1218345644585
 30
0.0
 10
928.2361236680845
 20
195.6049749811004
 30
0.0
 10
928.0810142564023
 20
198.0919964613207
 30
0.0
 10
927.7097108146136
 20
200.5028245679744
 30
0.0
 10
927.2922945805946
 20
201.9714059221257
 30
0.0
 10
927.0835447021442
 20
202.7058435270598
 30
0.0
  0
LINE
  5
27D
330
1F
100
AcDbEntity
  8
0
  6
Continuous
 62
     7
370
    15
100
AcDbLine
 10
919.4229769417
 20
200.9701693097
 30
0.0
 11
919.4229769417
 21
189.3801197076
 31
0.0
  0
LINE
  5
27E
330
1F
100
AcDbEntity
  8
0
  6
Continuous
 62
     7
370
    15
100
AcDbLine
 10
927.799500794
 20
206.1541915538
 30
0.0
 11
927.799500794
 21
203.1449355783
 31
0.0
  0
LINE
  5
27F
330
1F
100
AcDbEntity
  8
0
  6
Continuous
 62
     7
370
    15
100
AcDbLine
 10
927.799500794
 20
187.205353439
 30
0.0
 11
927.799500794
 21
184.1960974636
 31
0.0
  0
SPLINE
  5
280
330
1F
100
AcDbEntity
  8
0
  6
Continuous
 62
     7
370
    15
100
AcDbSpline
210
0.0
220
0.0
230
1.0
 70
     8
 71
     3
 72
    14
 73
    10
 74
     0
 42
0.00000001
 43
0.00000001
 40
0.0
 40
0.0
 40
0.0
 40
0.0
 40
0.0621967807521329
 40
0.2157646413451217
 40
0.3692818905850748
 40
0.5269933969035341
 40
0.6847104251939594
 40
0.8423236864402633
 40
1.0
 40
1.0
 40
1.0
 40
1.0
 10
927.0835447021442
 20
206.7696020605078
 30
0.0
 10
927.1701388109741
 20
206.8391307148875
 30
0.0
 10
927.4705393559599
 20
207.0803300984253
 30
0.0
 10
927.8632293336366
 20
207.7155926883227
 30
0.0
 10
928.162923805326
 20
208.828675381625
 30
0.0
 10
928.2361236759737
 20
210.284288275195
 30
0.0
 10
928.0810139621411
 20
212.0312515808246
 30
0.0
 10
927.7097108886472
 20
214.0044503004597
 30
0.0
 10
927.2922945895932
 20
215.4415409865106
 30
0.0
 10
927.0835447021442
 20
216.1602300258388
 30
0.0
  0
LINE
  5
281
330
1F
100
AcDbEntity
  8
0
  6
Continuous
 62
     7
370
    15
100
AcDbLine
 10
919.4229769417
 20
214.4850712867
 30
0.0
 11
919.4229769417
 21
207.2587932127
 31
0.0
  0
SPLINE
  5
282
330
1F
100
AcDbEntity
  8
0
  6
Continuous
 62
     7
370
    15
100
AcDbSpline
210
0.0
220
0.0
230
1.0
 70
     8
 71
     3
 72
    16
 73
    12
 74
     0
 42
0.00000001
 43
0.00000001
 40
0.0
 40
0.0
 40
0.0
 40
0.0
 40
0.0982186551494714
 40
0.1976624464027233
 40
0.2943629483993883
 40
0.3914071319460203
 40
0.4911101996123152
 40
0.5996267939654036
 40
0.7226909421039508
 40
0.8431783864292657
 40
1.0
 40
1.0
 40
1.0
 40
1.0
 10
927.0835447021442
 20
216.1602300258388
 30
0.0
 10
926.9496381249513
 20
216.5065108516767
 30
0.0
 10
926.6801546790922
 20
217.2033918573603
 30
0.0
 10
925.9121399063209
 20
218.1010038625135
 30
0.0
 10
924.9077627909107
 20
218.7419724211748
 30
0.0
 10
923.7380822409007
 20
219.0454376210748
 30
0.0
 10
922.4817648201722
 20
218.9666983355463
 30
0.0
 10
921.2226971877005
 20
218.4370921581976
 30
0.0
 10
920.1996626655596
 20
217.4411382490808
 30
0.0
 10
919.5223082317909
 20
216.0322078541513
 30
0.0
 10
919.4588585188551
 20
215.0439455355887
 30
0.0
 10
919.4229769416767
 20
214.4850712867489
 30
0.0
  0
SPLINE
  5
283
330
1F
100
AcDbEntity
  8
0
  6
Continuous
 62
     7
370
    15
100
AcDbSpline
210
0.0
220
0.0
230
1.0
 70
     8
 71
     3
 72
    14
 73
    10
 74
     0
 42
0.00000001
 43
0.00000001
 40
0.0
 40
0.0
 40
0.0
 40
0.0
 40
0.0621969638425502
 40
0.2157645920421235
 40
0.36928226903717
 40
0.52699345793155
 40
0.6847107692943805
 40
0.8423237361046756
 40
1.0
 40
1.0
 40
1.0
 40
1.0
 10
927.0835447021442
 20
174.1900589915028
 30
0.0
 10
927.1701387586753
 20
174.4755229082085
 30
0.0
 10
927.4705381692963
 20
175.4658124935118
 30
0.0
 10
927.8632306997541
 20
177.0890020063916
 30
0.0
 10
928.1629230653588
 20
178.9611785775119
 30
0.0
 10
928.2361236414566
 20
180.6019885419132
 30
0.0
 10
928.0810145578484
 20
181.9562927954329
 30
0.0
 10
927.7097104013263
 20
182.9893465315645
 30
0.0
 10
927.2922945351733
 20
183.3835471020006
 30
0.0
 10
927.0835447021442
 20
183.5806869568338
 30
0.0
  0
SPLINE
  5
284
330
1F
100
AcDbEntity
  8
0
  6
Continuous
 62
     7
370
    15
100
AcDbSpline
210
0.0
220
0.0
230
1.0
 70
     8
 71
     3
 72
    16
 73
    12
 74
     0
 42
0.00000001
 43
0.00000001
 40
0.0
 40
0.0
 40
0.0
 40
0.0
 40
0.1632159561819883
 40
0.2700786166840466
 40
0.3688078938127524
 40
0.4654146636301578
 40
0.562667434934853
 40
0.663004193165242
 40
0.7707086385227735
 40
0.8765167536461432
 40
1.0
 40
1.0
 40
1.0
 40
1.0
 10
919.4229769416767
 20
175.8652177305927
 30
0.0
 10
919.4616257399394
 20
175.2824086588624
 30
0.0
 10
919.5255791316024
 20
174.3180160126659
 30
0.0
 10
920.1495168740485
 20
173.0264523466596
 30
0.0
 10
920.9637568921756
 20
172.1360856952045
 30
0.0
 10
922.0010441153437
 20
171.5416818145429
 30
0.0
 10
923.1857687277037
 20
171.2914200330489
 30
0.0
 10
924.4390147920218
 20
171.429328055684
 30
0.0
 10
925.5989506302978
 20
171.9866889378078
 30
0.0
 10
926.5776946820071
 20
172.9451865497673
 30
0.0
 10
926.9064797964846
 20
173.7543108197535
 30
0.0
 10
927.0835447021442
 20
174.1900589915028
 30
0.0
  0
LINE
  5
285
330
1F
100
AcDbEntity
  8
0
  6
Continuous
 62
     7
370
    15
100
AcDbLine
 10
919.4229769417
 20
183.0914958047
 30
0.0
 11
919.4229769417
 21
175.8652177306
 31
0.0
  0
SPLINE
  5
286
330
1F
100
AcDbEntity
  8
0
  6
Continuous
 62
     7
370
    15
100
AcDbSpline
210
0.0
220
0.0
230
1.0
 70
     8
 71
     3
 72
    14
 73
    10
 74
     0
 42
0.00000001
 43
0.00000001
 40
0.0
 40
0.0
 40
0.0
 40
0.0
 40
0.1575839895624381
 40
0.3151114587898928
 40
0.4729863876660276
 40
0.6308559498580241
 40
0.784361663980855
 40
0.9379123528715234
 40
1.0
 40
1.0
 40
1.0
 40
1.0
 10
927.799500794025
 20
203.1449355782976
 30
0.0
 10
928.0109478964681
 20
202.3668898715376
 30
0.0
 10
928.4337662620443
 20
200.8110775181181
 30
0.0
 10
928.8090666136519
 20
198.2603817983665
 30
0.0
 10
928.9660324808185
 20
195.6298110413034
 30
0.0
 10
928.8919122448083
 20
193.003323466159
 30
0.0
 10
928.5889114185859
 20
190.4703744790268
 30
0.0
 10
928.1915440371735
 20
188.5532116640823
 30
0.0
 10
927.8871448893445
 20
187.5066768690916
 30
0.0
 10
927.799500794025
 20
187.205353439044
 30
0.0
  0
SPLINE
  5
287
330
1F
100
AcDbEntity
  8
0
  6
Continuous
 62
     7
370
    15
100
AcDbSpline
210
0.0
220
0.0
230
1.0
 70
     8
 71
     3
 72
    14
 73
    10
 74
     0
 42
0.00000001
 43
0.00000001
 40
0.0
 40
0.0
 40
0.0
 40
0.0
 40
0.1575840198299455
 40
0.3151116070368226
 40
0.4729863857642592
 40
0.6308560555277986
 40
0.7843618572767252
 40
0.9379125400831833
 40
1.0
 40
1.0
 40
1.0
 40
1.0
 10
927.799500794025
 20
216.0923589618912
 30
0.0
 10
928.0109479185929
 20
215.3310349729059
 30
0.0
 10
928.4337664461177
 20
213.8086596336821
 30
0.0
 10
928.8090663199653
 20
211.7214659103041
 30
0.0
 10
928.9660325700248
 20
209.8735814274308
 30
0.0
 10
928.8919122535071
 20
208.3340508338539
 30
0.0
 10
928.5889113719933
 20
207.1560501543336
 30
0.0
 10
928.1915448135753
 20
206.4834059904195
 30
0.0
 10
927.8871449187225
 20
206.2277896950573
 30
0.0
 10
927.799500794025
 20
206.1541915537825
 30
0.0
  0
LINE
  5
288
330
1F
100
AcDbEntity
  8
0
  6
Continuous
 62
     7
370
    15
100
AcDbLine
 10
927.799500794
 20
216.8355841788
 30
0.0
 11
927.799500794
 21
216.0923589619
 31
0.0
  0
SPLINE
  5
289
330
1F
100
AcDbEntity
  8
0
  6
Continuous
 62
     7
370
    15
100
AcDbSpline
210
0.0
220
0.0
230
1.0
 70
     8
 71
     3
 72
    10
 73
     6
 74
     0
 42
0.00000001
 43
0.00000001
 40
0.0
 40
0.0
 40
0.0
 40
0.0
 40
0.0785407302072458
 40
0.7372117561888086
 40
0.9999999999999999
 40
0.9999999999999999
 40
0.9999999999999999
 40
0.9999999999999999
 10
928.5979050107914
 20
214.7252258511295
 30
0.0
 10
928.5864953307396
 20
214.7665146463406
 30
0.0
 10
928.4793999390065
 20
215.1540662408841
 30
0.0
 10
928.1900100511369
 20
215.8980819391309
 30
0.0
 10
927.8861560250384
 20
216.6275494864392
 30
0.0
 10
927.799500794025
 20
216.8355841787567
 30
0.0
  0
SPLINE
  5
28A
330
1F
100
AcDbEntity
  8
0
  6
Continuous
 62
     7
370
    15
100
AcDbSpline
210
0.0
220
0.0
230
1.0
 70
     8
 71
     3
 72
     9
 73
     5
 74
     0
 42
0.00000001
 43
0.00000001
 40
0.0
 40
0.0
 40
0.0
 40
0.0
 40
0.6612108771448026
 40
1.0
 40
1.0
 40
1.0
 40
1.0
 10
927.799500794025
 20
173.5147048385849
 30
0.0
 10
928.0174465689392
 20
174.0391101816718
 30
0.0
 10
928.3470627057085
 20
174.8322086638858
 30
0.0
 10
928.5195799095812
 20
175.3990505245599
 30
0.0
 10
928.5780268617588
 20
175.5910903813352
 30
0.0
  0
LINE
  5
28B
330
1F
100
AcDbEntity
  8
0
  6
Continuous
 62
     7
370
    15
100
AcDbLine
 10
927.799500794
 20
174.2579300555
 30
0.0
 11
927.799500794
 21
173.5147048386
 31
0.0
  0
SPLINE
  5
28C
330
1F
100
AcDbEntity
  8
0
  6
Continuous
 62
     7
370
    15
100
AcDbSpline
210
0.0
220
0.0
230
1.0
 70
     8
 71
     3
 72
    14
 73
    10
 74
     0
 42
0.00000001
 43
0.00000001
 40
0.0
 40
0.0
 40
0.0
 40
0.0
 40
0.1575837626739429
 40
0.3151114913564611
 40
0.4729863663336266
 40
0.630855829780329
 40
0.7843617205427525
 40
0.9379123559027851
 40
1.0
 40
1.0
 40
1.0
 40
1.0
 10
927.799500794025
 20
184.1960974635591
 30
0.0
 10
928.0109480026006
 20
183.9872136934995
 30
0.0
 10
928.4337672328742
 20
183.5695204287445
 30
0.0
 10
928.809066115249
 20
182.4760546814354
 30
0.0
 10
928.9660326381961
 20
181.043665599127
 30
0.0
 10
928.8919119436879
 20
179.3080195241442
 30
0.0
 10
928.5889118274486
 20
177.3274897181028
 30
0.0
 10
928.1915439462557
 20
175.6094677016427
 30
0.0
 10
927.8871448835465
 20
174.5600760967231
 30
0.0
 10
927.799500794025
 20
174.2579300554504
 30
0.0
  0
LINE
  5
28D
330
1F
100
AcDbEntity
  8
0
  6
Continuous
 62
     7
370
    15
100
AcDbLine
 10
918.6610656687
 20
189.1152045356
 30
0.0
 11
918.6610656687
 21
201.2350844817
 31
0.0
  0
ARC
  5
28E
330
1F
100
AcDbEntity
  8
0
  6
Continuous
 62
     7
370
    15
100
AcDbCircle
 10
927.3800604485
 20
174.8723460486
 30
0.0
 40
0.7439336099812033
100
AcDbArc
 50
246.5106727802
 51
304.3199888539
  0
ARC
  5
28F
330
1F
100
AcDbEntity
  8
0
  6
Continuous
 62
     7
370
    15
100
AcDbCircle
 10
927.3800604485
 20
215.4779429688
 30
0.0
 40
0.7439336099811392
100
AcDbArc
 50
55.6800111461
 51
113.4893272198
  0
LWPOLYLINE
  5
290
330
1F
100
AcDbEntity
  8
0
  6
Continuous
 62
     7
370
    15
100
AcDbPolyline
 90
        9
 70
   128
 43
0.0
 10
918.6610656687
 20
176.2585599573
 10
918.6757135101
 20
176.1818227025
 10
918.719060988
 20
176.1080340149
 10
918.7894689747
 20
176.0400307031
 10
918.8842254587
 20
175.9804241957
 10
918.9996796556
 20
175.9315074088
 10
919.1314059206
 20
175.8951597514
 10
919.2743378588
 20
175.8727763446
 10
919.4229769417
 20
175.8652177306
  0
LINE
  5
291
330
1F
100
AcDbEntity
  8
0
  6
Continuous
 62
     7
370
    15
100
AcDbLine
 10
918.6610656687
 20
176.2585599573
 30
0.0
 11
918.6610656687
 21
183.8151809426
 31
0.0
  0
LWPOLYLINE
  5
292
330
1F
100
AcDbEntity
  8
0
  6
Continuous
 62
     7
370
    15
100
AcDbPolyline
 90
        9
 70
   128
 43
0.0
 10
919.4229769417
 20
214.4850712867
 10
919.2743378588
 20
214.4775126727
 10
919.1314059206
 20
214.455129266
 10
918.9996796556
 20
214.4187816085
 10
918.8842254587
 20
214.3698648216
 10
918.7894689747
 20
214.3102583142
 10
918.719060988
 20
214.2422550024
 10
918.6757135101
 20
214.1684663149
 10
918.6610656687
 20
214.09172906
  0
LINE
  5
293
330
1F
100
AcDbEntity
  8
0
  6
Continuous
 62
     7
370
    15
100
AcDbLine
 10
918.6610656687
 20
206.5351080747
 30
0.0
 11
918.6610656687
 21
214.09172906
 31
0.0
  0
LINE
  5
294
330
1F
100
AcDbEntity
  8
0
  6
Continuous
 62
     7
370
    15
100
AcDbLine
 10
899.6610718676
 20
189.0395033771
 30
0.0
 11
899.6610718676
 21
184.6751446502
 31
0.0
  0
LINE
  5
295
330
1F
100
AcDbEntity
  8
0
  6
Continuous
 62
     7
370
    15
100
AcDbLine
 10
899.6610718676
 20
205.6751443671
 30
0.0
 11
899.6610718676
 21
201.2970989237
 31
0.0
  0
SPLINE
  5
296
330
1F
100
AcDbEntity
  8
0
  6
Continuous
 62
     7
370
    15
100
AcDbSpline
210
0.0
220
0.0
230
1.0
 70
     8
 71
     3
 72
    11
 73
     7
 74
     0
 42
0.00000001
 43
0.00000001
 40
0.0
 40
0.0
 40
0.0
 40
0.0
 40
0.3340939569781355
 40
0.6236934286604647
 40
0.9185171615578488
 40
1.0
 40
1.0
 40
1.0
 40
1.0
 10
927.799500794025
 20
174.2579300554504
 30
0.0
 10
927.5868464759469
 20
173.7284871745477
 30
0.0
 10
927.1898590477361
 20
172.7401123812505
 30
0.0
 10
926.0285603668076
 20
171.5800165703865
 30
0.0
 10
924.9564939364119
 20
171.0373554987516
 30
0.0
 10
924.3051350714381
 20
170.8975450107279
 30
0.0
 10
924.1640942998844
 20
170.8672714086285
 30
0.0
  0
SPLINE
  5
297
330
1F
100
AcDbEntity
  8
0
  6
Continuous
 62
     7
370
    15
100
AcDbSpline
210
0.0
220
0.0
230
1.0
 70
     8
 71
     3
 72
    11
 73
     7
 74
     0
 42
0.00000001
 43
0.00000001
 40
0.0
 40
0.0
 40
0.0
 40
0.0
 40
0.0091480287441651
 40
0.4999953274732279
 40
0.9908519712558349
 40
1.0
 40
1.0
 40
1.0
 40
1.0
 10
924.1640942998844
 20
170.8672714086285
 30
0.0
 10
924.1593164632319
 20
170.8664822659371
 30
0.0
 10
923.8981786740457
 20
170.8233508253381
 30
0.0
 10
923.3723459929159
 20
170.7820195609112
 30
0.0
 10
922.84651310973
 20
170.8233500192591
 30
0.0
 10
922.5853704399476
 20
170.8664822659382
 30
0.0
 10
922.5805926032978
 20
170.8672714086285
 30
0.0
  0
SPLINE
  5
298
330
1F
100
AcDbEntity
  8
0
  6
Continuous
 62
     7
370
    15
100
AcDbSpline
210
0.0
220
0.0
230
1.0
 70
     8
 71
     3
 72
    12
 73
     8
 74
     0
 42
0.00000001
 43
0.00000001
 40
0.0
 40
0.0
 40
0.0
 40
0.0
 40
0.113633831631287
 40
0.3008419326012564
 40
0.4919207997259612
 40
0.6964444900467639
 40
0.9999999999999999
 40
0.9999999999999999
 40
0.9999999999999999
 40
0.9999999999999999
 10
922.5805926032978
 20
170.8672714086285
 30
0.0
 10
922.3038433594403
 20
170.9346965552583
 30
0.0
 10
921.57115859318
 20
171.1132024731425
 30
0.0
 10
920.5001689173048
 20
171.7633236880745
 30
0.0
 10
919.5330735191758
 20
172.840547880059
 30
0.0
 10
918.7914132908885
 20
174.3901334192823
 30
0.0
 10
918.7098163423872
 20
175.5597589284717
 30
0.0
 10
918.661065668674
 20
176.2585599573364
 30
0.0
  0
SPLINE
  5
299
330
1F
100
AcDbEntity
  8
0
  6
Continuous
 62
     7
370
    15
100
AcDbSpline
210
0.0
220
0.0
230
1.0
 70
     8
 71
     3
 72
    12
 73
     8
 74
     0
 42
0.00000001
 43
0.00000001
 40
0.0
 40
0.0
 40
0.0
 40
0.0
 40
0.2917316463149311
 40
0.5225561606318768
 40
0.7611463065908404
 40
0.9714529408394778
 40
1.0
 40
1.0
 40
1.0
 40
1.0
 10
918.661065668674
 20
214.0917290600052
 30
0.0
 10
918.7062418295349
 20
214.7616098548752
 30
0.0
 10
918.7871623654785
 20
215.961515112567
 30
0.0
 10
919.5951435683407
 20
217.653055460645
 30
0.0
 10
920.8066263398312
 20
218.8612143451993
 30
0.0
 10
921.925581305485
 20
219.3525659643743
 30
0.0
 10
922.5106651775527
 20
219.4690909059169
 30
0.0
 10
922.5805926032978
 20
219.4830176087131
 30
0.0
  0
SPLINE
  5
29A
330
1F
100
AcDbEntity
  8
0
  6
Continuous
 62
     7
370
    15
100
AcDbSpline
210
0.0
220
0.0
230
1.0
 70
     8
 71
     3
 72
    11
 73
     7
 74
     0
 42
0.00000001
 43
0.00000001
 40
0.0
 40
0.0
 40
0.0
 40
0.0
 40
0.0091480287441651
 40
0.4999953274732279
 40
0.9908519712558349
 40
1.0
 40
1.0
 40
1.0
 40
1.0
 10
924.1640942998844
 20
219.4830176087131
 30
0.0
 10
924.1593164632319
 20
219.4838067514045
 30
0.0
 10
923.8981786740457
 20
219.5269381920035
 30
0.0
 10
923.3723459929159
 20
219.5682694564304
 30
0.0
 10
922.84651310973
 20
219.5269389980825
 30
0.0
 10
922.5853704399476
 20
219.4838067514034
 30
0.0
 10
922.5805926032978
 20
219.4830176087131
 30
0.0
  0
SPLINE
  5
29B
330
1F
100
AcDbEntity
  8
0
  6
Continuous
 62
     7
370
    15
100
AcDbSpline
210
0.0
220
0.0
230
1.0
 70
     8
 71
     3
 72
    11
 73
     7
 74
     0
 42
0.00000001
 43
0.00000001
 40
0.0
 40
0.0
 40
0.0
 40
0.0
 40
0.1990397775842763
 40
0.4636310035219456
 40
0.7350859116478996
 40
1.0
 40
1.0
 40
1.0
 40
1.0
 10
924.1640942998844
 20
219.4830176087131
 30
0.0
 10
924.5071497506491
 20
219.3947043108948
 30
0.0
 10
925.3062419965916
 20
219.1889927521861
 30
0.0
 10
926.3999938613638
 20
218.4479620491376
 30
0.0
 10
927.3137344052386
 20
217.3643599266099
 30
0.0
 10
927.6389004238515
 20
216.5128981974385
 30
0.0
 10
927.799500794025
 20
216.0923589618912
 30
0.0
  0
SPLINE
  5
29C
330
1F
100
AcDbEntity
  8
0
  6
Continuous
 62
     7
370
    15
100
AcDbSpline
210
0.0
220
0.0
230
1.0
 70
     8
 71
     3
 72
    12
 73
     8
 74
     0
 42
0.00000001
 43
0.00000001
 40
0.0
 40
0.0
 40
0.0
 40
0.0
 40
0.2917316301195354
 40
0.5225560850233955
 40
0.7611463250441607
 40
0.9714530041542636
 40
0.9999999999999999
 40
0.9999999999999999
 40
0.9999999999999999
 40
0.9999999999999999
 10
918.661065668674
 20
174.9495618643274
 30
0.0
 10
918.706241797439
 20
174.4764458882428
 30
0.0
 10
918.7871622686758
 20
173.6289901902662
 30
0.0
 10
919.5951438406917
 20
172.332609621074
 30
0.0
 10
920.8066267204563
 20
171.3735699105139
 30
0.0
 10
921.9255799534845
 20
170.9735951824781
 30
0.0
 10
922.5106651669264
 20
170.8786222564827
 30
0.0
 10
922.5805926032978
 20
170.8672714086285
 30
0.0
  0
LINE
  5
29D
330
1F
100
AcDbEntity
  8
0
  6
Continuous
 62
     7
370
    15
100
AcDbLine
 10
918.6610656687
 20
176.2585599573
 30
0.0
 11
918.6610656687
 21
174.9495618643
 31
0.0
  0
SPLINE
  5
29E
330
1F
100
AcDbEntity
  8
0
  6
Continuous
 62
     7
370
    15
100
AcDbSpline
210
0.0
220
0.0
230
1.0
 70
     8
 71
     3
 72
    12
 73
     8
 74
     0
 42
0.00000001
 43
0.00000001
 40
0.0
 40
0.0
 40
0.0
 40
0.0
 40
0.1136338195889732
 40
0.3008419270696005
 40
0.4919208876028079
 40
0.6964443463142387
 40
1.0
 40
1.0
 40
1.0
 40
1.0
 10
922.5805926032978
 20
219.4830176087131
 30
0.0
 10
922.3038433594395
 20
219.4280833924608
 30
0.0
 10
921.5711585290032
 20
219.2826468002632
 30
0.0
 10
920.500168559459
 20
218.7572793348872
 30
0.0
 10
919.5330743732109
 20
217.9081388284694
 30
0.0
 10
918.7914125648656
 20
216.7214595031258
 30
0.0
 10
918.7098160905791
 20
215.8946879696718
 30
0.0
 10
918.661065668674
 20
215.4007271530142
 30
0.0
  0
LINE
  5
29F
330
1F
100
AcDbEntity
  8
0
  6
Continuous
 62
     7
370
    15
100
AcDbLine
 10
918.6610656687
 20
215.400727153
 30
0.0
 11
918.6610656687
 21
214.09172906
 31
0.0
  0
SPLINE
  5
2A0
330
1F
100
AcDbEntity
  8
0
  6
Continuous
 62
     7
370
    15
100
AcDbSpline
210
0.0
220
0.0
230
1.0
 70
     8
 71
     3
 72
    11
 73
     7
 74
     0
 42
0.00000001
 43
0.00000001
 40
0.0
 40
0.0
 40
0.0
 40
0.0
 40
0.1990396920859
 40
0.4636311347598536
 40
0.73508510601762
 40
0.9999999999999999
 40
0.9999999999999999
 40
0.9999999999999999
 40
0.9999999999999999
 10
924.1640942998844
 20
170.8672714086285
 30
0.0
 10
924.5071499034848
 20
170.9392655464803
 30
0.0
 10
925.3062430748829
 20
171.1069643781983
 30
0.0
 10
926.3999907074152
 20
171.7033747889112
 30
0.0
 10
927.3137375145375
 20
172.5572375945813
 30
0.0
 10
927.6389010985927
 20
173.1981536411877
 30
0.0
 10
927.799500794025
 20
173.5147048385849
 30
0.0
  0
SPLINE
  5
2A1
330
1F
100
AcDbEntity
  8
0
  6
Continuous
 62
     7
370
    15
100
AcDbSpline
210
0.0
220
0.0
230
1.0
 70
     8
 71
     3
 72
    11
 73
     7
 74
     0
 42
0.00000001
 43
0.00000001
 40
0.0
 40
0.0
 40
0.0
 40
0.0
 40
0.3340942098482632
 40
0.6236934160485719
 40
0.9185171567950849
 40
1.0
 40
1.0
 40
1.0
 40
1.0
 10
927.799500794025
 20
216.8355841787567
 30
0.0
 10
927.5868467248474
 20
217.2354001928257
 30
0.0
 10
927.1898600697892
 20
217.9817843211793
 30
0.0
 10
926.0285595738936
 20
218.9047076386289
 30
0.0
 10
924.9564939376235
 20
219.344374950572
 30
0.0
 10
924.3051350745449
 20
219.458340328495
 30
0.0
 10
924.1640942998844
 20
219.4830176087131
 30
0.0
  0
LINE
  5
2A2
330
1F
100
AcDbEntity
  8
0
  6
Continuous
 62
     7
370
    15
100
AcDbLine
 10
874.6610659071
 20
213.704555914
 30
0.0
 11
871.6610747286
 21
213.704555914
 31
0.0
  0
LINE
  5
2A3
330
1F
100
AcDbEntity
  8
0
  6
Continuous
 62
     7
370
    15
100
AcDbLine
 10
874.6610659071
 20
213.704555914
 30
0.0
 11
874.6610659071
 21
204.6628935861
 31
0.0
  0
LINE
  5
2A4
330
1F
100
AcDbEntity
  8
0
  6
Continuous
 62
     7
370
    15
100
AcDbLine
 10
874.6610659071
 20
185.682893418
 30
0.0
 11
874.6610659071
 21
125.1751442106
 31
0.0
  0
LINE
  5
2A5
330
1F
100
AcDbEntity
  8
0
  6
Continuous
 62
     7
370
    15
100
AcDbLine
 10
871.6610747286
 20
213.704555914
 30
0.0
 11
871.6610747286
 21
199.1751446987
 31
0.0
  0
LINE
  5
2A6
330
1F
100
AcDbEntity
  8
0
  6
Continuous
 62
     7
370
    15
100
AcDbLine
 10
871.6610747286
 20
191.1751443187
 30
0.0
 11
871.6610747286
 21
125.1751442106
 31
0.0
  0
LINE
  5
2A7
330
1F
100
AcDbEntity
  8
0
  6
Continuous
 62
     7
370
    15
100
AcDbLine
 10
871.6610747286
 20
215.1751440616
 30
0.0
 11
874.6610659071
 21
215.1751440616
 31
0.0
  0
LINE
  5
2A8
330
1F
100
AcDbEntity
  8
0
  6
Continuous
 62
     7
370
    15
100
AcDbLine
 10
871.6610747286
 20
213.704555914
 30
0.0
 11
871.6610747286
 21
215.1751440616
 31
0.0
  0
LINE
  5
2A9
330
1F
100
AcDbEntity
  8
0
  6
Continuous
 62
     7
370
    15
100
AcDbLine
 10
874.6610659071
 20
215.1751440616
 30
0.0
 11
874.6610659071
 21
213.704555914
 31
0.0
  0
SPLINE
  5
2AA
330
1F
100
AcDbEntity
  8
0
  6
Continuous
 62
     7
370
    15
100
AcDbSpline
210
0.0
220
0.0
230
1.0
 70
     8
 71
     3
 72
    94
 73
    90
 74
     0
 42
0.00000001
 43
0.00000001
 40
-0.0312499999999986
 40
-0.0312499999999986
 40
0.0
 40
0.0
 40
0.0312500000000013
 40
0.0312500000000013
 40
0.0468750000000018
 40
0.0468750000000018
 40
0.0625000000000023
 40
0.0625000000000023
 40
0.0937500000000038
 40
0.0937500000000038
 40
0.1250000000000052
 40
0.1250000000000052
 40
0.1406250000000056
 40
0.1406250000000056
 40
0.156250000000006
 40
0.156250000000006
 40
0.1875000000000077
 40
0.1875000000000077
 40
0.2031250000000085
 40
0.2031250000000085
 40
0.2187500000000093
 40
0.2187500000000093
 40
0.2500000000000099
 40
0.2500000000000099
 40
0.2656250000000102
 40
0.2656250000000102
 40
0.2812500000000105
 40
0.2812500000000105
 40
0.2968750000000108
 40
0.2968750000000108
 40
0.3125000000000111
 40
0.3125000000000111
 40
0.3437500000000118
 40
0.3437500000000118
 40
0.3593750000000116
 40
0.3593750000000116
 40
0.3750000000000114
 40
0.3750000000000114
 40
0.4062500000000105
 40
0.4062500000000105
 40
0.4218750000000103
 40
0.4218750000000103
 40
0.4375000000000101
 40
0.4375000000000101
 40
0.46875000000001
 40
0.46875000000001
 40
0.50000000000001
 40
0.50000000000001
 40
0.5312500000000099
 40
0.5312500000000099
 40
0.5468750000000099
 40
0.5468750000000099
 40
0.5625000000000099
 40
0.5625000000000099
 40
0.5937500000000094
 40
0.5937500000000094
 40
0.6250000000000091
 40
0.6250000000000091
 40
0.6562500000000087
 40
0.6562500000000087
 40
0.6718750000000085
 40
0.6718750000000085
 40
0.6875000000000084
 40
0.6875000000000084
 40
0.718750000000008
 40
0.718750000000008
 40
0.7500000000000075
 40
0.7500000000000075
 40
0.7656250000000079
 40
0.7656250000000079
 40
0.7812500000000082
 40
0.7812500000000082
 40
0.8125000000000078
 40
0.8125000000000078
 40
0.8281250000000071
 40
0.8281250000000071
 40
0.8437500000000064
 40
0.8437500000000064
 40
0.8750000000000051
 40
0.8750000000000051
 40
0.9062500000000039
 40
0.9062500000000039
 40
0.9218750000000032
 40
0.9218750000000032
 40
0.9375000000000027
 40
0.9375000000000027
 40
0.9687500000000014
 40
0.9687500000000014
 40
1.0
 40
1.0
 40
1.031250000000001
 40
1.031250000000001
 10
873.2487169739286
 20
196.0283052812201
 30
0.0
 10
873.2487066973505
 20
194.3221405014365
 30
0.0
 10
873.3313809670826
 20
193.4787982949113
 30
0.0
 10
873.5768020201875
 20
192.2280878480397
 30
0.0
 10
873.6795745811093
 20
191.8128106685227
 30
0.0
 10
873.9226708531479
 20
191.0022685505668
 30
0.0
 10
874.0631544606905
 20
190.6050823523847
 30
0.0
 10
874.5400236672418
 20
189.4371856940625
 30
0.0
 10
874.9327617876471
 20
188.6880182596542
 30
0.0
 10
875.8686256560395
 20
187.2643235570549
 30
0.0
 10
876.3977807804504
 20
186.6085877007004
 30
0.0
 10
877.281264726409
 20
185.707241592014
 30
0.0
 10
877.5908291306912
 20
185.4206044287304
 30
0.0
 10
878.2405867938544
 20
184.8754016680843
 30
0.0
 10
878.5816112451743
 20
184.6165671105327
 30
0.0
 10
879.6286271718067
 20
183.8997701023061
 30
0.0
 10
880.3637954334931
 20
183.4920817532099
 30
0.0
 10
881.5291879863267
 20
182.9988521051136
 30
0.0
 10
881.9301411610367
 20
182.8545080501793
 30
0.0
 10
882.7471014948223
 20
182.6100137946447
 30
0.0
 10
883.1587732331323
 20
182.5098930700988
 30
0.0
 10
884.40209670378
 20
182.2671300512501
 30
0.0
 10
885.2424107994203
 20
182.1845418551428
 30
0.0
 10
886.5205178653205
 20
182.1829252038524
 30
0.0
 10
886.9467242805782
 20
182.2031965126142
 30
0.0
 10
887.7883821231313
 20
182.2833356266645
 30
0.0
 10
888.2055135525343
 20
182.3434125511797
 30
0.0
 10
889.0325035451779
 20
182.5029203490445
 30
0.0
 10
889.4424839905638
 20
182.6016917102291
 30
0.0
 10
890.2545412161464
 20
182.8420016757332
 30
0.0
 10
890.6589856323402
 20
182.9858487346739
 30
0.0
 10
891.8345820553777
 20
183.479372026366
 30
0.0
 10
892.5717246203993
 20
183.8870471701019
 30
0.0
 10
893.6175005176354
 20
184.5997588494645
 30
0.0
 10
893.9556274328718
 20
184.854998553124
 30
0.0
 10
894.6103777601104
 20
185.4017843778924
 30
0.0
 10
894.9231177550641
 20
185.6902172537854
 30
0.0
 10
895.8119555835103
 20
186.5938387573066
 30
0.0
 10
896.3420018865539
 20
187.2493994880483
 30
0.0
 10
897.04331559571
 20
188.3124494403319
 30
0.0
 10
897.2615683889368
 20
188.6813112526404
 30
0.0
 10
897.6567385988232
 20
189.4307255060751
 30
0.0
 10
897.8350613860925
 20
189.812990424238
 30
0.0
 10
898.3137986896808
 20
190.9818480798787
 30
0.0
 10
898.5588373294185
 20
191.7926246936772
 30
0.0
 10
898.8893758313407
 20
193.4665000487103
 30
0.0
 10
898.9728148317907
 20
194.3119005047559
 30
0.0
 10
898.9740323404886
 20
196.0198338104028
 30
0.0
 10
898.8917525359686
 20
196.8600279762966
 30
0.0
 10
898.6503031662996
 20
198.0999808870867
 30
0.0
 10
898.5498705813466
 20
198.5099032342548
 30
0.0
 10
898.307947088594
 20
199.3227600256045
 30
0.0
 10
898.165755571739
 20
199.7272617614603
 30
0.0
 10
897.686329978902
 20
200.9054291581059
 30
0.0
 10
897.2951002366134
 20
201.6511805029974
 30
0.0
 10
896.3698034722632
 20
203.0635111265123
 30
0.0
 10
895.8305532708195
 20
203.7347424630191
 30
0.0
 10
894.6497421285735
 20
204.9406984949527
 30
0.0
 10
894.0051977449643
 20
205.4826797669997
 30
0.0
 10
892.9561063283933
 20
206.2029548243891
 30
0.0
 10
892.5912273312263
 20
206.4284014207648
 30
0.0
 10
891.8490476269947
 20
206.8369892172895
 30
0.0
 10
891.4704196091993
 20
207.0223075943667
 30
0.0
 10
890.3090389315238
 20
207.5140810990662
 30
0.0
 10
889.4983235893784
 20
207.7546607835184
 30
0.0
 10
887.8236384081447
 20
208.0832533655282
 30
0.0
 10
886.9827476336933
 20
208.1650465421484
 30
0.0
 10
885.7162485556936
 20
208.1676870943591
 30
0.0
 10
885.2932106981608
 20
208.1483030195887
 30
0.0
 10
884.4453713612113
 20
208.0685267642627
 30
0.0
 10
884.0226582547907
 20
208.007888811827
 30
0.0
 10
882.7777811824076
 20
207.7682313948436
 30
0.0
 10
881.9701241591777
 20
207.533677411048
 30
0.0
 10
880.7994861698979
 20
207.0446256037193
 30
0.0
 10
880.4139919601326
 20
206.8577306567209
 30
0.0
 10
879.6659238834816
 20
206.4492672325163
 30
0.0
 10
879.3047707756547
 20
206.2275695798526
 30
0.0
 10
878.2571244821653
 20
205.5139158247048
 30
0.0
 10
877.6070244453632
 20
204.9726123109525
 30
0.0
 10
876.407158497457
 20
203.7539568919214
 30
0.0
 10
875.8759795699611
 20
203.0948245757015
 30
0.0
 10
875.1792298290928
 20
202.0383373049559
 30
0.0
 10
874.963712258409
 20
201.6745710730877
 30
0.0
 10
874.5671071771633
 20
200.923161509868
 30
0.0
 10
874.3854650610632
 20
200.5339803374542
 30
0.0
 10
873.9032433493219
 20
199.3547446262973
 30
0.0
 10
873.660855477754
 20
198.5466432897354
 30
0.0
 10
873.3336151513548
 20
196.8867328770451
 30
0.0
 10
873.2487169739286
 20
196.0283052812201
 30
0.0
 10
873.2487066973505
 20
194.3221405014365
 30
0.0
  0
SPLINE
  5
2AB
330
1F
100
AcDbEntity
  8
0
  6
Continuous
 62
     7
370
    15
100
AcDbSpline
210
0.0
220
0.0
230
1.0
 70
     8
 71
     3
 72
   101
 73
    97
 74
     0
 42
0.00000001
 43
0.00000001
 40
-0.0156249999999999
 40
-0.0156249999999999
 40
0.0
 40
0.0
 40
0.0312499999999977
 40
0.0312499999999977
 40
0.0624999999999953
 40
0.0624999999999953
 40
0.0781249999999943
 40
0.0781249999999943
 40
0.0937499999999933
 40
0.0937499999999933
 40
0.1249999999999908
 40
0.1249999999999908
 40
0.1562499999999883
 40
0.1562499999999883
 40
0.1718749999999871
 40
0.1718749999999871
 40
0.1874999999999858
 40
0.1874999999999858
 40
0.2187499999999834
 40
0.2187499999999834
 40
0.2343749999999826
 40
0.2343749999999826
 40
0.2499999999999818
 40
0.2499999999999818
 40
0.2812499999999811
 40
0.2812499999999811
 40
0.3124999999999803
 40
0.3124999999999803
 40
0.3281249999999804
 40
0.3281249999999804
 40
0.3437499999999805
 40
0.3437499999999805
 40
0.3749999999999812
 40
0.3749999999999812
 40
0.390624999999982
 40
0.390624999999982
 40
0.4062499999999827
 40
0.4062499999999827
 40
0.4374999999999842
 40
0.4374999999999842
 40
0.4531249999999849
 40
0.4531249999999849
 40
0.4687499999999856
 40
0.4687499999999856
 40
0.499999999999987
 40
0.499999999999987
 40
0.5312499999999885
 40
0.5312499999999885
 40
0.5468749999999891
 40
0.5468749999999891
 40
0.5624999999999899
 40
0.5624999999999899
 40
0.5781249999999906
 40
0.5781249999999906
 40
0.5937499999999913
 40
0.5937499999999913
 40
0.6249999999999928
 40
0.6249999999999928
 40
0.6406249999999934
 40
0.6406249999999934
 40
0.6562499999999942
 40
0.6562499999999942
 40
0.6874999999999957
 40
0.6874999999999957
 40
0.7031249999999963
 40
0.7031249999999963
 40
0.7187499999999971
 40
0.7187499999999971
 40
0.7343749999999978
 40
0.7343749999999978
 40
0.7499999999999984
 40
0.7499999999999984
 40
0.7812499999999999
 40
0.7812499999999999
 40
0.7968750000000002
 40
0.7968750000000002
 40
0.8125000000000004
 40
0.8125000000000004
 40
0.8437500000000001
 40
0.8437500000000001
 40
0.8593750000000003
 40
0.8593750000000003
 40
0.8750000000000004
 40
0.8750000000000004
 40
0.9062500000000003
 40
0.9062500000000003
 40
0.9218750000000003
 40
0.9218750000000003
 40
0.9375000000000002
 40
0.9531250000000002
 40
0.9531250000000002
 40
0.9687500000000001
 40
0.9687500000000001
 40
0.9843750000000001
 40
0.9843750000000001
 40
1.0
 40
1.0
 40
1.031249999999998
 40
1.031249999999998
 10
871.2531386956504
 20
194.6814590257973
 30
0.0
 10
871.2531476081184
 20
196.1627866815677
 30
0.0
 10
871.3511991798385
 20
197.1509349053893
 30
0.0
 10
871.7293097512003
 20
199.0667816388986
 30
0.0
 10
872.0092786876746
 20
199.9994090339793
 30
0.0
 10
872.5663151440967
 20
201.360208613468
 30
0.0
 10
872.7761812835802
 20
201.8093537950596
 30
0.0
 10
873.2345005618497
 20
202.6766364546616
 30
0.0
 10
873.4835348621965
 20
203.0964751623732
 30
0.0
 10
874.2886458366426
 20
204.3157066136832
 30
0.0
 10
874.9027766571659
 20
205.0764536865199
 30
0.0
 10
876.2887809719294
 20
206.4816035701781
 30
0.0
 10
877.0397271638507
 20
207.1056296560376
 30
0.0
 10
878.2500119184735
 20
207.9279878730922
 30
0.0
 10
878.6672734565386
 20
208.1833537157919
 30
0.0
 10
879.5315192653732
 20
208.6537898979551
 30
0.0
 10
879.9766562758191
 20
208.8687442210987
 30
0.0
 10
881.3282425657865
 20
209.4323128223633
 30
0.0
 10
882.2601865472807
 20
209.7045489738378
 30
0.0
 10
883.6970689523232
 20
209.9823020181997
 30
0.0
 10
884.1849917391438
 20
210.0526054541287
 30
0.0
 10
885.1638879508411
 20
210.1451941607417
 30
0.0
 10
885.6523133050707
 20
210.1677150275039
 30
0.0
 10
887.114563528355
 20
210.1649425963147
 30
0.0
 10
888.0854102459206
 20
210.0704223692018
 30
0.0
 10
890.0188809569239
 20
209.6902515886835
 30
0.0
 10
890.9543784092654
 20
209.4114995421911
 30
0.0
 10
892.2958052045666
 20
208.8453202678406
 30
0.0
 10
892.733253827033
 20
208.6322227803528
 30
0.0
 10
893.5906865947185
 20
208.1620725201421
 30
0.0
 10
894.0123354451837
 20
207.9025321045675
 30
0.0
 10
895.2250170543527
 20
207.0726516785186
 30
0.0
 10
895.9699561962204
 20
206.4478713871749
 30
0.0
 10
896.993519886866
 20
205.4050129987886
 30
0.0
 10
897.318865994406
 20
205.0395524910645
 30
0.0
 10
897.9371511001088
 20
204.272133609972
 30
0.0
 10
898.2255852906011
 20
203.8756996364388
 30
0.0
 10
899.0279354046609
 20
202.6533568159107
 30
0.0
 10
899.4802883564677
 20
201.7927360895702
 30
0.0
 10
900.0345912133363
 20
200.4329897706565
 30
0.0
 10
900.1990067862265
 20
199.9660634264552
 30
0.0
 10
900.4787987745904
 20
199.0276152181401
 30
0.0
 10
900.5949819404697
 20
198.5543581464383
 30
0.0
 10
900.8743406051915
 20
197.1228191539163
 30
0.0
 10
900.9695390498167
 20
196.1528263414039
 30
0.0
 10
900.9684504954641
 20
194.1808730385415
 30
0.0
 10
900.8722105327907
 20
193.2047834247649
 30
0.0
 10
900.5858456031497
 20
191.7553205356082
 30
0.0
 10
900.4670519012128
 20
191.278555561086
 30
0.0
 10
900.1856864742941
 20
190.3447083622941
 30
0.0
 10
900.022995319137
 20
189.8864141305799
 30
0.0
 10
899.6542293294416
 20
188.9868360113717
 30
0.0
 10
899.44815769019
 20
188.545550872325
 30
0.0
 10
898.9914649807033
 20
187.6804479096126
 30
0.0
 10
898.7392523846252
 20
187.2546811712473
 30
0.0
 10
897.9289697585306
 20
186.0279629726217
 30
0.0
 10
897.316464014954
 20
185.2716049591438
 30
0.0
 10
896.2892952196459
 20
184.2291899040862
 30
0.0
 10
895.9277510373629
 20
183.8963728597876
 30
0.0
 10
895.1713582101735
 20
183.2660273040612
 30
0.0
 10
894.7807391697961
 20
182.9718512819504
 30
0.0
 10
893.5726202409763
 20
182.1506109809064
 30
0.0
 10
892.7208394611912
 20
181.6815531842648
 30
0.0
 10
891.3632357322158
 20
181.1128067908315
 30
0.0
 10
890.8964218834356
 20
180.9466760644579
 30
0.0
 10
889.9591460084908
 20
180.6684045162607
 30
0.0
 10
889.485948944742
 20
180.5538803930744
 30
0.0
 10
888.5313552783625
 20
180.3690504842999
 30
0.0
 10
888.0498350910865
 20
180.2994185430606
 30
0.0
 10
887.0782100792671
 20
180.2064654991115
 30
0.0
 10
886.586166351411
 20
180.1829336164129
 30
0.0
 10
885.1104826616852
 20
180.1845736519901
 30
0.0
 10
884.1403318032915
 20
180.2800539051966
 30
0.0
 10
882.7049983989737
 20
180.5609436280869
 30
0.0
 10
882.2297843941079
 20
180.6769193619045
 30
0.0
 10
881.2866943365881
 20
180.9597062531337
 30
0.0
 10
880.8238139397467
 20
181.1262357889418
 30
0.0
 10
879.4776573867522
 20
181.6942053823915
 30
0.0
 10
878.6280160226256
 20
182.1630954304217
 30
0.0
 10
877.418179564144
 20
182.9887471178378
 30
0.0
 10
877.0240655171538
 20
183.2870016349839
 30
0.0
 10
876.2728777400466
 20
183.9156725553175
 30
0.0
 10
875.9150195326844
 20
184.2462547666342
 30
0.0
 10
874.893703743989
 20
185.2858742050045
 30
0.0
 10
874.2820162737166
 20
186.0423370092872
 30
0.0
 10
873.4707376333484
 20
187.2743703495532
 30
0.0
 10
873.2211921200435
 20
187.6972338197033
 30
0.0
 10
872.767380868809
 20
188.5592718462128
 30
0.0
 10
872.3570820194334
 20
189.4398758172167
 30
0.0
 10
872.0322982651278
 20
190.3569677339898
 30
0.0
 10
871.7512874672591
 20
191.2927370110684
 30
0.0
 10
871.632459464071
 20
191.7721913401742
 30
0.0
 10
871.4432626654484
 20
192.7349766999798
 30
0.0
 10
871.3723277063124
 20
193.2191546385355
 30
0.0
 10
871.277266795339
 20
194.1930200860026
 30
0.0
 10
871.2531386956504
 20
194.6814590257973
 30
0.0
 10
871.2531476081184
 20
196.1627866815677
 30
0.0
  0
ARC
  5
2AC
330
1F
100
AcDbEntity
  8
0
  6
Continuous
 62
     7
370
    15
100
AcDbCircle
 10
866.6110693642
 20
195.1751445087
 30
0.0
 40
4.0
100
AcDbArc
 50
90.0
 51
270.0
  0
LINE
  5
2AD
330
1F
100
AcDbEntity
  8
0
  6
Continuous
 62
     7
370
    15
100
AcDbLine
 10
591.2110733696
 20
179.7751445921
 30
0.0
 11
591.2110733696
 21
210.5751444252
 31
0.0
  0
LINE
  5
2AE
330
1F
100
AcDbEntity
  8
0
  6
Continuous
 62
     7
370
    15
100
AcDbLine
 10
595.2110665747
 20
214.5751450809
 30
0.0
 11
595.2110665747
 21
175.7751439365
 31
0.0
  0
LINE
  5
2AF
330
1F
100
AcDbEntity
  8
0
  6
Continuous
 62
     7
370
    15
100
AcDbLine
 10
598.711066217
 20
175.7751439365
 30
0.0
 11
598.711066217
 21
214.5751450809
 31
0.0
  0
LINE
  5
2B0
330
1F
100
AcDbEntity
  8
0
  6
Continuous
 62
     7
370
    15
100
AcDbLine
 10
600.7110702702
 20
195.1751445087
 30
0.0
 11
600.7110702702
 21
181.275144838
 31
0.0
  0
LINE
  5
2B1
330
1F
100
AcDbEntity
  8
0
  6
Continuous
 62
     7
370
    15
100
AcDbLine
 10
600.7110702702
 20
209.0751441794
 30
0.0
 11
600.7110702702
 21
195.1751445087
 31
0.0
  0
LINE
  5
2B2
330
1F
100
AcDbEntity
  8
0
  6
Continuous
 62
     7
370
    15
100
AcDbLine
 10
609.661065311
 20
216.1751442255
 30
0.0
 11
863.6610734173
 21
216.1751442255
 31
0.0
  0
LINE
  5
2B3
330
1F
100
AcDbEntity
  8
0
  6
Continuous
 62
     7
370
    15
100
AcDbLine
 10
609.661065311
 20
219.9751452209
 30
0.0
 11
863.6610734173
 21
219.9751452209
 31
0.0
  0
LINE
  5
2B4
330
1F
100
AcDbEntity
  8
0
  6
Continuous
 62
     7
370
    15
100
AcDbLine
 10
609.661065311
 20
170.3751437964
 30
0.0
 11
863.6610734173
 21
170.3751437964
 31
0.0
  0
LINE
  5
2B5
330
1F
100
AcDbEntity
  8
0
  6
Continuous
 62
     7
370
    15
100
AcDbLine
 10
609.661065311
 20
174.1751447918
 30
0.0
 11
863.6610734173
 21
174.1751447918
 31
0.0
  0
LINE
  5
2B6
330
1F
100
AcDbEntity
  8
0
  6
Continuous
 62
     7
370
    15
100
AcDbLine
 10
756.6610689171
 20
174.375144452
 30
0.0
 11
756.6610689171
 21
215.9751445653
 31
0.0
  0
LINE
  5
2B7
330
1F
100
AcDbEntity
  8
0
  6
Continuous
 62
     7
370
    15
100
AcDbLine
 10
756.6610689171
 20
215.9751445653
 30
0.0
 11
763.0368883618
 21
215.9751445653
 31
0.0
  0
LINE
  5
2B8
330
1F
100
AcDbEntity
  8
0
  6
Continuous
 62
     7
370
    15
100
AcDbLine
 10
763.0368883618
 20
215.9751445653
 30
0.0
 11
763.0368883618
 21
174.375144452
 31
0.0
  0
LINE
  5
2B9
330
1F
100
AcDbEntity
  8
0
  6
Continuous
 62
     7
370
    15
100
AcDbLine
 10
763.0368883618
 20
174.375144452
 30
0.0
 11
756.6610689171
 21
174.375144452
 31
0.0
  0
LINE
  5
2BA
330
1F
100
AcDbEntity
  8
0
  6
Continuous
 62
     7
370
    15
100
AcDbLine
 10
756.6610689171
 20
174.375144452
 30
0.0
 11
716.6610698112
 21
174.375144452
 31
0.0
  0
LINE
  5
2BB
330
1F
100
AcDbEntity
  8
0
  6
Continuous
 62
     7
370
    15
100
AcDbLine
 10
716.6610698112
 20
174.375144452
 30
0.0
 11
716.6610698112
 21
215.9751445653
 31
0.0
  0
LINE
  5
2BC
330
1F
100
AcDbEntity
  8
0
  6
Continuous
 62
     7
370
    15
100
AcDbLine
 10
756.6610689171
 20
215.9751445653
 30
0.0
 11
716.6610698112
 21
215.9751445653
 31
0.0
  0
LINE
  5
2BD
330
1F
100
AcDbEntity
  8
0
  6
Continuous
 62
     7
370
    15
100
AcDbLine
 10
710.2852503665
 20
174.375144452
 30
0.0
 11
710.2852503665
 21
215.9751445653
 31
0.0
  0
LINE
  5
2BE
330
1F
100
AcDbEntity
  8
0
  6
Continuous
 62
     7
370
    15
100
AcDbLine
 10
710.2852503665
 20
215.9751445653
 30
0.0
 11
716.6610698112
 21
215.9751445653
 31
0.0
  0
LINE
  5
2BF
330
1F
100
AcDbEntity
  8
0
  6
Continuous
 62
     7
370
    15
100
AcDbLine
 10
716.6610698112
 20
174.375144452
 30
0.0
 11
710.2852503665
 21
174.375144452
 31
0.0
  0
LINE
  5
2C0
330
1F
100
AcDbEntity
  8
0
  6
Continuous
 62
     7
370
    15
100
AcDbLine
 10
609.5639395424
 20
215.9751445653
 30
0.0
 11
609.5639395424
 21
174.375144452
 31
0.0
  0
LINE
  5
2C1
330
1F
100
AcDbEntity
  8
0
  6
Continuous
 62
     7
370
    15
100
AcDbLine
 10
710.2852503665
 20
174.375144452
 30
0.0
 11
609.5639395424
 21
174.375144452
 31
0.0
  0
LINE
  5
2C2
330
1F
100
AcDbEntity
  8
0
  6
Continuous
 62
     7
370
    15
100
AcDbLine
 10
710.2852503665
 20
215.9751445653
 30
0.0
 11
609.5639395424
 21
215.9751445653
 31
0.0
  0
LINE
  5
2C3
330
1F
100
AcDbEntity
  8
0
  6
Continuous
 62
     7
370
    15
100
AcDbLine
 10
861.0802444526
 20
174.375144452
 30
0.0
 11
763.0368883618
 21
174.375144452
 31
0.0
  0
LINE
  5
2C4
330
1F
100
AcDbEntity
  8
0
  6
Continuous
 62
     7
370
    15
100
AcDbLine
 10
861.0802444526
 20
215.9751445653
 30
0.0
 11
763.0368883618
 21
215.9751445653
 31
0.0
  0
LINE
  5
2C5
330
1F
100
AcDbEntity
  8
0
  6
Continuous
 62
     7
370
    15
100
AcDbLine
 10
868.7368112513
 20
174.375144452
 30
0.0
 11
861.0802444526
 21
174.375144452
 31
0.0
  0
LINE
  5
2C6
330
1F
100
AcDbEntity
  8
0
  6
Continuous
 62
     7
370
    15
100
AcDbLine
 10
861.0802444526
 20
215.9751445653
 30
0.0
 11
868.7368112513
 21
215.9751445653
 31
0.0
  0
LINE
  5
2C7
330
1F
100
AcDbEntity
  8
0
  6
Continuous
 62
     7
370
    15
100
AcDbLine
 10
871.6610747286
 20
215.1751440616
 30
0.0
 11
871.6610747286
 21
215.9751445653
 31
0.0
  0
LINE
  5
2C8
330
1F
100
AcDbEntity
  8
0
  6
Continuous
 62
     7
370
    15
100
AcDbLine
 10
871.6610747286
 20
174.375144452
 30
0.0
 11
868.7368112513
 21
174.375144452
 31
0.0
  0
LINE
  5
2C9
330
1F
100
AcDbEntity
  8
0
  6
Continuous
 62
     7
370
    15
100
AcDbLine
 10
871.6610747286
 20
215.9751445653
 30
0.0
 11
868.7368112513
 21
215.9751445653
 31
0.0
  0
LINE
  5
2CA
330
1F
100
AcDbEntity
  8
0
  6
Continuous
 62
     7
370
    15
100
AcDbLine
 10
601.7425733515
 20
174.375144452
 30
0.0
 11
601.7425733515
 21
215.9751445653
 31
0.0
  0
LINE
  5
2CB
330
1F
100
AcDbEntity
  8
0
  6
Continuous
 62
     7
370
    15
100
AcDbLine
 10
609.5639395424
 20
174.375144452
 30
0.0
 11
601.7425733515
 21
174.375144452
 31
0.0
  0
LINE
  5
2CC
330
1F
100
AcDbEntity
  8
0
  6
Continuous
 62
     7
370
    15
100
AcDbLine
 10
601.7425733515
 20
215.9751445653
 30
0.0
 11
609.5639395424
 21
215.9751445653
 31
0.0
  0
LINE
  5
2CD
330
1F
100
AcDbEntity
  8
0
  6
Continuous
 62
     7
370
    15
100
AcDbLine
 10
601.6610639997
 20
174.375144452
 30
0.0
 11
601.6610639997
 21
215.9751445653
 31
0.0
  0
LINE
  5
2CE
330
1F
100
AcDbEntity
  8
0
  6
Continuous
 62
     7
370
    15
100
AcDbLine
 10
601.7425733515
 20
174.375144452
 30
0.0
 11
601.6610639997
 21
174.375144452
 31
0.0
  0
LINE
  5
2CF
330
1F
100
AcDbEntity
  8
0
  6
Continuous
 62
     7
370
    15
100
AcDbLine
 10
601.7425733515
 20
215.9751445653
 30
0.0
 11
601.6610639997
 21
215.9751445653
 31
0.0
  0
LINE
  5
2D0
330
1F
100
AcDbEntity
  8
0
  6
Continuous
 62
     8
370
    15
100
AcDbLine
 10
861.0802444526
 20
174.375144452
 30
0.0
 11
861.0802444526
 21
199.1751446987
 31
0.0
  0
LINE
  5
2D1
330
1F
100
AcDbEntity
  8
0
  6
Continuous
 62
     8
370
    15
100
AcDbLine
 10
861.0802444526
 20
205.1751442852
 30
0.0
 11
861.0802444526
 21
215.9751445653
 31
0.0
  0
LINE
  5
2D2
330
1F
100
AcDbEntity
  8
0
  6
Continuous
 62
     8
370
    15
100
AcDbLine
 10
868.7368112513
 20
215.9751445653
 30
0.0
 11
868.7368112513
 21
205.1751442852
 31
0.0
  0
LINE
  5
2D3
330
1F
100
AcDbEntity
  8
0
  6
Continuous
 62
     8
370
    15
100
AcDbLine
 10
868.7368112513
 20
191.1751443187
 30
0.0
 11
868.7368112513
 21
174.375144452
 31
0.0
  0
ENDSEC
  0
SECTION
  2
OBJECTS
  0
DICTIONARY
  5
C
330
0
100
AcDbDictionary
281
     1
  3
ACAD_GROUP
350
D
  3
ACAD_LAYOUT
350
1A
  3
ACAD_MLINESTYLE
350
17
  3
ACAD_PLOTSETTINGS
350
19
  3
ACAD_PLOTSTYLENAME
350
E
  0
DICTIONARY
  5
D
102
{ACAD_REACTORS
330
C
102
}
330
C
100
AcDbDictionary
281
     1
  0
DICTIONARY
  5
1A
102
{ACAD_REACTORS
330
C
102
}
330
C
100
AcDbDictionary
281
     1
  3
Layout1
350
1E
  3
Layout2
350
26
  3
Model
350
22
  0
DICTIONARY
  5
17
102
{ACAD_REACTORS
330
C
102
}
330
C
100
AcDbDictionary
281
     1
  3
Standard
350
18
  0
DICTIONARY
  5
19
102
{ACAD_REACTORS
330
C
102
}
330
C
100
AcDbDictionary
281
     1
  0
ACDBDICTIONARYWDFLT
  5
E
102
{ACAD_REACTORS
330
C
102
}
330
C
100
AcDbDictionary
281
     1
  3
Normal
350
F
100
AcDbDictionaryWithDefault
340
F
  0
LAYOUT
  5
1E
102
{ACAD_REACTORS
330
1A
102
}
330
1A
100
AcDbPlotSettings
  1

  2
none_device
  4

  6

 40
0.0
 41
0.0
 42
0.0
 43
0.0
 44
0.0
 45
0.0
 46
0.0
 47
0.0
 48
0.0
 49
0.0
140
0.0
141
0.0
142
1.0
143
1.0
 70
   688
 72
     0
 73
     0
 74
     5
  7

 75
    16
147
1.0
148
0.0
149
0.0
100
AcDbLayout
  1
Layout1
 70
     1
 71
     1
 10
0.0
 20
0.0
 11
420.0
 21
297.0
 12
0.0
 22
0.0
 32
0.0
 14
1.0000000000E+20
 24
1.0000000000E+20
 34
1.0000000000E+20
 15
-1.0000000000E+20
 25
-1.0000000000E+20
 35
-1.0000000000E+20
146
0.0
 13
0.0
 23
0.0
 33
0.0
 16
1.0
 26
0.0
 36
0.0
 17
0.0
 27
1.0
 37
0.0
 76
     0
330
1B
  0
LAYOUT
  5
26
102
{ACAD_REACTORS
330
1A
102
}
330
1A
100
AcDbPlotSettings
  1

  2
none_device
  4

  6

 40
0.0
 41
0.0
 42
0.0
 43
0.0
 44
0.0
 45
0.0
 46
0.0
 47
0.0
 48
0.0
 49
0.0
140
0.0
141
0.0
142
1.0
143
1.0
 70
   688
 72
     0
 73
     0
 74
     5
  7

 75
    16
147
1.0
148
0.0
149
0.0
100
AcDbLayout
  1
Layout2
 70
     1
 71
     2
 10
0.0
 20
0.0
 11
0.0
 21
0.0
 12
0.0
 22
0.0
 32
0.0
 14
0.0
 24
0.0
 34
0.0
 15
0.0
 25
0.0
 35
0.0
146
0.0
 13
0.0
 23
0.0
 33
0.0
 16
1.0
 26
0.0
 36
0.0
 17
0.0
 27
1.0
 37
0.0
 76
     0
330
23
  0
LAYOUT
  5
22
102
{ACAD_REACTORS
330
1A
102
}
330
1A
100
AcDbPlotSettings
  1

  2
none_device
  4

  6

 40
0.0
 41
0.0
 42
0.0
 43
0.0
 44
0.0
 45
0.0
 46
0.0
 47
0.0
 48
0.0
 49
0.0
140
0.0
141
0.0
142
1.0
143
1.0
 70
  1712
 72
     0
 73
     0
 74
     0
  7

 75
     0
147
1.0
148
0.0
149
0.0
100
AcDbLayout
  1
Model
 70
     1
 71
     0
 10
0.0
 20
0.0
 11
1189.0
 21
841.0
 12
0.0
 22
0.0
 32
0.0
 14
0.0
 24
0.0
 34
0.0
 15
1189.0
 25
841.0
 35
0.0
146
0.0
 13
0.0
 23
0.0
 33
0.0
 16
1.0
 26
0.0
 36
0.0
 17
0.0
 27
1.0
 37
0.0
 76
     0
330
1F
331
29
  0
MLINESTYLE
  5
18
102
{ACAD_REACTORS
330
17
102
}
330
17
100
AcDbMlineStyle
  2
Standard
 70
     0
  3

 62
   256
 51
90.0
 52
90.0
 71
     2
 49
0.5
 62
   256
  6
BYLAYER
 49
-0.5
 62
   256
  6
BYLAYER
  0
ACDBPLACEHOLDER
  5
F
102
{ACAD_REACTORS
330
E
102
}
330
E
  0
ENDSEC
  0
EOF
