  0
SECTION
  2
HEADER
  9
$ACADVER
  1
AC1015
  9
$ACADMAINTVER
 70
     6
  9
$DWGCODEPAGE
  3
ANSI_1252
  9
$INSBASE
 10
0.0
 20
0.0
 30
0.0
  9
$EXTMIN
 10
0.0
 20
0.0
 30
0.0
  9
$EXTMAX
 10
1189.0
 20
841.0
 30
0.0
  9
$LIMMIN
 10
0.0
 20
0.0
  9
$LIMMAX
 10
1189.0
 20
841.0
  9
$ORTHOMODE
 70
     0
  9
$REGENMODE
 70
     1
  9
$FILLMODE
 70
     1
  9
$QTEXTMODE
 70
     0
  9
$MIRRTEXT
 70
     1
  9
$LTSCALE
 40
1.0
  9
$ATTMODE
 70
     1
  9
$TEXTSIZE
 40
3.5
  9
$TRACEWID
 40
1.0
  9
$TEXTSTYLE
  7
Standard
  9
$CLAYER
  8
0
  9
$CELTYPE
  6
ByLayer
  9
$CECOLOR
 62
   256
  9
$CELTSCALE
 40
1.0
  9
$DISPSILH
 70
     0
  9
$DIMSCALE
 40
1.0
  9
$DIMASZ
 40
6.0
  9
$DIMEXO
 40
1.0
  9
$DIMDLI
 40
3.75
  9
$DIMRND
 40
0.0
  9
$DIMDLE
 40
0.0
  9
$DIMEXE
 40
1.0
  9
$DIMTP
 40
0.0
  9
$DIMTM
 40
0.0
  9
$DIMTXT
 40
3.5
  9
$DIMCEN
 40
2.5
  9
$DIMTSZ
 40
0.0
  9
$DIMTOL
 70
     0
  9
$DIMLIM
 70
     0
  9
$DIMTIH
 70
     1
  9
$DIMTOH
 70
     1
  9
$DIMSE1
 70
     0
  9
$DIMSE2
 70
     0
  9
$DIMTAD
 70
     1
  9
$DIMZIN
 70
     0
  9
$DIMBLK
  1

  9
$DIMASO
 70
     1
  9
$DIMSHO
 70
     1
  9
$DIMPOST
  1

  9
$DIMAPOST
  1

  9
$DIMALT
 70
     0
  9
$DIMALTD
 70
     3
  9
$DIMALTF
 40
0.0393700787
  9
$DIMLFAC
 40
1.0
  9
$DIMTOFL
 70
     1
  9
$DIMTVP
 40
0.0
  9
$DIMTIX
 70
     0
  9
$DIMSOXD
 70
     0
  9
$DIMSAH
 70
     0
  9
$DIMBLK1
  1

  9
$DIMBLK2
  1

  9
$DIMSTYLE
  2
ISO-25
  9
$DIMCLRD
 70
     0
  9
$DIMCLRE
 70
     0
  9
$DIMCLRT
 70
     0
  9
$DIMTFAC
 40
1.0
  9
$DIMGAP
 40
1.524
  9
$DIMJUST
 70
     0
  9
$DIMSD1
 70
     0
  9
$DIMSD2
 70
     0
  9
$DIMTOLJ
 70
     0
  9
$DIMTZIN
 70
     0
  9
$DIMALTZ
 70
     0
  9
$DIMALTTZ
 70
     0
  9
$DIMUPT
 70
     0
  9
$DIMDEC
 70
     2
  9
$DIMTDEC
 70
     2
  9
$DIMALTU
 70
     2
  9
$DIMALTTD
 70
     3
  9
$DIMTXSTY
  7
Standard
  9
$DIMAUNIT
 70
     0
  9
$DIMADEC
 70
     2
  9
$DIMALTRND
 40
0.0
  9
$DIMAZIN
 70
     0
  9
$DIMDSEP
 70
    44
  9
$DIMATFIT
 70
     3
  9
$DIMFRAC
 70
     0
  9
$DIMLDRBLK
  1

  9
$DIMLUNIT
 70
     2
  9
$DIMLWD
 70
    -2
  9
$DIMLWE
 70
    -2
  9
$DIMTMOVE
 70
     0
  9
$LUNITS
 70
     2
  9
$LUPREC
 70
     2
  9
$SKETCHINC
 40
1.0
  9
$FILLETRAD
 40
10.0
  9
$AUNITS
 70
     0
  9
$AUPREC
 70
     2
  9
$MENU
  1
.
  9
$ELEVATION
 40
0.0
  9
$PELEVATION
 40
0.0
  9
$THICKNESS
 40
0.0
  9
$LIMCHECK
 70
     0
  9
$CHAMFERA
 40
10.0
  9
$CHAMFERB
 40
10.0
  9
$CHAMFERC
 40
20.0
  9
$CHAMFERD
 40
0.0
  9
$SKPOLY
 70
     0
  9
$TDCREATE
 40
2457834.806533901
  9
$TDUCREATE
 40
2457834.764867234
  9
$TDUPDATE
 40
2457834.806533912
  9
$TDUUPDATE
 40
2457834.764867245
  9
$TDINDWG
 40
0.0000000116
  9
$TDUSRTIMER
 40
0.0000000116
  9
$USRTIMER
 70
     1
  9
$ANGBASE
 50
0.0
  9
$ANGDIR
 70
     0
  9
$PDMODE
 70
     0
  9
$PDSIZE
 40
-1.0
  9
$PLINEWID
 40
0.0
  9
$SPLFRAME
 70
     0
  9
$SPLINETYPE
 70
     6
  9
$SPLINESEGS
 70
     8
  9
$HANDSEED
  5
2D5
  9
$SURFTAB1
 70
     6
  9
$SURFTAB2
 70
     6
  9
$SURFTYPE
 70
     6
  9
$SURFU
 70
     6
  9
$SURFV
 70
     6
  9
$UCSBASE
  2

  9
$UCSNAME
  2

  9
$UCSORG
 10
0.0
 20
0.0
 30
0.0
  9
$UCSXDIR
 10
1.0
 20
0.0
 30
0.0
  9
$UCSYDIR
 10
0.0
 20
1.0
 30
0.0
  9
$UCSORTHOREF
  2

  9
$UCSORTHOVIEW
 70
     0
  9
$UCSORGTOP
 10
0.0
 20
0.0
 30
0.0
  9
$UCSORGBOTTOM
 10
0.0
 20
0.0
 30
0.0
  9
$UCSORGLEFT
 10
0.0
 20
0.0
 30
0.0
  9
$UCSORGRIGHT
 10
0.0
 20
0.0
 30
0.0
  9
$UCSORGFRONT
 10
0.0
 20
0.0
 30
0.0
  9
$UCSORGBACK
 10
0.0
 20
0.0
 30
0.0
  9
$PUCSBASE
  2

  9
$PUCSNAME
  2

  9
$PUCSORG
 10
0.0
 20
0.0
 30
0.0
  9
$PUCSXDIR
 10
1.0
 20
0.0
 30
0.0
  9
$PUCSYDIR
 10
0.0
 20
1.0
 30
0.0
  9
$PUCSORTHOREF
  2

  9
$PUCSORTHOVIEW
 70
     0
  9
$PUCSORGTOP
 10
0.0
 20
0.0
 30
0.0
  9
$PUCSORGBOTTOM
 10
0.0
 20
0.0
 30
0.0
  9
$PUCSORGLEFT
 10
0.0
 20
0.0
 30
0.0
  9
$PUCSORGRIGHT
 10
0.0
 20
0.0
 30
0.0
  9
$PUCSORGFRONT
 10
0.0
 20
0.0
 30
0.0
  9
$PUCSORGBACK
 10
0.0
 20
0.0
 30
0.0
  9
$USERI1
 70
     0
  9
$USERI2
 70
     0
  9
$USERI3
 70
     0
  9
$USERI4
 70
     0
  9
$USERI5
 70
     0
  9
$USERR1
 40
0.0
  9
$USERR2
 40
0.0
  9
$USERR3
 40
0.0
  9
$USERR4
 40
0.0
  9
$USERR5
 40
0.0
  9
$WORLDVIEW
 70
     1
  9
$SHADEDGE
 70
     3
  9
$SHADEDIF
 70
    70
  9
$TILEMODE
 70
     1
  9
$MAXACTVP
 70
    64
  9
$PINSBASE
 10
0.0
 20
0.0
 30
0.0
  9
$PLIMCHECK
 70
     0
  9
$PEXTMIN
 10
1.0000000000E+20
 20
1.0000000000E+20
 30
1.0000000000E+20
  9
$PEXTMAX
 10
-1.0000000000E+20
 20
-1.0000000000E+20
 30
-1.0000000000E+20
  9
$PLIMMIN
 10
0.0
 20
0.0
  9
$PLIMMAX
 10
420.0
 20
297.0
  9
$UNITMODE
 70
     0
  9
$VISRETAIN
 70
     1
  9
$PLINEGEN
 70
     0
  9
$PSLTSCALE
 70
     1
  9
$TREEDEPTH
 70
  3020
  9
$CMLSTYLE
  2
Standard
  9
$CMLJUST
 70
     0
  9
$CMLSCALE
 40
20.0
  9
$PROXYGRAPHICS
 70
     1
  9
$MEASUREMENT
 70
     1
  9
$CELWEIGHT
370
    -1
  9
$ENDCAPS
280
     0
  9
$JOINSTYLE
280
     0
  9
$LWDISPLAY
290
     1
  9
$INSUNITS
 70
     4
  9
$HYPERLINKBASE
  1

  9
$STYLESHEET
  1

  9
$XEDIT
290
     1
  9
$CEPSNTYPE
380
     0
  9
$PSTYLEMODE
290
     1
  9
$FINGERPRINTGUID
  2
{82C13987-BFC2-4C6F-9BC3-480759F3E126}
  9
$VERSIONGUID
  2
{FAEB1C32-E019-11D5-929B-00C0DF256EC4}
  9
$EXTNAMES
290
     1
  9
$PSVPSCALE
 40
0.0
  9
$OLESTARTUP
290
     0
  0
ENDSEC
  0
SECTION
  2
CLASSES
  0
CLASS
  1
ACDBDICTIONARYWDFLT
  2
AcDbDictionaryWithDefault
  3
ObjectDBX Classes
 90
        0
280
     0
281
     0
  0
CLASS
  1
VISUALSTYLE
  2
AcDbVisualStyle
  3
ObjectDBX Classes
 90
     4095
280
     0
281
     0
  0
CLASS
  1
MATERIAL
  2
AcDbMaterial
  3
ObjectDBX Classes
 90
     1153
280
     0
281
     0
  0
CLASS
  1
ACDBPLACEHOLDER
  2
AcDbPlaceHolder
  3
ObjectDBX Classes
 90
        0
280
     0
281
     0
  0
CLASS
  1
LAYOUT
  2
AcDbLayout
  3
ObjectDBX Classes
 90
        0
280
     0
281
     0
  0
ENDSEC
  0
SECTION
  2
TABLES
  0
TABLE
  2
VPORT
  5
8
330
0
100
AcDbSymbolTable
 70
     1
  0
VPORT
  5
29
330
8
100
AcDbSymbolTableRecord
100
AcDbViewportTableRecord
  2
*Active
 70
     0
 10
0.0
 20
0.0
 11
1.0
 21
1.0
 12
594.5
 22
420.5
 13
0.0
 23
0.0
 14
10.0
 24
10.0
 15
10.0
 25
10.0
 16
0.0
 26
0.0
 36
1.0
 17
0.0
 27
0.0
 37
0.0
 40
841.0
 41
1.4137931034
 42
50.0
 43
0.0
 44
0.0
 50
0.0
 51
0.0
 71
     0
 72
  2000
 73
     1
 74
     3
 75
     0
 76
     0
 77
     0
 78
     0
281
     0
 65
     1
110
0.0
120
0.0
130
0.0
111
1.0
121
0.0
131
0.0
112
0.0
122
1.0
132
0.0
 79
     0
146
0.0
  0
ENDTAB
  0
TABLE
  2
LTYPE
  5
5
330
0
100
AcDbSymbolTable
 70
     6
  0
LTYPE
  5
14
330
5
100
AcDbSymbolTableRecord
100
AcDbLinetypeTableRecord
  2
ByBlock
 70
     0
  3

 72
    65
 73
     0
 40
0.0
  0
LTYPE
  5
15
330
5
100
AcDbSymbolTableRecord
100
AcDbLinetypeTableRecord
  2
ByLayer
 70
     0
  3

 72
    65
 73
     0
 40
0.0
  0
LTYPE
  5
16
330
5
100
AcDbSymbolTableRecord
100
AcDbLinetypeTableRecord
  2
Continuous
 70
     0
  3
Solid line
 72
    65
 73
     0
 40
0.0
  0
LTYPE
  5
3F
330
5
100
AcDbSymbolTableRecord
100
AcDbLinetypeTableRecord
  2
HIDDEN
 70
     0
  3
Hidden __ __ __ __ __ __ __ __ __ __ __ __ __ __
 72
    65
 73
     2
 40
1.905
 49
1.27
 74
     0
 49
-0.635
 74
     0
  0
LTYPE
  5
40
330
5
100
AcDbSymbolTableRecord
100
AcDbLinetypeTableRecord
  2
PHANTOM
 70
     0
  3
Phantom ______  __  __  ______  __  __  ______
 72
    65
 73
     6
 40
12.7
 49
6.35
 74
     0
 49
-1.27
 74
     0
 49
1.27
 74
     0
 49
-1.27
 74
     0
 49
1.27
 74
     0
 49
-1.27
 74
     0
  0
LTYPE
  5
41
330
5
100
AcDbSymbolTableRecord
100
AcDbLinetypeTableRecord
  2
CENTER
 70
     0
  3
Center ____ _ ____ _ ____ _ ____ _ ____ _ ____
 72
    65
 73
     4
 40
10.16
 49
6.35
 74
     0
 49
-1.27
 74
     0
 49
1.27
 74
     0
 49
-1.27
 74
     0
  0
LTYPE
  5
42
330
5
100
AcDbSymbolTableRecord
100
AcDbLinetypeTableRecord
  2
CENTERX2
 70
     0
  3
Center (2x) ________  __  ________  __  _____
 72
    65
 73
     4
 40
20.32
 49
12.7
 74
     0
 49
-2.54
 74
     0
 49
2.54
 74
     0
 49
-2.54
 74
     0
  0
LTYPE
  5
43
330
5
100
AcDbSymbolTableRecord
100
AcDbLinetypeTableRecord
  2
DOT2
 70
     0
  3
Dot (.5x) ........................................
 72
    65
 73
     2
 40
0.635
 49
0.0
 74
     0
 49
-0.635
 74
     0
  0
ENDTAB
  0
TABLE
  2
LAYER
  5
2
330
0
100
AcDbSymbolTable
 70
     2
  0
LAYER
  5
10
330
2
100
AcDbSymbolTableRecord
100
AcDbLayerTableRecord
  2
0
 70
     0
 62
     7
  6
Continuous
370
    -3
390
F
  0
LAYER
  5
44
330
2
100
AcDbSymbolTableRecord
100
AcDbLayerTableRecord
  2
FORMAT
 70
     0
 62
     7
  6
Continuous
370
    -3
390
F
  0
ENDTAB
  0
TABLE
  2
STYLE
  5
3
330
0
100
AcDbSymbolTable
 70
     1
  0
STYLE
  5
11
330
3
100
AcDbSymbolTableRecord
100
AcDbTextStyleTableRecord
  2
Standard
 70
     0
 40
0.0
 41
1.0
 50
0.0
 71
     0
 42
2.5
  3
txt
  4

  0
ENDTAB
  0
TABLE
  2
VIEW
  5
6
330
0
100
AcDbSymbolTable
 70
     0
  0
ENDTAB
  0
TABLE
  2
UCS
  5
7
330
0
100
AcDbSymbolTable
 70
     0
  0
ENDTAB
  0
TABLE
  2
APPID
  5
9
330
0
100
AcDbSymbolTable
 70
     1
  0
APPID
  5
12
330
9
100
AcDbSymbolTableRecord
100
AcDbRegAppTableRecord
  2
ACAD
 70
     0
  0
ENDTAB
  0
TABLE
  2
DIMSTYLE
  5
A
330
0
100
AcDbSymbolTable
 70
     1
100
AcDbDimStyleTable
  0
DIMSTYLE
105
27
330
A
100
AcDbSymbolTableRecord
100
AcDbDimStyleTableRecord
  2
ISO-25
 70
     0
 41
2.5
 42
0.625
 43
3.75
 44
1.25
 73
     0
 74
     0
 77
     1
 78
     8
140
2.5
141
2.5
143
0.0393700787
147
0.625
171
     3
172
     1
178
     0
271
     2
272
     2
274
     3
278
    44
283
     0
284
     8
340
11
  0
ENDTAB
  0
TABLE
  2
BLOCK_RECORD
  5
1
330
0
100
AcDbSymbolTable
 70
     1
  0
BLOCK_RECORD
  5
1F
330
1
100
AcDbSymbolTableRecord
100
AcDbBlockTableRecord
  2
*Model_Space
340
22
  0
BLOCK_RECORD
  5
1B
330
1
100
AcDbSymbolTableRecord
100
AcDbBlockTableRecord
  2
*Paper_Space
340
1E
  0
BLOCK_RECORD
  5
23
330
1
100
AcDbSymbolTableRecord
100
AcDbBlockTableRecord
  2
*Paper_Space0
340
26
  0
ENDTAB
  0
ENDSEC
  0
SECTION
  2
BLOCKS
  0
BLOCK
  5
20
330
1F
100
AcDbEntity
  8
0
100
AcDbBlockBegin
  2
*Model_Space
 70
     0
 10
0.0
 20
0.0
 30
0.0
  3
*Model_Space
  1

  0
ENDBLK
  5
21
330
1F
100
AcDbEntity
  8
0
100
AcDbBlockEnd
  0
BLOCK
  5
1C
330
1B
100
AcDbEntity
 67
     1
  8
0
100
AcDbBlockBegin
  2
*Paper_Space
 70
     0
 10
0.0
 20
0.0
 30
0.0
  3
*Paper_Space
  1

  0
ENDBLK
  5
1D
330
1B
100
AcDbEntity
 67
     1
  8
0
100
AcDbBlockEnd
  0
BLOCK
  5
24
330
23
100
AcDbEntity
  8
0
100
AcDbBlockBegin
  2
*Paper_Space0
 70
     0
 10
0.0
 20
0.0
 30
0.0
  3
*Paper_Space0
  1

  0
ENDBLK
  5
25
330
23
100
AcDbEntity
  8
0
100
AcDbBlockEnd
  0
ENDSEC
  0
SECTION
  2
ENTITIES
  0
LINE
  5
45
330
1F
100
AcDbEntity
  8
0
  6
Continuous
 62
     7
370
    15
100
AcDbLine
 10
924.7857361062
 20
521.2397664019
 30
0.0
 11
924.7855721934
 21
521.2397664019
 31
0.0
  0
LINE
  5
46
330
1F
100
AcDbEntity
  8
0
  6
Continuous
 62
     7
370
    15
100
AcDbLine
 10
921.7855810149
 20
521.2397664019
 30
0.0
 11
920.7355706914
 21
521.2397664019
 31
0.0
  0
LINE
  5
47
330
1F
100
AcDbEntity
  8
0
  6
Continuous
 62
     7
370
    15
100
AcDbLine
 10
912.7355842812
 20
521.2397664019
 30
0.0
 11
911.1854164823
 21
521.2397664019
 31
0.0
  0
LINE
  5
48
330
1F
100
AcDbEntity
  8
0
  6
Continuous
 62
     7
370
    15
100
AcDbLine
 10
911.1854164823
 20
515.2397691438
 30
0.0
 11
912.7355842812
 21
515.2397691438
 31
0.0
  0
LINE
  5
49
330
1F
100
AcDbEntity
  8
0
  6
Continuous
 62
     7
370
    15
100
AcDbLine
 10
920.7355706914
 20
515.2397691438
 30
0.0
 11
921.7855810149
 21
515.2397691438
 31
0.0
  0
LINE
  5
4A
330
1F
100
AcDbEntity
  8
0
  6
Continuous
 62
     7
370
    15
100
AcDbLine
 10
924.7855721934
 20
515.2397691438
 30
0.0
 11
924.7857361062
 21
515.2397691438
 31
0.0
  0
ARC
  5
4B
330
1F
100
AcDbEntity
  8
0
  6
Continuous
 62
     7
370
    15
100
AcDbCircle
 10
928.0855780347
 20
428.7342152867
 30
0.0
 40
2.0
100
AcDbArc
 50
304.3297726759
 51
0.0
  0
ARC
  5
4C
330
1F
100
AcDbEntity
  8
0
  6
Continuous
 62
     7
370
    15
100
AcDbCircle
 10
928.0855780347
 20
439.7453222856
 30
0.0
 40
2.0
100
AcDbArc
 50
0.0
 51
55.5529438572
  0
ARC
  5
4D
330
1F
100
AcDbEntity
  8
0
  6
Continuous
 62
     7
370
    15
100
AcDbCircle
 10
928.0855780347
 20
439.7453222856
 30
0.0
 40
2.000000000000018
100
AcDbArc
 50
70.5218639187
 51
94.1666471768
  0
LINE
  5
4E
330
1F
100
AcDbEntity
  8
0
  6
Continuous
 62
     7
370
    15
100
AcDbLine
 10
924.7855721934
 20
427.7397687712
 30
0.0
 11
925.1855789645
 21
427.7397687712
 31
0.0
  0
LINE
  5
4F
330
1F
100
AcDbEntity
  8
0
  6
Continuous
 62
     7
370
    15
100
AcDbLine
 10
925.1855789645
 20
440.7397690394
 30
0.0
 11
924.7855721934
 21
440.7397690394
 31
0.0
  0
ARC
  5
50
330
1F
100
AcDbEntity
  8
0
  6
Continuous
 62
     7
370
    15
100
AcDbCircle
 10
928.0855780347
 20
472.7342152867
 30
0.0
 40
2.000000000000023
100
AcDbArc
 50
304.3297726759
 51
0.0
  0
ARC
  5
51
330
1F
100
AcDbEntity
  8
0
  6
Continuous
 62
     7
370
    15
100
AcDbCircle
 10
928.0855780347
 20
483.7453222856
 30
0.0
 40
2.0
100
AcDbArc
 50
0.0
 51
55.5529438572
  0
ARC
  5
52
330
1F
100
AcDbEntity
  8
0
  6
Continuous
 62
     7
370
    15
100
AcDbCircle
 10
928.0855780347
 20
483.7453222856
 30
0.0
 40
1.999999999999965
100
AcDbArc
 50
70.5218639187
 51
94.1666471768
  0
LINE
  5
53
330
1F
100
AcDbEntity
  8
0
  6
Continuous
 62
     7
370
    15
100
AcDbLine
 10
924.7855721934
 20
471.7397685328
 30
0.0
 11
925.1855789645
 21
471.7397685328
 31
0.0
  0
LINE
  5
54
330
1F
100
AcDbEntity
  8
0
  6
Continuous
 62
     7
370
    15
100
AcDbLine
 10
925.1855789645
 20
484.739768801
 30
0.0
 11
924.7855721934
 21
484.739768801
 31
0.0
  0
ARC
  5
55
330
1F
100
AcDbEntity
  8
0
  6
Continuous
 62
     7
370
    15
100
AcDbCircle
 10
917.7540400051
 20
519.2397687861
 30
0.0
 40
64.0315380295994
100
AcDbArc
 50
340.0
 51
0.0
  0
ARC
  5
56
330
1F
100
AcDbEntity
  8
0
  6
Continuous
 62
     7
370
    15
100
AcDbCircle
 10
917.7540400051
 20
519.2397687861
 30
0.0
 40
64.0315380295994
100
AcDbArc
 50
0.0
 51
16.8193398341
  0
SPLINE
  5
57
330
1F
100
AcDbEntity
  8
0
  6
Continuous
 62
     7
370
    15
100
AcDbSpline
210
0.0
220
0.0
230
1.0
 70
     8
 71
     3
 72
    19
 73
    15
 74
     0
 42
0.00000001
 43
0.00000001
 40
0.0
 40
0.0
 40
0.0
 40
0.0
 40
0.0033178186416569
 40
0.060172135222345
 40
0.1417259983885507
 40
0.2389738698955695
 40
0.3405839692736499
 40
0.4417554565399568
 40
0.5421362762523959
 40
0.6423010306656387
 40
0.7411563674106948
 40
0.8392907099459096
 40
0.9376609793546888
 40
1.0
 40
1.0
 40
1.0
 40
1.0
 10
969.7076856120067
 20
503.7387251087987
 30
0.0
 10
969.7064441895382
 20
503.7386181753475
 30
0.0
 10
969.6839296856683
 20
503.7366788245925
 30
0.0
 10
969.803269245805
 20
503.7353265647076
 30
0.0
 10
970.1152585546024
 20
503.6851141654413
 30
0.0
 10
970.7390883415065
 20
503.5876904976723
 30
0.0
 10
971.6220286017511
 20
503.4747602573999
 30
0.0
 10
972.6757579671348
 20
503.3955609036411
 30
0.0
 10
973.7925086132177
 20
503.3793053647938
 30
0.0
 10
974.8756020778511
 20
503.4301505095363
 30
0.0
 10
975.8404330476092
 20
503.5299264921031
 30
0.0
 10
976.6012564194267
 20
503.6410540343595
 30
0.0
 10
977.0923589710329
 20
503.7200302200199
 30
0.0
 10
977.2023216284147
 20
503.7300913030748
 30
0.0
 10
977.2449760659175
 20
503.7339939901196
 30
0.0
  0
SPLINE
  5
58
330
1F
100
AcDbEntity
  8
0
  6
Continuous
 62
     7
370
    15
100
AcDbSpline
210
0.0
220
0.0
230
1.0
 70
     8
 71
     3
 72
    10
 73
     6
 74
     0
 42
0.00000001
 43
0.00000001
 40
0.0
 40
0.0
 40
0.0
 40
0.0
 40
0.3759189755713275
 40
0.8747338143867256
 40
1.0
 40
1.0
 40
1.0
 40
1.0
 10
969.3349926693874
 20
540.0532721707189
 30
0.0
 10
969.2080113139774
 20
539.8730288429158
 30
0.0
 10
968.9125357126059
 20
539.4536168315714
 30
0.0
 10
968.7707257417339
 20
538.938979707656
 30
0.0
 10
968.800489225837
 20
538.6691439924704
 30
0.0
 10
968.8064633830028
 20
538.6149822899663
 30
0.0
  0
SPLINE
  5
59
330
1F
100
AcDbEntity
  8
0
  6
Continuous
 62
     7
370
    15
100
AcDbSpline
210
0.0
220
0.0
230
1.0
 70
     8
 71
     3
 72
    13
 73
     9
 74
     0
 42
0.00000001
 43
0.00000001
 40
0.0
 40
0.0
 40
0.0
 40
0.0
 40
0.1786003244245083
 40
0.3712696552346259
 40
0.5649652553375977
 40
0.7593953224943989
 40
0.9587035786030103
 40
1.0
 40
1.0
 40
1.0
 40
1.0
 10
974.1416304333644
 20
541.7872755953633
 30
0.0
 10
973.7826512653821
 20
541.8087918878751
 30
0.0
 10
973.0364148161333
 20
541.8535193906303
 30
0.0
 10
971.9190889836988
 20
541.6650231665571
 30
0.0
 10
970.8837763605004
 20
541.3057502773314
 30
0.0
 10
970.0395650480621
 20
540.7945059956668
 30
0.0
 10
969.5211488335383
 20
540.3592958434423
 30
0.0
 10
969.3622631675527
 20
540.098102370372
 30
0.0
 10
969.3349926693874
 20
540.0532721707189
 30
0.0
  0
LINE
  5
5A
330
1F
100
AcDbEntity
  8
0
  6
Continuous
 62
     7
370
    15
100
AcDbLine
 10
968.785571955
 20
529.7397687265
 30
0.0
 11
949.7855781539
 21
529.7397687265
 31
0.0
  0
LINE
  5
5B
330
1F
100
AcDbEntity
  8
0
  6
Continuous
 62
     7
370
    15
100
AcDbLine
 10
949.7855781539
 20
508.739767147
 30
0.0
 11
968.785571955
 21
508.739767147
 31
0.0
  0
SPLINE
  5
5C
330
1F
100
AcDbEntity
  8
0
  6
Continuous
 62
     7
370
    15
100
AcDbSpline
210
0.0
220
0.0
230
1.0
 70
     8
 71
     3
 72
    13
 73
     9
 74
     0
 42
0.00000001
 43
0.00000001
 40
0.0
 40
0.0
 40
0.0
 40
0.0
 40
0.0058721449345794
 40
0.1047534820938843
 40
0.3519677261837442
 40
0.6197198806853466
 40
0.8917144923247814
 40
1.0
 40
1.0
 40
1.0
 40
1.0
 10
978.9804547055203
 20
537.9066406914556
 30
0.0
 10
978.9805230356093
 20
537.9065266734375
 30
0.0
 10
978.9817419794251
 20
537.9044927004103
 30
0.0
 10
978.9578486361078
 20
537.9447384328613
 30
0.0
 10
978.8499030541473
 20
538.1281041100391
 30
0.0
 10
978.5485565088226
 20
538.6368930901319
 30
0.0
 10
978.2100545390131
 20
539.2070185588939
 30
0.0
 10
977.9255286801416
 20
539.6797215104818
 30
0.0
 10
977.8445093853909
 20
539.8143246003949
 30
0.0
  0
SPLINE
  5
5D
330
1F
100
AcDbEntity
  8
0
  6
Continuous
 62
     7
370
    15
100
AcDbSpline
210
0.0
220
0.0
230
1.0
 70
     8
 71
     3
 72
    18
 73
    14
 74
     0
 42
0.00000001
 43
0.00000001
 40
0.0
 40
0.0
 40
0.0
 40
0.0
 40
0.0134278283873958
 40
0.0438905523323415
 40
0.0569520478069373
 40
0.0613377271103865
 40
0.0645005924927188
 40
0.068332634849699
 40
0.0749961169831659
 40
0.0913279752592949
 40
0.1588017811032535
 40
0.6274476909726926
 40
1.0
 40
1.0
 40
1.0
 40
1.0
 10
979.0438442452388
 20
537.7676426598393
 30
0.0
 10
979.0409447783102
 20
537.7771913080134
 30
0.0
 10
979.0314675046
 20
537.8084022700764
 30
0.0
 10
979.0133318640859
 20
537.8462371537053
 30
0.0
 10
978.9965860229364
 20
537.8783940645237
 30
0.0
 10
978.9901658400681
 20
537.8898659624274
 30
0.0
 10
978.9878093305729
 20
537.8940745954401
 30
0.0
 10
978.9859973743355
 20
537.8971195063016
 30
0.0
 10
978.9843898500177
 20
537.9000477371327
 30
0.0
 10
978.9824862975948
 20
537.9031268682344
 30
0.0
 10
978.9797809341217
 20
537.9080140899499
 30
0.0
 10
978.971149799904
 20
537.9224274125694
 30
0.0
 10
978.9142713001557
 20
538.018720386775
 30
0.0
 10
978.8890807850795
 20
538.0613668987119
 30
0.0
  0
LINE
  5
5E
330
1F
100
AcDbEntity
  8
0
  6
Continuous
 62
     7
370
    15
100
AcDbLine
 10
948.4784631951
 20
514.2397671172
 30
0.0
 11
948.9472686274
 21
515.0517686436
 31
0.0
  0
LINE
  5
5F
330
1F
100
AcDbEntity
  8
0
  6
Continuous
 62
     7
370
    15
100
AcDbLine
 10
948.9472686274
 20
523.4277709553
 30
0.0
 11
948.4784631951
 21
524.2397724816
 31
0.0
  0
LINE
  5
60
330
1F
100
AcDbEntity
  8
0
  6
Continuous
 62
     7
370
    15
100
AcDbLine
 10
949.7855781539
 20
524.2397724816
 30
0.0
 11
949.3167727216
 21
523.4277709553
 31
0.0
  0
LINE
  5
61
330
1F
100
AcDbEntity
  8
0
  6
Continuous
 62
     7
370
    15
100
AcDbLine
 10
949.3167727216
 20
515.0517686436
 30
0.0
 11
949.7855781539
 21
514.2397671172
 31
0.0
  0
LINE
  5
62
330
1F
100
AcDbEntity
  8
0
  6
Continuous
 62
     7
370
    15
100
AcDbLine
 10
942.4784510358
 20
514.2397671172
 30
0.0
 11
942.9472713693
 21
515.0517686436
 31
0.0
  0
LINE
  5
63
330
1F
100
AcDbEntity
  8
0
  6
Continuous
 62
     7
370
    15
100
AcDbLine
 10
942.9472713693
 20
523.4277709553
 30
0.0
 11
942.4784510358
 21
524.2397724816
 31
0.0
  0
LINE
  5
64
330
1F
100
AcDbEntity
  8
0
  6
Continuous
 62
     7
370
    15
100
AcDbLine
 10
946.478459142
 20
514.2397671172
 30
0.0
 11
946.9472645743
 21
515.0517686436
 31
0.0
  0
LINE
  5
65
330
1F
100
AcDbEntity
  8
0
  6
Continuous
 62
     7
370
    15
100
AcDbLine
 10
946.9472645743
 20
523.4277709553
 30
0.0
 11
946.478459142
 21
524.2397724816
 31
0.0
  0
LINE
  5
66
330
1F
100
AcDbEntity
  8
0
  6
Continuous
 62
     7
370
    15
100
AcDbLine
 10
943.7855808957
 20
524.2397724816
 30
0.0
 11
943.3167754634
 21
523.4277709553
 31
0.0
  0
LINE
  5
67
330
1F
100
AcDbEntity
  8
0
  6
Continuous
 62
     7
370
    15
100
AcDbLine
 10
943.3167754634
 20
515.0517686436
 30
0.0
 11
943.7855808957
 21
514.2397671172
 31
0.0
  0
LINE
  5
68
330
1F
100
AcDbEntity
  8
0
  6
Continuous
 62
     7
370
    15
100
AcDbLine
 10
945.7855849488
 20
524.2397724816
 30
0.0
 11
945.3167646153
 21
523.4277709553
 31
0.0
  0
LINE
  5
69
330
1F
100
AcDbEntity
  8
0
  6
Continuous
 62
     7
370
    15
100
AcDbLine
 10
945.3167646153
 20
515.0517686436
 30
0.0
 11
945.7855849488
 21
514.2397671172
 31
0.0
  0
LINE
  5
6A
330
1F
100
AcDbEntity
  8
0
  6
Continuous
 62
     7
370
    15
100
AcDbLine
 10
946.478459142
 20
524.2397724816
 30
0.0
 11
945.7855849488
 21
524.2397724816
 31
0.0
  0
LINE
  5
6B
330
1F
100
AcDbEntity
  8
0
  6
Continuous
 62
     7
370
    15
100
AcDbLine
 10
945.7855849488
 20
514.2397671172
 30
0.0
 11
946.478459142
 21
514.2397671172
 31
0.0
  0
LINE
  5
6C
330
1F
100
AcDbEntity
  8
0
  6
Continuous
 62
     7
370
    15
100
AcDbLine
 10
944.4784550889
 20
524.2397724816
 30
0.0
 11
943.7855808957
 21
524.2397724816
 31
0.0
  0
LINE
  5
6D
330
1F
100
AcDbEntity
  8
0
  6
Continuous
 62
     7
370
    15
100
AcDbLine
 10
943.7855808957
 20
514.2397671172
 30
0.0
 11
944.4784550889
 21
514.2397671172
 31
0.0
  0
LINE
  5
6E
330
1F
100
AcDbEntity
  8
0
  6
Continuous
 62
     7
370
    15
100
AcDbLine
 10
942.4784510358
 20
524.2397724816
 30
0.0
 11
941.7855768426
 21
524.2397724816
 31
0.0
  0
LINE
  5
6F
330
1F
100
AcDbEntity
  8
0
  6
Continuous
 62
     7
370
    15
100
AcDbLine
 10
941.7855768426
 20
514.2397671172
 30
0.0
 11
942.4784510358
 21
514.2397671172
 31
0.0
  0
LINE
  5
70
330
1F
100
AcDbEntity
  8
0
  6
Continuous
 62
     7
370
    15
100
AcDbLine
 10
941.7855768426
 20
524.2397724816
 30
0.0
 11
941.3167714103
 21
523.4277709553
 31
0.0
  0
LINE
  5
71
330
1F
100
AcDbEntity
  8
0
  6
Continuous
 62
     7
370
    15
100
AcDbLine
 10
941.3167714103
 20
515.0517686436
 30
0.0
 11
941.7855768426
 21
514.2397671172
 31
0.0
  0
LINE
  5
72
330
1F
100
AcDbEntity
  8
0
  6
Continuous
 62
     7
370
    15
100
AcDbLine
 10
947.7855741008
 20
524.2397724816
 30
0.0
 11
947.3167686685
 21
523.4277709553
 31
0.0
  0
LINE
  5
73
330
1F
100
AcDbEntity
  8
0
  6
Continuous
 62
     7
370
    15
100
AcDbLine
 10
947.3167686685
 20
515.0517686436
 30
0.0
 11
947.7855741008
 21
514.2397671172
 31
0.0
  0
LINE
  5
74
330
1F
100
AcDbEntity
  8
0
  6
Continuous
 62
     7
370
    15
100
AcDbLine
 10
944.4784550889
 20
514.2397671172
 30
0.0
 11
944.9472605212
 21
515.0517686436
 31
0.0
  0
LINE
  5
75
330
1F
100
AcDbEntity
  8
0
  6
Continuous
 62
     7
370
    15
100
AcDbLine
 10
944.9472605212
 20
523.4277709553
 30
0.0
 11
944.4784550889
 21
524.2397724816
 31
0.0
  0
LINE
  5
76
330
1F
100
AcDbEntity
  8
0
  6
Continuous
 62
     7
370
    15
100
AcDbLine
 10
948.4784631951
 20
524.2397724816
 30
0.0
 11
947.7855741008
 21
524.2397724816
 31
0.0
  0
LINE
  5
77
330
1F
100
AcDbEntity
  8
0
  6
Continuous
 62
     7
370
    15
100
AcDbLine
 10
947.7855741008
 20
514.2397671172
 30
0.0
 11
948.4784631951
 21
514.2397671172
 31
0.0
  0
LINE
  5
78
330
1F
100
AcDbEntity
  8
0
  6
Continuous
 62
     7
370
    15
100
AcDbLine
 10
930.4784565194
 20
524.2397724816
 30
0.0
 11
929.7855823262
 21
524.2397724816
 31
0.0
  0
LINE
  5
79
330
1F
100
AcDbEntity
  8
0
  6
Continuous
 62
     7
370
    15
100
AcDbLine
 10
929.7855823262
 20
514.2397671172
 30
0.0
 11
930.4784565194
 21
514.2397671172
 31
0.0
  0
LINE
  5
7A
330
1F
100
AcDbEntity
  8
0
  6
Continuous
 62
     7
370
    15
100
AcDbLine
 10
930.4784565194
 20
514.2397671172
 30
0.0
 11
930.9472619517
 21
515.0517686436
 31
0.0
  0
LINE
  5
7B
330
1F
100
AcDbEntity
  8
0
  6
Continuous
 62
     7
370
    15
100
AcDbLine
 10
930.9472619517
 20
523.4277709553
 30
0.0
 11
930.4784565194
 21
524.2397724816
 31
0.0
  0
LINE
  5
7C
330
1F
100
AcDbEntity
  8
0
  6
Continuous
 62
     7
370
    15
100
AcDbLine
 10
929.7855823262
 20
524.2397724816
 30
0.0
 11
929.3167768939
 21
523.4277709553
 31
0.0
  0
LINE
  5
7D
330
1F
100
AcDbEntity
  8
0
  6
Continuous
 62
     7
370
    15
100
AcDbLine
 10
929.3167768939
 20
515.0517686436
 30
0.0
 11
929.7855823262
 21
514.2397671172
 31
0.0
  0
LINE
  5
7E
330
1F
100
AcDbEntity
  8
0
  6
Continuous
 62
     7
370
    15
100
AcDbLine
 10
928.5908668263
 20
514.4344768652
 30
0.0
 11
928.9472727998
 21
515.0517686436
 31
0.0
  0
LINE
  5
7F
330
1F
100
AcDbEntity
  8
0
  6
Continuous
 62
     7
370
    15
100
AcDbLine
 10
928.9472727998
 20
523.4277709553
 30
0.0
 11
928.5908668263
 21
524.0450590083
 31
0.0
  0
LINE
  5
80
330
1F
100
AcDbEntity
  8
0
  6
Continuous
 62
     7
370
    15
100
AcDbLine
 10
928.5908668263
 20
524.0450590083
 30
0.0
 11
924.7855721934
 21
520.239771826
 31
0.0
  0
LINE
  5
81
330
1F
100
AcDbEntity
  8
0
  6
Continuous
 62
     7
370
    15
100
AcDbLine
 10
924.7855721934
 20
518.2397677728
 30
0.0
 11
928.5908668263
 21
514.4344768652
 31
0.0
  0
LINE
  5
82
330
1F
100
AcDbEntity
  8
0
  6
Continuous
 62
     7
370
    15
100
AcDbLine
 10
949.3167727216
 20
523.4277709553
 30
0.0
 11
948.9472686274
 21
523.4277709553
 31
0.0
  0
LINE
  5
83
330
1F
100
AcDbEntity
  8
0
  6
Continuous
 62
     7
370
    15
100
AcDbLine
 10
948.9472686274
 20
515.0517686436
 30
0.0
 11
949.3167727216
 21
515.0517686436
 31
0.0
  0
LINE
  5
84
330
1F
100
AcDbEntity
  8
0
  6
Continuous
 62
     7
370
    15
100
AcDbLine
 10
947.3167686685
 20
523.4277709553
 30
0.0
 11
946.9472645743
 21
523.4277709553
 31
0.0
  0
LINE
  5
85
330
1F
100
AcDbEntity
  8
0
  6
Continuous
 62
     7
370
    15
100
AcDbLine
 10
946.9472645743
 20
515.0517686436
 30
0.0
 11
947.3167686685
 21
515.0517686436
 31
0.0
  0
LINE
  5
86
330
1F
100
AcDbEntity
  8
0
  6
Continuous
 62
     7
370
    15
100
AcDbLine
 10
945.3167646153
 20
523.4277709553
 30
0.0
 11
944.9472605212
 21
523.4277709553
 31
0.0
  0
LINE
  5
87
330
1F
100
AcDbEntity
  8
0
  6
Continuous
 62
     7
370
    15
100
AcDbLine
 10
944.9472605212
 20
515.0517686436
 30
0.0
 11
945.3167646153
 21
515.0517686436
 31
0.0
  0
LINE
  5
88
330
1F
100
AcDbEntity
  8
0
  6
Continuous
 62
     7
370
    15
100
AcDbLine
 10
943.3167754634
 20
523.4277709553
 30
0.0
 11
942.9472713693
 21
523.4277709553
 31
0.0
  0
LINE
  5
89
330
1F
100
AcDbEntity
  8
0
  6
Continuous
 62
     7
370
    15
100
AcDbLine
 10
942.9472713693
 20
515.0517686436
 30
0.0
 11
943.3167754634
 21
515.0517686436
 31
0.0
  0
LINE
  5
8A
330
1F
100
AcDbEntity
  8
0
  6
Continuous
 62
     7
370
    15
100
AcDbLine
 10
941.3167714103
 20
523.4277709553
 30
0.0
 11
941.2355749829
 21
523.4277709553
 31
0.0
  0
LINE
  5
8B
330
1F
100
AcDbEntity
  8
0
  6
Continuous
 62
     7
370
    15
100
AcDbLine
 10
941.2355749829
 20
515.0517686436
 30
0.0
 11
941.3167714103
 21
515.0517686436
 31
0.0
  0
LINE
  5
8C
330
1F
100
AcDbEntity
  8
0
  6
Continuous
 62
     7
370
    15
100
AcDbLine
 10
929.3167768939
 20
523.4277709553
 30
0.0
 11
928.9472727998
 21
523.4277709553
 31
0.0
  0
LINE
  5
8D
330
1F
100
AcDbEntity
  8
0
  6
Continuous
 62
     7
370
    15
100
AcDbLine
 10
928.9472727998
 20
515.0517686436
 30
0.0
 11
929.3167768939
 21
515.0517686436
 31
0.0
  0
LINE
  5
8E
330
1F
100
AcDbEntity
  8
0
  6
Continuous
 62
     7
370
    15
100
AcDbLine
 10
931.2355845197
 20
523.4277709553
 30
0.0
 11
930.9472619517
 21
523.4277709553
 31
0.0
  0
LINE
  5
8F
330
1F
100
AcDbEntity
  8
0
  6
Continuous
 62
     7
370
    15
100
AcDbLine
 10
930.9472619517
 20
515.0517686436
 30
0.0
 11
931.2355845197
 21
515.0517686436
 31
0.0
  0
ARC
  5
90
330
1F
100
AcDbEntity
  8
0
  6
Continuous
 62
     7
370
    15
100
AcDbCircle
 10
973.4968532421
 20
498.9510439936
 30
0.0
 40
4.711275207452544
100
AcDbArc
 50
255.1810072227
 51
255.506233997
  0
LWPOLYLINE
  5
91
330
1F
100
AcDbEntity
  8
0
  6
Continuous
 62
     7
370
    15
100
AcDbPolyline
 90
        3
 70
   128
 43
0.0
 10
968.785571955
 20
498.9510453472
 10
968.8488124831
 20
498.1817617246
 10
968.9098625405
 20
497.876015974
  0
LINE
  5
92
330
1F
100
AcDbEntity
  8
0
  6
Continuous
 62
     7
370
    15
100
AcDbLine
 10
971.8366294129
 20
494.541985465
 30
0.0
 11
972.2918598874
 21
494.3964719006
 31
0.0
  0
LINE
  5
93
330
1F
100
AcDbEntity
  8
0
  6
Continuous
 62
     7
370
    15
100
AcDbLine
 10
974.8356669171
 20
494.4339967498
 30
0.0
 11
975.1615255101
 21
494.5436655709
 31
0.0
  0
LINE
  5
94
330
1F
100
AcDbEntity
  8
0
  6
Continuous
 62
     7
370
    15
100
AcDbLine
 10
977.7341215833
 20
496.8915223309
 30
0.0
 11
977.9239921792
 21
497.3396933803
 31
0.0
  0
LINE
  5
95
330
1F
100
AcDbEntity
  8
0
  6
Continuous
 62
     7
370
    15
100
AcDbLine
 10
924.7855721934
 20
526.2397690842
 30
0.0
 11
921.7855810149
 21
526.2397690842
 31
0.0
  0
LINE
  5
96
330
1F
100
AcDbEntity
  8
0
  6
Continuous
 62
     7
370
    15
100
AcDbLine
 10
515.3355776294
 20
475.6397693583
 30
0.0
 11
511.3355844243
 21
471.6397687027
 31
0.0
  0
LINE
  5
97
330
1F
100
AcDbEntity
  8
0
  6
Continuous
 62
     7
370
    15
100
AcDbLine
 10
511.3355844243
 20
440.8397688696
 30
0.0
 11
515.3355776294
 21
436.8397682139
 31
0.0
  0
LINE
  5
98
330
1F
100
AcDbEntity
  8
0
  6
Continuous
 62
     7
370
    15
100
AcDbLine
 10
515.3355776294
 20
436.8397682139
 30
0.0
 11
518.8355772717
 21
436.8397682139
 31
0.0
  0
LINE
  5
99
330
1F
100
AcDbEntity
  8
0
  6
Continuous
 62
     7
370
    15
100
AcDbLine
 10
518.8355772717
 20
475.6397693583
 30
0.0
 11
515.3355776294
 21
475.6397693583
 31
0.0
  0
LINE
  5
9A
330
1F
100
AcDbEntity
  8
0
  6
Continuous
 62
     7
370
    15
100
AcDbLine
 10
518.8355772717
 20
440.3397678563
 30
0.0
 11
520.8355813249
 21
442.3397691154
 31
0.0
  0
LINE
  5
9B
330
1F
100
AcDbEntity
  8
0
  6
Continuous
 62
     7
370
    15
100
AcDbLine
 10
520.8355813249
 20
470.1397684568
 30
0.0
 11
518.8355772717
 21
472.139769716
 31
0.0
  0
ARC
  5
9C
330
1F
100
AcDbEntity
  8
0
  6
Continuous
 62
     7
370
    15
100
AcDbCircle
 10
949.0979355634
 20
804.2397687861
 30
0.0
 40
2.0
100
AcDbArc
 50
356.2055053037
 51
89.9999999999
  0
ARC
  5
9D
330
1F
100
AcDbEntity
  8
0
  6
Continuous
 62
     7
370
    15
100
AcDbCircle
 10
923.3732019294
 20
804.2397860513
 30
0.0
 40
1.999976774467351
100
AcDbArc
 50
89.999332355
 51
183.7977759624
  0
SPLINE
  5
9E
330
1F
100
AcDbEntity
  8
0
  6
Continuous
 62
     7
370
    15
100
AcDbSpline
210
0.0
220
0.0
230
1.0
 70
     8
 71
     3
 72
    21
 73
    17
 74
     0
 42
0.00000001
 43
0.00000001
 40
0.0
 40
0.0
 40
0.0
 40
0.0
 40
0.1123548015945553
 40
0.2221987515068095
 40
0.3223192767459696
 40
0.4127161302752259
 40
0.4933898389276082
 40
0.5643399191318809
 40
0.6255664135014886
 40
0.6761349910857667
 40
0.7173651262895469
 40
0.7556507807542594
 40
0.801858914810868
 40
0.8589842831362106
 40
0.9250354878519088
 40
1.0
 40
1.0
 40
1.0
 40
1.0
 10
921.3776617272334
 20
804.1066914030873
 30
0.0
 10
921.6721920208861
 20
799.6892133476572
 30
0.0
 10
922.2546705852357
 20
790.9529769359073
 30
0.0
 10
923.0997112564037
 20
778.2802634328698
 30
0.0
 10
923.8872184759615
 20
766.4708655721486
 30
0.0
 10
924.5982154953267
 20
755.8083484238591
 30
0.0
 10
925.232702610776
 20
746.2927262016
 30
0.0
 10
925.7906322778748
 20
737.9239895632517
 30
0.0
 10
926.2696569515068
 20
730.7389192173863
 30
0.0
 10
926.6706359768713
 20
724.7223114386398
 30
0.0
 10
927.0116662966483
 20
719.6078037620963
 30
0.0
 10
927.3406800072077
 20
714.6643317450931
 30
0.0
 10
927.7111654474642
 20
709.102902647731
 30
0.0
 10
928.1567799858716
 20
702.4595656103509
 30
0.0
 10
928.6814924086734
 20
694.6964169651981
 30
0.0
 10
929.0432622106822
 20
689.1749869605687
 30
0.0
 10
929.2355804665523
 20
686.2397729584538
 30
0.0
  0
SPLINE
  5
9F
330
1F
100
AcDbEntity
  8
0
  6
Continuous
 62
     7
370
    15
100
AcDbSpline
210
0.0
220
0.0
230
1.0
 70
     8
 71
     3
 72
    24
 73
    20
 74
     0
 42
0.00000001
 43
0.00000001
 40
0.0
 40
0.0
 40
0.0
 40
0.0
 40
0.0604816323663307
 40
0.109692856815469
 40
0.1478077504997288
 40
0.1808974390711864
 40
0.2130662465287946
 40
0.2437643960400211
 40
0.2735747170105914
 40
0.3034511032298844
 40
0.3395984864168547
 40
0.3896462763034228
 40
0.4492379418776798
 40
0.5183732599793792
 40
0.5970524989658302
 40
0.6852754070566417
 40
0.7830422356847109
 40
0.8903527265447462
 40
1.0
 40
1.0
 40
1.0
 40
1.0
 10
943.2355790360408
 20
686.2397729584538
 30
0.0
 10
943.3901735592082
 20
688.5774412785346
 30
0.0
 10
943.6705547961353
 20
692.8171667337525
 30
0.0
 10
944.0588620144518
 20
698.5750573881592
 30
0.0
 10
944.3727557036194
 20
703.3114094594055
 30
0.0
 10
944.6439060054448
 20
707.37925910601
 30
0.0
 10
944.8952335790608
 20
711.154931214909
 30
0.0
 10
945.1381372906706
 20
714.801705811452
 30
0.0
 10
945.3751465269848
 20
718.3582463590743
 30
0.0
 10
945.6266061988756
 20
722.1291305403244
 30
0.0
 10
945.9311832983943
 20
726.6963444270481
 30
0.0
 10
946.3137169505628
 20
732.4328168930821
 30
0.0
 10
946.7828351472008
 20
739.4673196057698
 30
0.0
 10
947.3271175417918
 20
747.6284284128236
 30
0.0
 10
947.9465646460162
 20
756.9161335113029
 30
0.0
 10
948.641142303944
 20
767.3304458476606
 30
0.0
 10
949.4108182690622
 20
778.8713552998794
 30
0.0
 10
950.2366566264012
 20
791.2552820891283
 30
0.0
 10
950.8058405597549
 20
799.7922386899512
 30
0.0
 10
951.0934977753597
 20
804.1066914030873
 30
0.0
  0
LINE
  5
A0
330
1F
100
AcDbEntity
  8
0
  6
Continuous
 62
     7
370
    15
100
AcDbLine
 10
572.3355739339
 20
443.7397685999
 30
0.0
 11
572.8590368255
 21
443.7397685999
 31
0.0
  0
LINE
  5
A1
330
1F
100
AcDbEntity
  8
0
  6
Continuous
 62
     7
370
    15
100
AcDbLine
 10
572.8590368255
 20
468.7397689724
 30
0.0
 11
572.3355739339
 21
468.7397689724
 31
0.0
  0
LINE
  5
A2
330
1F
100
AcDbEntity
  8
0
  6
Continuous
 62
     7
370
    15
100
AcDbLine
 10
871.2355821355
 20
468.7397689724
 30
0.0
 11
870.7121192439
 21
468.7397689724
 31
0.0
  0
LINE
  5
A3
330
1F
100
AcDbEntity
  8
0
  6
Continuous
 62
     7
370
    15
100
AcDbLine
 10
870.7121192439
 20
443.7397685999
 30
0.0
 11
871.2355821355
 21
443.7397685999
 31
0.0
  0
LINE
  5
A4
330
1F
100
AcDbEntity
  8
0
  6
Continuous
 62
     7
370
    15
100
AcDbLine
 10
931.2355845197
 20
443.7397685999
 30
0.0
 11
941.2355749829
 21
443.7397685999
 31
0.0
  0
LINE
  5
A5
330
1F
100
AcDbEntity
  8
0
  6
Continuous
 62
     7
370
    15
100
AcDbLine
 10
572.3355739339
 20
464.2397691661
 30
0.0
 11
571.9990610106
 21
464.2397691661
 31
0.0
  0
LINE
  5
A6
330
1F
100
AcDbEntity
  8
0
  6
Continuous
 62
     7
370
    15
100
AcDbLine
 10
521.7855750545
 20
464.2397691661
 30
0.0
 11
520.8355813249
 21
464.2397691661
 31
0.0
  0
LINE
  5
A7
330
1F
100
AcDbEntity
  8
0
  6
Continuous
 62
     7
370
    15
100
AcDbLine
 10
520.8355813249
 20
448.2397684061
 30
0.0
 11
521.7855750545
 21
448.2397684061
 31
0.0
  0
LINE
  5
A8
330
1F
100
AcDbEntity
  8
0
  6
Continuous
 62
     7
370
    15
100
AcDbLine
 10
571.9990610106
 20
448.2397684061
 30
0.0
 11
572.3355739339
 21
448.2397684061
 31
0.0
  0
LINE
  5
A9
330
1F
100
AcDbEntity
  8
0
  6
Continuous
 62
     7
370
    15
100
AcDbLine
 10
871.2355821355
 20
448.2397684061
 30
0.0
 11
871.5720950587
 21
448.2397684061
 31
0.0
  0
LINE
  5
AA
330
1F
100
AcDbEntity
  8
0
  6
Continuous
 62
     7
370
    15
100
AcDbLine
 10
924.7855721934
 20
448.2397684061
 30
0.0
 11
931.2355845197
 21
448.2397684061
 31
0.0
  0
LINE
  5
AB
330
1F
100
AcDbEntity
  8
0
  6
Continuous
 62
     7
370
    15
100
AcDbLine
 10
931.2355845197
 20
464.2397691661
 30
0.0
 11
924.7855721934
 21
464.2397691661
 31
0.0
  0
LINE
  5
AC
330
1F
100
AcDbEntity
  8
0
  6
Continuous
 62
     7
370
    15
100
AcDbLine
 10
871.5720950587
 20
464.2397691661
 30
0.0
 11
871.2355821355
 21
464.2397691661
 31
0.0
  0
LINE
  5
AD
330
1F
100
AcDbEntity
  8
0
  6
Continuous
 62
     7
370
    15
100
AcDbLine
 10
931.2355845197
 20
540.2397676536
 30
0.0
 11
926.7355828507
 21
540.2397676536
 31
0.0
  0
LINE
  5
AE
330
1F
100
AcDbEntity
  8
0
  6
Continuous
 62
     7
370
    15
100
AcDbLine
 10
926.7355828507
 20
532.2397663423
 30
0.0
 11
931.2355845197
 21
532.2397663423
 31
0.0
  0
LINE
  5
AF
330
1F
100
AcDbEntity
  8
0
  6
Continuous
 62
     7
370
    15
100
AcDbLine
 10
920.7355706914
 20
510.2397701868
 30
0.0
 11
920.7355706914
 21
526.2397690842
 31
0.0
  0
LINE
  5
B0
330
1F
100
AcDbEntity
  8
0
  6
Continuous
 62
     7
370
    15
100
AcDbLine
 10
912.7355842812
 20
526.2397690842
 30
0.0
 11
912.7355842812
 21
510.2397701868
 31
0.0
  0
ARC
  5
B1
330
1F
100
AcDbEntity
  8
0
  6
Continuous
 62
     7
370
    15
100
AcDbCircle
 10
926.7355780347
 20
526.2397687861
 30
0.0
 40
6.0
100
AcDbArc
 50
90.0
 51
180.0
  0
ARC
  5
B2
330
1F
100
AcDbEntity
  8
0
  6
Continuous
 62
     7
370
    15
100
AcDbCircle
 10
926.7355780347
 20
526.2397687861
 30
0.0
 40
14.0
100
AcDbArc
 50
90.0
 51
180.0
  0
LINE
  5
B3
330
1F
100
AcDbEntity
  8
0
  6
Continuous
 62
     7
370
    15
100
AcDbLine
 10
912.7355842812
 20
510.2397701868
 30
0.0
 11
914.7355734332
 21
508.239769859
 31
0.0
  0
LINE
  5
B4
330
1F
100
AcDbEntity
  8
0
  6
Continuous
 62
     7
370
    15
100
AcDbLine
 10
918.7355815394
 20
508.239769859
 30
0.0
 11
920.7355706914
 21
510.2397701868
 31
0.0
  0
SPLINE
  5
B5
330
1F
100
AcDbEntity
  8
0
  6
Continuous
 62
     7
370
    15
100
AcDbSpline
210
0.0
220
0.0
230
1.0
 70
     8
 71
     3
 72
    18
 73
    14
 74
     0
 42
0.00000001
 43
0.00000001
 40
0.0
 40
0.0
 40
0.0
 40
0.0
 40
0.0326495327061559
 40
0.1400512382923098
 40
0.247452777250113
 40
0.3548544223940295
 40
0.462256214634294
 40
0.5696576955458396
 40
0.6770599897821337
 40
0.7844616701207473
 40
0.8918633130337228
 40
0.999264962978971
 40
1.0
 40
1.0
 40
1.0
 40
1.0
 10
911.1854164822536
 20
515.2757703492009
 30
0.0
 10
911.1854149889995
 20
515.2652383154896
 30
0.0
 10
911.1854085836372
 20
515.2200608124517
 30
0.0
 10
911.1855429060535
 20
515.4858312993254
 30
0.0
 10
911.1853168905615
 20
516.0510715262122
 30
0.0
 10
911.1855096114541
 20
516.8875892856148
 30
0.0
 10
911.1854117783552
 20
517.8697900810859
 30
0.0
 10
911.1854315758832
 20
518.8962464863826
 30
0.0
 10
911.185450218886
 20
519.8452874719798
 30
0.0
 10
911.1853558496249
 20
520.6243920761057
 30
0.0
 10
911.185535869318
 20
521.0937506928507
 30
0.0
 10
911.1854163451499
 20
521.2945063923916
 30
0.0
 10
911.185416481328
 20
521.238981530268
 30
0.0
 10
911.1854164822536
 20
521.2386041113698
 30
0.0
  0
SPLINE
  5
B6
330
1F
100
AcDbEntity
  8
0
  6
Continuous
 62
     7
370
    15
100
AcDbSpline
210
0.0
220
0.0
230
1.0
 70
     8
 71
     3
 72
    13
 73
     9
 74
     0
 42
0.00000001
 43
0.00000001
 40
0.0
 40
0.0
 40
0.0
 40
0.0
 40
0.0651758038455369
 40
0.279573741898662
 40
0.4939713472303218
 40
0.7083691647913691
 40
0.9227672759897806
 40
1.0
 40
1.0
 40
1.0
 40
1.0
 10
924.7857361062007
 20
515.2757703492009
 30
0.0
 10
924.7857372864277
 20
515.265238647608
 30
0.0
 10
924.7857423490494
 20
515.2200625692303
 30
0.0
 10
924.7856361843119
 20
515.4858031806708
 30
0.0
 10
924.7858292590238
 20
516.0511732187032
 30
0.0
 10
924.7856422305537
 20
516.8872106355001
 30
0.0
 10
924.7857272022396
 20
517.6613608537317
 30
0.0
 10
924.7857224607345
 20
518.1185459530097
 30
0.0
 10
924.7857212050395
 20
518.2396224865281
 30
0.0
  0
SPLINE
  5
B7
330
1F
100
AcDbEntity
  8
0
  6
Continuous
 62
     7
370
    15
100
AcDbSpline
210
0.0
220
0.0
230
1.0
 70
     8
 71
     3
 72
    11
 73
     7
 74
     0
 42
0.00000001
 43
0.00000001
 40
0.0
 40
0.0
 40
0.0
 40
0.0
 40
0.1799495911864724
 40
0.5885764986482245
 40
0.9972034328653953
 40
1.0
 40
1.0
 40
1.0
 40
1.0
 10
924.7857361062007
 20
520.2399282881581
 30
0.0
 10
924.7857449357687
 20
520.3563568472696
 30
0.0
 10
924.7857738153908
 20
520.7371696805335
 30
0.0
 10
924.7856127175015
 20
521.0842802810407
 30
0.0
 10
924.7857362478952
 20
521.29451726811
 30
0.0
 10
924.7857361071574
 20
521.2389816036944
 30
0.0
 10
924.7857361062007
 20
521.2386041113698
 30
0.0
  0
SPLINE
  5
B8
330
1F
100
AcDbEntity
  8
0
  6
Continuous
 62
     7
370
    15
100
AcDbSpline
210
0.0
220
0.0
230
1.0
 70
     8
 71
     3
 72
    18
 73
    14
 74
     0
 42
0.00000001
 43
0.00000001
 40
0.0
 40
0.0
 40
0.0
 40
0.0
 40
0.0391145029213464
 40
0.0780921289248163
 40
0.1389200528439948
 40
0.2382977478170708
 40
0.4914348530410286
 40
0.7614779215931999
 40
0.8314861906300745
 40
0.9019335595887542
 40
0.9480415057696555
 40
0.9875254317974846
 40
1.0
 40
1.0
 40
1.0
 40
1.0
 10
928.0855833514171
 20
426.7342160621249
 30
0.0
 10
928.2033033875218
 20
426.7404122930918
 30
0.0
 10
928.4383315113612
 20
426.752783071994
 30
0.0
 10
928.8080176454376
 20
426.8585432771228
 30
0.0
 10
929.2209696056335
 20
427.0796938494937
 30
0.0
 10
929.7320346730401
 20
427.655858733885
 30
0.0
 10
929.878478988857
 20
428.5962579303766
 30
0.0
 10
929.7568115724177
 20
429.4996279478005
 30
0.0
 10
929.2862336989318
 20
430.0712948247278
 30
0.0
 10
928.9522201125673
 20
430.301676335127
 30
0.0
 10
928.566278768737
 20
430.439320520863
 30
0.0
 10
928.2786919448915
 20
430.4836515544798
 30
0.0
 10
928.1229701560922
 20
430.4863449118428
 30
0.0
 10
928.0855833514171
 20
430.4869915524089
 30
0.0
  0
SPLINE
  5
B9
330
1F
100
AcDbEntity
  8
0
  6
Continuous
 62
     7
370
    15
100
AcDbSpline
210
0.0
220
0.0
230
1.0
 70
     8
 71
     3
 72
    18
 73
    14
 74
     0
 42
0.00000001
 43
0.00000001
 40
0.0
 40
0.0
 40
0.0
 40
0.0
 40
0.0391145130208237
 40
0.0780922073410819
 40
0.1389200641375675
 40
0.2382977167052789
 40
0.4914347502102092
 40
0.7614780636757307
 40
0.831486095635086
 40
0.901933447863316
 40
0.9480415510529965
 40
0.9875254148799998
 40
1.0
 40
1.0
 40
1.0
 40
1.0
 10
928.0855833514171
 20
430.4869915524089
 30
0.0
 10
928.2033034406477
 20
430.4993836338562
 30
0.0
 10
928.4383318458721
 20
430.5241244504747
 30
0.0
 10
928.8080169369979
 20
430.7356516908085
 30
0.0
 10
929.2209700278386
 20
431.1779474006575
 30
0.0
 10
929.7320344410127
 20
432.3302768476404
 30
0.0
 10
929.8784786046363
 20
434.2110767628361
 30
0.0
 10
929.756812990019
 20
436.0178153327925
 30
0.0
 10
929.2862333775229
 20
437.1611499323947
 30
0.0
 10
928.95221893076
 20
437.6219115336132
 30
0.0
 10
928.5662800356046
 20
437.897203077384
 30
0.0
 10
928.2786914972376
 20
437.9858626574249
 30
0.0
 10
928.1229701365854
 20
437.9912522768673
 30
0.0
 10
928.0855833514171
 20
437.9925462582671
 30
0.0
  0
SPLINE
  5
BA
330
1F
100
AcDbEntity
  8
0
  6
Continuous
 62
     7
370
    15
100
AcDbSpline
210
0.0
220
0.0
230
1.0
 70
     8
 71
     3
 72
    18
 73
    14
 74
     0
 42
0.00000001
 43
0.00000001
 40
0.0
 40
0.0
 40
0.0
 40
0.0
 40
0.0344336903070499
 40
0.0724914898468626
 40
0.1306346467259137
 40
0.2236187466056474
 40
0.4104357918185376
 40
0.5001958143645441
 40
0.7376509180047488
 40
0.8568708291168691
 40
0.9094916711534538
 40
0.962570251763497
 40
1.0
 40
1.0
 40
1.0
 40
1.0
 10
928.0855833514171
 20
437.9925462582671
 30
0.0
 10
928.1891748570735
 20
437.9973432932836
 30
0.0
 10
928.4072607640308
 20
438.007442246143
 30
0.0
 10
928.7625718437779
 20
438.0997399351814
 30
0.0
 10
929.1706344003935
 20
438.3025801417137
 30
0.0
 10
929.6234999519475
 20
438.765235935578
 30
0.0
 10
929.7918118048141
 20
439.3205828222059
 30
0.0
 10
929.8436678584706
 20
440.0894587266009
 30
0.0
 10
929.7446585903584
 20
440.7643632753694
 30
0.0
 10
929.288994821159
 20
441.3486879124958
 30
0.0
 10
928.8462088720798
 20
441.6056740422217
 30
0.0
 10
928.4706330065092
 20
441.7255866608585
 30
0.0
 10
928.1982340335068
 20
441.7395486817039
 30
0.0
 10
928.0855833514171
 20
441.7453226798737
 30
0.0
  0
LINE
  5
BB
330
1F
100
AcDbEntity
  8
0
  6
Continuous
 62
     7
370
    15
100
AcDbLine
 10
930.0855725034
 20
439.0077176669
 30
0.0
 11
930.0855725034
 21
439.7453214207
 31
0.0
  0
LINE
  5
BC
330
1F
100
AcDbEntity
  8
0
  6
Continuous
 62
     7
370
    15
100
AcDbLine
 10
930.0855725034
 20
428.7342145273
 30
0.0
 11
930.0855725034
 21
439.0077176669
 31
0.0
  0
LINE
  5
BD
330
1F
100
AcDbEntity
  8
0
  6
Continuous
 62
     7
370
    15
100
AcDbLine
 10
925.1855789645
 20
434.2397689053
 30
0.0
 11
925.1855789645
 21
437.9925462583
 31
0.0
  0
LINE
  5
BE
330
1F
100
AcDbEntity
  8
0
  6
Continuous
 62
     7
370
    15
100
AcDbLine
 10
928.0855833514
 20
437.9925462583
 30
0.0
 11
925.1855789645
 21
437.9925462583
 31
0.0
  0
LINE
  5
BF
330
1F
100
AcDbEntity
  8
0
  6
Continuous
 62
     7
370
    15
100
AcDbLine
 10
928.0855833514
 20
430.4869915524
 30
0.0
 11
925.1855789645
 21
430.4869915524
 31
0.0
  0
LINE
  5
C0
330
1F
100
AcDbEntity
  8
0
  6
Continuous
 62
     7
370
    15
100
AcDbLine
 10
925.1855789645
 20
430.4869915524
 30
0.0
 11
925.1855789645
 21
434.2397689053
 31
0.0
  0
LINE
  5
C1
330
1F
100
AcDbEntity
  8
0
  6
Continuous
 62
     7
370
    15
100
AcDbLine
 10
928.0855833514
 20
426.7342160621
 30
0.0
 11
925.1855789645
 21
426.7342160621
 31
0.0
  0
LINE
  5
C2
330
1F
100
AcDbEntity
  8
0
  6
Continuous
 62
     7
370
    15
100
AcDbLine
 10
925.1855789645
 20
426.7342160621
 30
0.0
 11
925.1855789645
 21
428.6106038073
 31
0.0
  0
LINE
  5
C3
330
1F
100
AcDbEntity
  8
0
  6
Continuous
 62
     7
370
    15
100
AcDbLine
 10
925.1855789645
 20
428.6106038073
 30
0.0
 11
925.1855789645
 21
430.4869915524
 31
0.0
  0
LINE
  5
C4
330
1F
100
AcDbEntity
  8
0
  6
Continuous
 62
     7
370
    15
100
AcDbLine
 10
925.1855789645
 20
439.8689340034
 30
0.0
 11
925.1855789645
 21
441.7453226799
 31
0.0
  0
LINE
  5
C5
330
1F
100
AcDbEntity
  8
0
  6
Continuous
 62
     7
370
    15
100
AcDbLine
 10
928.0855833514
 20
441.7453226799
 30
0.0
 11
925.1855789645
 21
441.7453226799
 31
0.0
  0
LINE
  5
C6
330
1F
100
AcDbEntity
  8
0
  6
Continuous
 62
     7
370
    15
100
AcDbLine
 10
925.1855789645
 20
437.9925462583
 30
0.0
 11
925.1855789645
 21
439.8689340034
 31
0.0
  0
SPLINE
  5
C7
330
1F
100
AcDbEntity
  8
0
  6
Continuous
 62
     7
370
    15
100
AcDbSpline
210
0.0
220
0.0
230
1.0
 70
     8
 71
     3
 72
    18
 73
    14
 74
     0
 42
0.00000001
 43
0.00000001
 40
0.0
 40
0.0
 40
0.0
 40
0.0
 40
0.0391145130208237
 40
0.0780922073410819
 40
0.1389200641375675
 40
0.2382977167052789
 40
0.4914347502102092
 40
0.7614780636757307
 40
0.831486095635086
 40
0.901933447863316
 40
0.9480415510529965
 40
0.9875254148799998
 40
1.0
 40
1.0
 40
1.0
 40
1.0
 10
928.0855833514171
 20
474.4869913139903
 30
0.0
 10
928.2033034406477
 20
474.4993833954376
 30
0.0
 10
928.4383318458721
 20
474.5241242120561
 30
0.0
 10
928.8080169369979
 20
474.7356514523899
 30
0.0
 10
929.2209700278386
 20
475.1779471622389
 30
0.0
 10
929.7320344410127
 20
476.3302766092219
 30
0.0
 10
929.8784786046363
 20
478.2110765244175
 30
0.0
 10
929.756812990019
 20
480.0178150943739
 30
0.0
 10
929.2862333775229
 20
481.1611496939761
 30
0.0
 10
928.95221893076
 20
481.6219112951946
 30
0.0
 10
928.5662800356046
 20
481.8972028389654
 30
0.0
 10
928.2786914972376
 20
481.9858624190063
 30
0.0
 10
928.1229701365854
 20
481.9912520384487
 30
0.0
 10
928.0855833514171
 20
481.9925460198485
 30
0.0
  0
SPLINE
  5
C8
330
1F
100
AcDbEntity
  8
0
  6
Continuous
 62
     7
370
    15
100
AcDbSpline
210
0.0
220
0.0
230
1.0
 70
     8
 71
     3
 72
    18
 73
    14
 74
     0
 42
0.00000001
 43
0.00000001
 40
0.0
 40
0.0
 40
0.0
 40
0.0
 40
0.0344337034041331
 40
0.0724914826622164
 40
0.130634576497051
 40
0.2236187143019299
 40
0.4104358578485478
 40
0.5001958649399014
 40
0.737650875278631
 40
0.8568709136603182
 40
0.9094916489724887
 40
0.9625702547262321
 40
1.0
 40
1.0
 40
1.0
 40
1.0
 10
928.0855833514171
 20
481.9925460198485
 30
0.0
 10
928.1891748385789
 20
481.9973430511957
 30
0.0
 10
928.4072606020358
 20
482.0074419914883
 30
0.0
 10
928.7625717466743
 20
482.0997396342716
 30
0.0
 10
929.1706348077765
 20
482.3025802228984
 30
0.0
 10
929.6234997924923
 20
482.7652350929806
 30
0.0
 10
929.7918117477708
 20
483.3205858394851
 30
0.0
 10
929.8436679741054
 20
484.0894565408679
 30
0.0
 10
929.744657517115
 20
484.7643627841161
 30
0.0
 10
929.2889958856778
 20
485.3486891901214
 30
0.0
 10
928.8462082682403
 20
485.6056732033391
 30
0.0
 10
928.4706331752275
 20
485.7255883076279
 30
0.0
 10
928.1982340570286
 20
485.7395483372892
 30
0.0
 10
928.0855833514171
 20
485.7453215101325
 30
0.0
  0
SPLINE
  5
C9
330
1F
100
AcDbEntity
  8
0
  6
Continuous
 62
     7
370
    15
100
AcDbSpline
210
0.0
220
0.0
230
1.0
 70
     8
 71
     3
 72
    18
 73
    14
 74
     0
 42
0.00000001
 43
0.00000001
 40
0.0
 40
0.0
 40
0.0
 40
0.0
 40
0.0391145185527476
 40
0.0780921935199345
 40
0.138920016058987
 40
0.2382977454031666
 40
0.491434813817595
 40
0.7614779721852134
 40
0.8314861590763634
 40
0.9019335282477025
 40
0.9480415255504987
 40
0.987525426738332
 40
1.0
 40
1.0
 40
1.0
 40
1.0
 10
928.0855833514171
 20
470.7342148923838
 30
0.0
 10
928.2033034242907
 20
470.7404109288703
 30
0.0
 10
928.4383317220215
 20
470.7527813247813
 30
0.0
 10
928.8080169381975
 20
470.8585449418017
 30
0.0
 10
929.2209703724274
 20
471.0796930813307
 30
0.0
 10
929.7320339886896
 20
471.655856976641
 30
0.0
 10
929.8784790854978
 20
472.5962588533937
 30
0.0
 10
929.7568120733923
 20
473.4996268938302
 30
0.0
 10
929.2862335662456
 20
474.0712947860625
 30
0.0
 10
928.9522197403578
 20
474.3016762139391
 30
0.0
 10
928.5662792091304
 20
474.4393201839723
 30
0.0
 10
928.2786917871367
 20
474.4836513263784
 30
0.0
 10
928.1229701492546
 20
474.4863446750117
 30
0.0
 10
928.0855833514171
 20
474.4869913139903
 30
0.0
  0
LINE
  5
CA
330
1F
100
AcDbEntity
  8
0
  6
Continuous
 62
     7
370
    15
100
AcDbLine
 10
930.0855725034
 20
472.7342161515
 30
0.0
 11
930.0855725034
 21
483.745323045
 31
0.0
  0
LINE
  5
CB
330
1F
100
AcDbEntity
  8
0
  6
Continuous
 62
     7
370
    15
100
AcDbLine
 10
925.1855789645
 20
478.2397686669
 30
0.0
 11
925.1855789645
 21
481.9925460198
 31
0.0
  0
LINE
  5
CC
330
1F
100
AcDbEntity
  8
0
  6
Continuous
 62
     7
370
    15
100
AcDbLine
 10
928.0855833514
 20
481.9925460198
 30
0.0
 11
925.1855789645
 21
481.9925460198
 31
0.0
  0
LINE
  5
CD
330
1F
100
AcDbEntity
  8
0
  6
Continuous
 62
     7
370
    15
100
AcDbLine
 10
928.0855833514
 20
474.486991314
 30
0.0
 11
925.1855789645
 21
474.486991314
 31
0.0
  0
LINE
  5
CE
330
1F
100
AcDbEntity
  8
0
  6
Continuous
 62
     7
370
    15
100
AcDbLine
 10
925.1855789645
 20
474.486991314
 30
0.0
 11
925.1855789645
 21
478.2397686669
 31
0.0
  0
LINE
  5
CF
330
1F
100
AcDbEntity
  8
0
  6
Continuous
 62
     7
370
    15
100
AcDbLine
 10
928.0855833514
 20
470.7342148924
 30
0.0
 11
925.1855789645
 21
470.7342148924
 31
0.0
  0
LINE
  5
D0
330
1F
100
AcDbEntity
  8
0
  6
Continuous
 62
     7
370
    15
100
AcDbLine
 10
925.1855789645
 20
470.7342148924
 30
0.0
 11
925.1855789645
 21
472.6106035688
 31
0.0
  0
LINE
  5
D1
330
1F
100
AcDbEntity
  8
0
  6
Continuous
 62
     7
370
    15
100
AcDbLine
 10
925.1855789645
 20
472.6106035688
 30
0.0
 11
925.1855789645
 21
474.486991314
 31
0.0
  0
LINE
  5
D2
330
1F
100
AcDbEntity
  8
0
  6
Continuous
 62
     7
370
    15
100
AcDbLine
 10
925.1855789645
 20
483.868933765
 30
0.0
 11
925.1855789645
 21
485.7453215101
 31
0.0
  0
LINE
  5
D3
330
1F
100
AcDbEntity
  8
0
  6
Continuous
 62
     7
370
    15
100
AcDbLine
 10
928.0855833514
 20
485.7453215101
 30
0.0
 11
925.1855789645
 21
485.7453215101
 31
0.0
  0
LINE
  5
D4
330
1F
100
AcDbEntity
  8
0
  6
Continuous
 62
     7
370
    15
100
AcDbLine
 10
925.1855789645
 20
481.9925460198
 30
0.0
 11
925.1855789645
 21
483.868933765
 31
0.0
  0
LINE
  5
D5
330
1F
100
AcDbEntity
  8
0
  6
Continuous
 62
     7
370
    15
100
AcDbLine
 10
968.785571955
 20
526.5742852518
 30
0.0
 11
968.785571955
 21
520.8391933867
 31
0.0
  0
SPLINE
  5
D6
330
1F
100
AcDbEntity
  8
0
  6
Continuous
 62
     7
370
    15
100
AcDbSpline
210
0.0
220
0.0
230
1.0
 70
     8
 71
     3
 72
    12
 73
     8
 74
     0
 42
0.00000001
 43
0.00000001
 40
0.0
 40
0.0
 40
0.0
 40
0.0
 40
0.1136357776362674
 40
0.3008422432580906
 40
0.4919211779212126
 40
0.6964441131810715
 40
0.9999999999999999
 40
0.9999999999999999
 40
0.9999999999999999
 40
0.9999999999999999
 10
972.7050988896327
 20
524.78788189381
 30
0.0
 10
972.4283442194153
 20
524.8012827665526
 30
0.0
 10
971.6956568778731
 20
524.8367605773384
 30
0.0
 10
970.6246749759605
 20
524.9758983117005
 30
0.0
 10
969.6575761750399
 20
525.2557089523488
 30
0.0
 10
968.9159431216889
 20
525.7384454276419
 30
0.0
 10
968.8343314950869
 20
526.2616765174973
 30
0.0
 10
968.785571955009
 20
526.5742852517926
 30
0.0
  0
SPLINE
  5
D7
330
1F
100
AcDbEntity
  8
0
  6
Continuous
 62
     7
370
    15
100
AcDbSpline
210
0.0
220
0.0
230
1.0
 70
     8
 71
     3
 72
    12
 73
     8
 74
     0
 42
0.00000001
 43
0.00000001
 40
0.0
 40
0.0
 40
0.0
 40
0.0
 40
0.2917317955505303
 40
0.522557212868567
 40
0.7611461895984393
 40
0.971452987966242
 40
0.9999999999999999
 40
0.9999999999999999
 40
0.9999999999999999
 40
0.9999999999999999
 10
968.785571955009
 20
520.8391933867299
 30
0.0
 10
968.8307459495558
 20
521.4006746460735
 30
0.0
 10
968.9116627266932
 20
522.4064137750803
 30
0.0
 10
969.7196691488592
 20
523.6130531202185
 30
0.0
 10
970.9311323266214
 20
524.4061138609544
 30
0.0
 10
972.0500863339838
 20
524.7080140826209
 30
0.0
 10
972.6351714633141
 20
524.779355415296
 30
0.0
 10
972.7050988896327
 20
524.78788189381
 30
0.0
  0
SPLINE
  5
D8
330
1F
100
AcDbEntity
  8
0
  6
Continuous
 62
     7
370
    15
100
AcDbSpline
210
0.0
220
0.0
230
1.0
 70
     8
 71
     3
 72
    11
 73
     7
 74
     0
 42
0.00000001
 43
0.00000001
 40
0.0
 40
0.0
 40
0.0
 40
0.0
 40
0.3340921822380208
 40
0.6236911435656123
 40
0.9185118483819183
 40
1.0
 40
1.0
 40
1.0
 40
1.0
 10
977.9239921791988
 20
525.7269456216657
 30
0.0
 10
977.7113439621339
 20
525.5490271991544
 30
0.0
 10
977.3143672690852
 20
525.2168849034138
 30
0.0
 10
976.1530674998045
 20
524.9350501171605
 30
0.0
 10
975.0810037716424
 20
524.8215249523975
 30
0.0
 10
974.4296365963762
 20
524.793870379123
 30
0.0
 10
974.2885856850581
 20
524.78788189381
 30
0.0
  0
SPLINE
  5
D9
330
1F
100
AcDbEntity
  8
0
  6
Continuous
 62
     7
370
    15
100
AcDbSpline
210
0.0
220
0.0
230
1.0
 70
     8
 71
     3
 72
    11
 73
     7
 74
     0
 42
0.00000001
 43
0.00000001
 40
0.0
 40
0.0
 40
0.0
 40
0.0
 40
0.0091296210903941
 40
0.4999907543383361
 40
0.990851887586278
 40
1.0
 40
1.0
 40
1.0
 40
1.0
 10
974.2885856850581
 20
524.78788189381
 30
0.0
 10
974.283817783564
 20
524.7880612678479
 30
0.0
 10
974.0226999736301
 20
524.797884825649
 30
0.0
 10
973.4968499095138
 20
524.8073651139392
 30
0.0
 10
972.9710194192456
 20
524.7978652724537
 30
0.0
 10
972.709876726699
 20
524.7880612667851
 30
0.0
 10
972.7050988896327
 20
524.78788189381
 30
0.0
  0
ARC
  5
DA
330
1F
100
AcDbEntity
  8
0
  6
Continuous
 62
     7
370
    15
100
AcDbCircle
 10
969.4967165089
 20
526.5150040539
 30
0.0
 40
0.7136111244514006
100
AcDbArc
 50
85.9204982281
 51
175.234825926
  0
SPLINE
  5
DB
330
1F
100
AcDbEntity
  8
0
  6
Continuous
 62
     7
370
    15
100
AcDbSpline
210
0.0
220
0.0
230
1.0
 70
     8
 71
     3
 72
    16
 73
    12
 74
     0
 42
0.00000001
 43
0.00000001
 40
0.0
 40
0.0
 40
0.0
 40
0.0
 40
0.1632159154733609
 40
0.2700785493221903
 40
0.368807801826261
 40
0.465414547548418
 40
0.562667294596742
 40
0.6630040278015648
 40
0.7707095454270602
 40
0.8765167844448076
 40
1.0
 40
1.0
 40
1.0
 40
1.0
 10
969.5474832280116
 20
527.2268071004712
 30
0.0
 10
969.5861320278556
 20
526.9024762697552
 30
0.0
 10
969.6500854221348
 20
526.3657957627946
 30
0.0
 10
970.2740231504179
 20
525.8522519770441
 30
0.0
 10
971.0882632128578
 20
525.5564580585341
 30
0.0
 10
972.1255502757144
 20
525.3913981078509
 30
0.0
 10
973.3102754944824
 20
525.328990244295
 30
0.0
 10
974.5635236763787
 20
525.3623486872978
 30
0.0
 10
975.7234693348904
 20
525.5131669322926
 30
0.0
 10
976.7021991898968
 20
525.8130744879402
 30
0.0
 10
977.0309850338101
 20
526.1573068211171
 30
0.0
 10
977.2080509884792
 20
526.3426914045178
 30
0.0
  0
ARC
  5
DC
330
1F
100
AcDbEntity
  8
0
  6
Continuous
 62
     7
370
    15
100
AcDbCircle
 10
977.1148293219
 20
525.5102073273
 30
0.0
 40
0.8376873031718336
100
AcDbArc
 50
14.9949630646
 51
83.6106296347
  0
ARC
  5
DD
330
1F
100
AcDbEntity
  8
0
  6
Continuous
 62
     7
370
    15
100
AcDbCircle
 10
977.0701807973
 20
522.8837702894
 30
0.0
 40
0.9485000789464311
100
AcDbArc
 50
278.3578957375
 51
334.1804311181
  0
SPLINE
  5
DE
330
1F
100
AcDbEntity
  8
0
  6
Continuous
 62
     7
370
    15
100
AcDbSpline
210
0.0
220
0.0
230
1.0
 70
     8
 71
     3
 72
    16
 73
    12
 74
     0
 42
0.00000001
 43
0.00000001
 40
0.0
 40
0.0
 40
0.0
 40
0.0
 40
0.0982180191008256
 40
0.1976634965955716
 40
0.2943629666084737
 40
0.3914059925623609
 40
0.4911090824908498
 40
0.5996269474651383
 40
0.7226910563268855
 40
0.8431785934634243
 40
1.0
 40
1.0
 40
1.0
 40
1.0
 10
977.2080509884792
 20
521.9453438350522
 30
0.0
 10
977.0741520594742
 20
522.2304307958159
 30
0.0
 10
976.8046808286364
 20
522.8041675298108
 30
0.0
 10
976.0366311196944
 20
523.4635881094638
 30
0.0
 10
975.0322724323504
 20
523.9073045456346
 30
0.0
 10
973.8625979247106
 20
524.1076028079136
 30
0.0
 10
972.6062814879515
 20
524.056063523541
 30
0.0
 10
971.3472073852616
 20
523.7017772783846
 30
0.0
 10
970.3241683702392
 20
522.9854017805517
 30
0.0
 10
969.6468151837527
 20
521.8711799131512
 30
0.0
 10
969.5833650248172
 20
520.9454639366078
 30
0.0
 10
969.5474832280116
 20
520.4219608733022
 30
0.0
  0
LWPOLYLINE
  5
DF
330
1F
100
AcDbEntity
  8
0
  6
Continuous
 62
     7
370
    15
100
AcDbPolyline
 90
        9
 70
   128
 43
0.0
 10
969.547483228
 20
520.4219608733
 10
969.3988441451
 20
520.429977698
 10
969.2559122069
 20
520.4537226984
 10
969.124185942
 20
520.492279453
 10
969.008731745
 20
520.5441652963
 10
968.913975261
 20
520.6073909232
 10
968.8435672744
 20
520.6795274445
 10
968.8002197965
 20
520.7577957937
 10
968.785571955
 20
520.8391933867
  0
SPLINE
  5
E0
330
1F
100
AcDbEntity
  8
0
  6
Continuous
 62
     7
370
    15
100
AcDbSpline
210
0.0
220
0.0
230
1.0
 70
     8
 71
     3
 72
    11
 73
     7
 74
     0
 42
0.00000001
 43
0.00000001
 40
0.0
 40
0.0
 40
0.0
 40
0.0
 40
0.1990420501483557
 40
0.4636330763910596
 40
0.7350866204168816
 40
1.0
 40
1.0
 40
1.0
 40
1.0
 10
974.2885856850581
 20
524.78788189381
 30
0.0
 10
974.6316465503737
 20
524.7338389853995
 30
0.0
 10
975.4307458575655
 20
524.607955636304
 30
0.0
 10
976.5244959400457
 20
524.1385064192691
 30
0.0
 10
977.4382462086439
 20
523.414127362192
 30
0.0
 10
977.7633984317099
 20
522.7825835015723
 30
0.0
 10
977.9239921791988
 20
522.4706619211995
 30
0.0
  0
LINE
  5
E1
330
1F
100
AcDbEntity
  8
0
  6
Continuous
 62
     7
370
    15
100
AcDbLine
 10
977.9239921792
 20
525.7269456217
 30
0.0
 11
977.9239921792
 21
522.4706619212
 31
0.0
  0
SPLINE
  5
E2
330
1F
100
AcDbEntity
  8
0
  6
Continuous
 62
     7
370
    15
100
AcDbSpline
210
0.0
220
0.0
230
1.0
 70
     8
 71
     3
 72
    14
 73
    10
 74
     0
 42
0.00000001
 43
0.00000001
 40
0.0
 40
0.0
 40
0.0
 40
0.0
 40
0.062196924340606
 40
0.2157645763921096
 40
0.3692820408091351
 40
0.526993156634253
 40
0.6847104411194247
 40
0.8423237211747082
 40
1.0
 40
1.0
 40
1.0
 40
1.0
 10
977.2080509884792
 20
507.261568231281
 30
0.0
 10
977.2946451636848
 20
507.5698414632706
 30
0.0
 10
977.5950451549924
 20
508.6392583840981
 30
0.0
 10
977.9877309954854
 20
510.5455784279931
 30
0.0
 10
978.2874499981533
 20
512.9875709395259
 30
0.0
 10
978.3606436217038
 20
515.434807805411
 30
0.0
 10
978.2055346494317
 20
517.8035990278088
 30
0.0
 10
977.8342360699486
 20
520.0201944788114
 30
0.0
 10
977.4168071514632
 20
521.3035419067198
 30
0.0
 10
977.2080509884792
 20
521.9453438350522
 30
0.0
  0
SPLINE
  5
E3
330
1F
100
AcDbEntity
  8
0
  6
Continuous
 62
     7
370
    15
100
AcDbSpline
210
0.0
220
0.0
230
1.0
 70
     8
 71
     3
 72
    16
 73
    12
 74
     0
 42
0.00000001
 43
0.00000001
 40
0.0
 40
0.0
 40
0.0
 40
0.0
 40
0.1632156580106732
 40
0.2700784372674637
 40
0.3688076631508141
 40
0.4654144856157052
 40
0.562667256821172
 40
0.6630040108149119
 40
0.7707095514426711
 40
0.8765168084130668
 40
1.0
 40
1.0
 40
1.0
 40
1.0
 10
969.5474832280116
 20
509.1224960216844
 30
0.0
 10
969.5861323831418
 20
508.4646224207828
 30
0.0
 10
969.6500864396735
 20
507.3760168530537
 30
0.0
 10
970.2740223588726
 20
506.0460386537511
 30
0.0
 10
971.0882639205325
 20
505.1655004510537
 30
0.0
 10
972.1255498298559
 20
504.59785887054
 30
0.0
 10
973.3102755288529
 20
504.3632849809841
 30
0.0
 10
974.5635236667041
 20
504.4919117134456
 30
0.0
 10
975.7234693186862
 20
505.0216957540499
 30
0.0
 10
976.7021990273204
 20
505.9580828795128
 30
0.0
 10
977.0309849962217
 20
506.8053024758314
 30
0.0
 10
977.2080509884792
 20
507.261568231281
 30
0.0
  0
LINE
  5
E4
330
1F
100
AcDbEntity
  8
0
  6
Continuous
 62
     7
370
    15
100
AcDbLine
 10
969.547483228
 20
520.4219608733
 30
0.0
 11
969.547483228
 21
509.1224960217
 31
0.0
  0
SPLINE
  5
E5
330
1F
100
AcDbEntity
  8
0
  6
Continuous
 62
     7
370
    15
100
AcDbSpline
210
0.0
220
0.0
230
1.0
 70
     8
 71
     3
 72
    14
 73
    10
 74
     0
 42
0.00000001
 43
0.00000001
 40
0.0
 40
0.0
 40
0.0
 40
0.0
 40
0.062196943084285
 40
0.2157645200305921
 40
0.3692822590828279
 40
0.5269933953410263
 40
0.6847106540656319
 40
0.8423235682725272
 40
1.0
 40
1.0
 40
1.0
 40
1.0
 10
977.2080509884792
 20
526.3426914045178
 30
0.0
 10
977.2946451519315
 20
526.4791630950511
 30
0.0
 10
977.5950449334682
 20
526.9525906840208
 30
0.0
 10
977.987731612509
 20
527.9746740546259
 30
0.0
 10
978.2874497196018
 20
529.5436944159223
 30
0.0
 10
978.3606435931946
 20
531.4112485172337
 30
0.0
 10
978.205535143435
 20
533.5122452618785
 30
0.0
 10
977.8342350559767
 20
535.7719775004397
 30
0.0
 10
977.4168070423648
 20
537.3359959219406
 30
0.0
 10
977.2080509884792
 20
538.1181626746022
 30
0.0
  0
LINE
  5
E6
330
1F
100
AcDbEntity
  8
0
  6
Continuous
 62
     7
370
    15
100
AcDbLine
 10
969.547483228
 20
536.2882702777
 30
0.0
 11
969.547483228
 21
527.2268071005
 31
0.0
  0
SPLINE
  5
E7
330
1F
100
AcDbEntity
  8
0
  6
Continuous
 62
     7
370
    15
100
AcDbSpline
210
0.0
220
0.0
230
1.0
 70
     8
 71
     3
 72
    16
 73
    12
 74
     0
 42
0.00000001
 43
0.00000001
 40
0.0
 40
0.0
 40
0.0
 40
0.0
 40
0.0982181612537662
 40
0.1976634951535788
 40
0.2943629572596207
 40
0.3914060115790897
 40
0.4911090917950228
 40
0.5996268171355833
 40
0.7226908073332007
 40
0.8431783130980836
 40
0.9999999999999999
 40
0.9999999999999999
 40
0.9999999999999999
 40
0.9999999999999999
 10
977.2080509884792
 20
538.1181626746022
 30
0.0
 10
977.0741522949802
 20
538.4890668300784
 30
0.0
 10
976.8046819300736
 20
539.2355093494915
 30
0.0
 10
976.036630335063
 20
540.1772660562858
 30
0.0
 10
975.0322722678691
 20
540.8430807043428
 30
0.0
 10
973.8625981176239
 20
541.1558909174232
 30
0.0
 10
972.6062823752792
 20
541.0748256601228
 30
0.0
 10
971.3472070423164
 20
540.5277579672824
 30
0.0
 10
970.3241680773554
 20
539.4865700843125
 30
0.0
 10
969.6468146979144
 20
537.9887558861428
 30
0.0
 10
969.5833648697139
 20
536.9025390022065
 30
0.0
 10
969.5474832280116
 20
536.2882702776753
 30
0.0
  0
SPLINE
  5
E8
330
1F
100
AcDbEntity
  8
0
  6
Continuous
 62
     7
370
    15
100
AcDbSpline
210
0.0
220
0.0
230
1.0
 70
     8
 71
     3
 72
    14
 73
    10
 74
     0
 42
0.00000001
 43
0.00000001
 40
0.0
 40
0.0
 40
0.0
 40
0.0
 40
0.1575842195533167
 40
0.315111512246475
 40
0.4729864246161506
 40
0.6308558582747593
 40
0.784361584992217
 40
0.9379120334902039
 40
1.0
 40
1.0
 40
1.0
 40
1.0
 10
977.9239921791988
 20
522.4706619211995
 30
0.0
 10
978.135455770656
 20
521.7907417978691
 30
0.0
 10
978.5583065629372
 20
520.4311471704581
 30
0.0
 10
978.9335381968098
 20
518.0858073354758
 30
0.0
 10
979.0905543893998
 20
515.5803239818031
 30
0.0
 10
979.0163911449139
 20
512.9917792721121
 30
0.0
 10
978.7134223452714
 20
510.4081318127135
 30
0.0
 10
978.316058738282
 20
508.390263880898
 30
0.0
 10
978.0116418121106
 20
507.2570139194995
 30
0.0
 10
977.9239921791988
 20
506.9307214745843
 30
0.0
  0
ARC
  5
E9
330
1F
100
AcDbEntity
  8
0
  6
Continuous
 62
     7
370
    15
100
AcDbCircle
 10
976.9119989475
 20
505.6808619899
 30
0.0
 40
1.608191230038304
100
AcDbArc
 50
51.0034062204
 51
79.3919136957
  0
SPLINE
  5
EA
330
1F
100
AcDbEntity
  8
0
  6
Continuous
 62
     7
370
    15
100
AcDbSpline
210
0.0
220
0.0
230
1.0
 70
     8
 71
     3
 72
    14
 73
    10
 74
     0
 42
0.00000001
 43
0.00000001
 40
0.0
 40
0.0
 40
0.0
 40
0.0
 40
0.15758431732567
 40
0.3151114608369615
 40
0.4729863710984749
 40
0.6308558558166474
 40
0.7843614670038661
 40
0.9379119899062388
 40
1.0
 40
1.0
 40
1.0
 40
1.0
 10
977.9239921791988
 20
504.3193861076199
 30
0.0
 10
978.1354557167386
 20
504.3001170786214
 30
0.0
 10
978.5583060698626
 20
504.2615860117002
 30
0.0
 10
978.9335384407713
 20
503.7274530956728
 30
0.0
 10
979.0905543088945
 20
502.8254977261363
 30
0.0
 10
979.0163913278578
 20
501.5729104950969
 30
0.0
 10
978.7134220449259
 20
500.0114914677263
 30
0.0
 10
978.3160586908145
 20
498.5773243470911
 30
0.0
 10
978.0116418120347
 20
497.6658862073551
 30
0.0
 10
977.9239921791988
 20
497.4034591743314
 30
0.0
  0
LINE
  5
EB
330
1F
100
AcDbEntity
  8
0
  6
Continuous
 62
     7
370
    15
100
AcDbLine
 10
977.9239921792
 20
506.9307214746
 30
0.0
 11
977.9239921792
 21
504.3193861076
 31
0.0
  0
SPLINE
  5
EC
330
1F
100
AcDbEntity
  8
0
  6
Continuous
 62
     7
370
    15
100
AcDbSpline
210
0.0
220
0.0
230
1.0
 70
     8
 71
     3
 72
    14
 73
    10
 74
     0
 42
0.00000001
 43
0.00000001
 40
0.0
 40
0.0
 40
0.0
 40
0.0
 40
0.1575841092795393
 40
0.3151115265377705
 40
0.4729864005548705
 40
0.6308558362993028
 40
0.7843615727680058
 40
0.9379121563361495
 40
1.0
 40
1.0
 40
1.0
 40
1.0
 10
977.9239921791988
 20
538.1890102454984
 30
0.0
 10
978.1354558207186
 20
537.3604337805856
 30
0.0
 10
978.5583070281862
 20
535.7035789371271
 30
0.0
 10
978.9335379610586
 20
533.3131171542132
 30
0.0
 10
979.0905544240297
 20
531.0907870697168
 30
0.0
 10
979.016391211379
 20
529.115514458493
 30
0.0
 10
978.7134219461357
 20
527.455171632629
 30
0.0
 10
978.3160594947204
 20
526.373096041568
 30
0.0
 10
978.0116418427085
 20
525.8713975171412
 30
0.0
 10
977.9239921791989
 20
525.7269456216657
 30
0.0
  0
LINE
  5
ED
330
1F
100
AcDbEntity
  8
0
  6
Continuous
 62
     7
370
    15
100
AcDbLine
 10
977.9239921792
 20
539.6381928751
 30
0.0
 11
977.9239921792
 21
538.1890102455
 31
0.0
  0
ARC
  5
EE
330
1F
100
AcDbEntity
  8
0
  6
Continuous
 62
     7
370
    15
100
AcDbCircle
 10
977.7007648592
 20
536.791955288
 30
0.0
 40
1.414776657537975
100
AcDbArc
 50
80.9217788351
 51
110.3810879118
  0
LINE
  5
EF
330
1F
100
AcDbEntity
  8
0
  6
Continuous
 62
     7
370
    15
100
AcDbLine
 10
968.785571955
 20
509.0231835076
 30
0.0
 11
968.785571955
 21
520.8391933867
 31
0.0
  0
ARC
  5
F0
330
1F
100
AcDbEntity
  8
0
  6
Continuous
 62
     7
370
    15
100
AcDbCircle
 10
969.3602358118
 20
507.5867382591
 30
0.0
 40
1.547130731475041
100
AcDbArc
 50
83.0485172365
 51
111.8043582359
  0
SPLINE
  5
F1
330
1F
100
AcDbEntity
  8
0
  6
Continuous
 62
     7
370
    15
100
AcDbSpline
210
0.0
220
0.0
230
1.0
 70
     8
 71
     3
 72
    11
 73
     7
 74
     0
 42
0.00000001
 43
0.00000001
 40
0.0
 40
0.0
 40
0.0
 40
0.0
 40
0.334092198420632
 40
0.6236911016175625
 40
0.9185119429305665
 40
1.0
 40
1.0
 40
1.0
 40
1.0
 10
977.9239921791989
 20
506.9307214745843
 30
0.0
 10
977.7113440506554
 20
506.4058554760854
 30
0.0
 10
977.3143675687885
 20
505.4260233987342
 30
0.0
 10
976.1530666833207
 20
504.343312381733
 30
0.0
 10
975.0810047559872
 20
503.8482387612899
 30
0.0
 10
974.4296366241389
 20
503.7217020064999
 30
0.0
 10
974.2885856850581
 20
503.6943010219895
 30
0.0
  0
SPLINE
  5
F2
330
1F
100
AcDbEntity
  8
0
  6
Continuous
 62
     7
370
    15
100
AcDbSpline
210
0.0
220
0.0
230
1.0
 70
     8
 71
     3
 72
    11
 73
     7
 74
     0
 42
0.00000001
 43
0.00000001
 40
0.0
 40
0.0
 40
0.0
 40
0.0
 40
0.0091296317786136
 40
0.499990754346237
 40
0.9908518769138605
 40
0.9999999999999999
 40
0.9999999999999999
 40
0.9999999999999999
 40
0.9999999999999999
 10
974.2885856850581
 20
503.6943010219895
 30
0.0
 10
974.2838177836172
 20
503.693796515745
 30
0.0
 10
974.0227002822807
 20
503.6661668737281
 30
0.0
 10
973.4968499090052
 20
503.6398006522914
 30
0.0
 10
972.9710191116347
 20
503.6662218649867
 30
0.0
 10
972.709876726646
 20
503.6937965186667
 30
0.0
 10
972.7050988896327
 20
503.6943010219895
 30
0.0
  0
SPLINE
  5
F3
330
1F
100
AcDbEntity
  8
0
  6
Continuous
 62
     7
370
    15
100
AcDbSpline
210
0.0
220
0.0
230
1.0
 70
     8
 71
     3
 72
    12
 73
     8
 74
     0
 42
0.00000001
 43
0.00000001
 40
0.0
 40
0.0
 40
0.0
 40
0.0
 40
0.1136357826934443
 40
0.3008423490096072
 40
0.4919209145468141
 40
0.6964436967593781
 40
1.0
 40
1.0
 40
1.0
 40
1.0
 10
972.7050988896327
 20
503.6943010219895
 30
0.0
 10
972.4283441680193
 20
503.7553703107502
 30
0.0
 10
971.6956564654641
 20
503.9170467461794
 30
0.0
 10
970.6246767682134
 20
504.5120960741185
 30
0.0
 10
969.6575753013352
 20
505.528748989458
 30
0.0
 10
968.9159427019587
 20
507.0412527170074
 30
0.0
 10
968.8343313641551
 20
508.2819299934693
 30
0.0
 10
968.785571955009
 20
509.0231835076177
 30
0.0
  0
SPLINE
  5
F4
330
1F
100
AcDbEntity
  8
0
  6
Continuous
 62
     7
370
    15
100
AcDbSpline
210
0.0
220
0.0
230
1.0
 70
     8
 71
     3
 72
    12
 73
     8
 74
     0
 42
0.00000001
 43
0.00000001
 40
0.0
 40
0.0
 40
0.0
 40
0.0
 40
0.2917318241979671
 40
0.5225573374447281
 40
0.7611462447481407
 40
0.9714529019260659
 40
1.0
 40
1.0
 40
1.0
 40
1.0
 10
968.785571955009
 20
504.4239959844911
 30
0.0
 10
968.8307459769603
 20
504.4041757236006
 30
0.0
 10
968.91166281453
 20
504.3686731767433
 30
0.0
 10
969.7196689999354
 20
504.1074576437926
 30
0.0
 10
970.9311311526427
 20
503.8521208599742
 30
0.0
 10
972.0500883888834
 20
503.7276171745324
 30
0.0
 10
972.6351714800086
 20
503.6978577775581
 30
0.0
 10
972.7050988896327
 20
503.6943010219895
 30
0.0
  0
LINE
  5
F5
330
1F
100
AcDbEntity
  8
0
  6
Continuous
 62
     7
370
    15
100
AcDbLine
 10
968.785571955
 20
509.0231835076
 30
0.0
 11
968.785571955
 21
504.4239959845
 31
0.0
  0
ARC
  5
F6
330
1F
100
AcDbEntity
  8
0
  6
Continuous
 62
     7
370
    15
100
AcDbCircle
 10
977.203432277
 20
504.4716230266
 30
0.0
 40
0.7364663279397832
100
AcDbArc
 50
270.3593299517
 51
348.0702246336
  0
ARC
  5
F7
330
1F
100
AcDbEntity
  8
0
  6
Continuous
 62
     7
370
    15
100
AcDbCircle
 10
969.5458101781
 20
504.425671977
 30
0.0
 40
0.7602400705062171
100
AcDbArc
 50
180.1263119127
 51
270.1260901389
  0
SPLINE
  5
F8
330
1F
100
AcDbEntity
  8
0
  6
Continuous
 62
     7
370
    15
100
AcDbSpline
210
0.0
220
0.0
230
1.0
 70
     8
 71
     3
 72
    11
 73
     7
 74
     0
 42
0.00000001
 43
0.00000001
 40
0.0
 40
0.0
 40
0.0
 40
0.0
 40
0.199042253925186
 40
0.4636328835921302
 40
0.7350873817701381
 40
1.0
 40
1.0
 40
1.0
 40
1.0
 10
974.2885856850581
 20
503.6943010219895
 30
0.0
 10
974.6316463013018
 20
503.7168909849875
 30
0.0
 10
975.4307438779182
 20
503.7695102127066
 30
0.0
 10
976.5244997308697
 20
503.9431221002103
 30
0.0
 10
977.4382430403234
 20
504.1590390949559
 30
0.0
 10
977.763397731817
 20
504.2663734765575
 30
0.0
 10
977.9239921791988
 20
504.3193861076199
 30
0.0
  0
LWPOLYLINE
  5
F9
330
1F
100
AcDbEntity
  8
0
  6
Continuous
 62
     7
370
    15
100
AcDbPolyline
 90
        9
 70
   128
 43
0.0
 10
969.547483228
 20
536.2882702777
 10
969.3988441451
 20
536.2836956212
 10
969.2559122069
 20
536.2701355645
 10
969.124185942
 20
536.2481116483
 10
969.008731745
 20
536.2184806892
 10
968.913975261
 20
536.1823751757
 10
968.8435672744
 20
536.1411809155
 10
968.8002197965
 20
536.0964774319
 10
968.785571955
 20
536.0499932596
  0
LINE
  5
FA
330
1F
100
AcDbEntity
  8
0
  6
Continuous
 62
     7
370
    15
100
AcDbLine
 10
968.785571955
 20
526.5742852518
 30
0.0
 11
968.785571955
 21
536.0499932596
 31
0.0
  0
LINE
  5
FB
330
1F
100
AcDbEntity
  8
0
  6
Continuous
 62
     7
370
    15
100
AcDbLine
 10
977.2881596311
 20
503.7172488102
 30
0.0
 11
977.2080509885
 21
503.7351711819
 31
0.0
  0
SPLINE
  5
FC
330
1F
100
AcDbEntity
  8
0
  6
Continuous
 62
     7
370
    15
100
AcDbSpline
210
0.0
220
0.0
230
1.0
 70
     8
 71
     3
 72
    16
 73
    12
 74
     0
 42
0.00000001
 43
0.00000001
 40
0.0
 40
0.0
 40
0.0
 40
0.0
 40
0.1632157035401876
 40
0.2700786062315158
 40
0.3688077291552973
 40
0.4654144976536153
 40
0.562667259900509
 40
0.6630039919090915
 40
0.7707095662675756
 40
0.8765168602695367
 40
1.0
 40
1.0
 40
1.0
 40
1.0
 10
969.5474832280116
 20
498.6366979011857
 30
0.0
 10
969.5861325572388
 20
498.1406712335548
 30
0.0
 10
969.6500869240247
 20
497.3198789437099
 30
0.0
 10
970.2740214073584
 20
496.1749766683582
 30
0.0
 10
971.0882642196618
 20
495.3727509365233
 30
0.0
 10
972.1255501232291
 20
494.82998373496
 30
0.0
 10
973.3102753683271
 20
494.5998807587027
 30
0.0
 10
974.563524083851
 20
494.7269088721174
 30
0.0
 10
975.7234693012191
 20
495.2367270812377
 30
0.0
 10
976.702198690278
 20
496.1044680914948
 30
0.0
 10
977.0309849191344
 20
496.8167037025829
 30
0.0
 10
977.2080509884792
 20
497.2002743908727
 30
0.0
  0
LINE
  5
FD
330
1F
100
AcDbEntity
  8
0
  6
Continuous
 62
     7
370
    15
100
AcDbLine
 10
969.547483228
 20
503.6654337475
 30
0.0
 11
969.547483228
 21
498.6366979012
 31
0.0
  0
ARC
  5
FE
330
1F
100
AcDbEntity
  8
0
  6
Continuous
 62
     7
370
    15
100
AcDbCircle
 10
977.4337367665
 20
497.7679851013
 30
0.0
 40
0.6109251354224549
100
AcDbArc
 50
248.3203689374
 51
323.3676148036
  0
ARC
  5
FF
330
1F
100
AcDbEntity
  8
0
  6
Continuous
 62
     7
370
    15
100
AcDbCircle
 10
969.4487183671
 20
499.3077187763
 30
0.0
 40
0.6782503317996122
100
AcDbArc
 50
192.1142549092
 51
278.3730169498
  0
LINE
  5
100
330
1F
100
AcDbEntity
  8
0
  6
Continuous
 62
     7
370
    15
100
AcDbLine
 10
968.785571955
 20
499.1653799245
 30
0.0
 11
968.785571955
 21
504.4239959845
 31
0.0
  0
SPLINE
  5
101
330
1F
100
AcDbEntity
  8
0
  6
Continuous
 62
     7
370
    15
100
AcDbSpline
210
0.0
220
0.0
230
1.0
 70
     8
 71
     3
 72
    11
 73
     7
 74
     0
 42
0.00000001
 43
0.00000001
 40
0.0
 40
0.0
 40
0.0
 40
0.0
 40
0.1990422061820682
 40
0.4636329246606589
 40
0.7350870962311044
 40
1.0
 40
1.0
 40
1.0
 40
1.0
 10
974.2885856850581
 20
541.7036204764211
 30
0.0
 10
974.6316463647919
 20
541.6136372950132
 30
0.0
 10
975.4307443517565
 20
541.4040377012053
 30
0.0
 10
976.5244985812704
 20
540.6450504941957
 30
0.0
 10
977.4382441400709
 20
539.5258295533131
 30
0.0
 10
977.7633979713058
 20
538.6309789629018
 30
0.0
 10
977.9239921791988
 20
538.1890102454984
 30
0.0
  0
SPLINE
  5
102
330
1F
100
AcDbEntity
  8
0
  6
Continuous
 62
     7
370
    15
100
AcDbSpline
210
0.0
220
0.0
230
1.0
 70
     8
 71
     3
 72
    12
 73
     8
 74
     0
 42
0.00000001
 43
0.00000001
 40
0.0
 40
0.0
 40
0.0
 40
0.0
 40
0.2917319822372236
 40
0.5225572952007431
 40
0.7611461975439175
 40
0.9714529258724888
 40
0.9999999999999999
 40
0.9999999999999999
 40
0.9999999999999999
 40
0.9999999999999999
 10
968.785571955009
 20
536.0499932596051
 30
0.0
 10
968.8307458186367
 20
536.7699691523385
 30
0.0
 10
968.911662322237
 20
538.0596071695052
 30
0.0
 10
969.7196693968091
 20
539.8254751310727
 30
0.0
 10
970.9311317076606
 20
541.0697583443631
 30
0.0
 10
972.0500877313913
 20
541.5706900239431
 30
0.0
 10
972.6351714745564
 20
541.68942914119
 30
0.0
 10
972.7050988896328
 20
541.7036204764211
 30
0.0
  0
SPLINE
  5
103
330
1F
100
AcDbEntity
  8
0
  6
Continuous
 62
     7
370
    15
100
AcDbSpline
210
0.0
220
0.0
230
1.0
 70
     8
 71
     3
 72
    11
 73
     7
 74
     0
 42
0.00000001
 43
0.00000001
 40
0.0
 40
0.0
 40
0.0
 40
0.0
 40
0.009148324492895
 40
0.5000092454379651
 40
0.9908701663830352
 40
1.0
 40
1.0
 40
1.0
 40
1.0
 10
972.7050988896327
 20
541.7036204764211
 30
0.0
 10
972.7098767256456
 20
541.7043504573164
 30
0.0
 10
972.9710133066072
 20
541.7442481672167
 30
0.0
 10
973.4968498975765
 20
541.7823329317683
 30
0.0
 10
974.0227061107156
 20
541.7443277284946
 30
0.0
 10
974.2838177846191
 20
541.7043504615111
 30
0.0
 10
974.2885856850581
 20
541.7036204764211
 30
0.0
  0
SPLINE
  5
104
330
1F
100
AcDbEntity
  8
0
  6
Continuous
 62
     7
370
    15
100
AcDbSpline
210
0.0
220
0.0
230
1.0
 70
     8
 71
     3
 72
    12
 73
     8
 74
     0
 42
0.00000001
 43
0.00000001
 40
0.0
 40
0.0
 40
0.0
 40
0.0
 40
0.1136356806295625
 40
0.3008421668530816
 40
0.4919209599645969
 40
0.6964439119826236
 40
0.9999999999999999
 40
0.9999999999999999
 40
0.9999999999999999
 40
0.9999999999999999
 10
972.7050988896328
 20
541.7036204764211
 30
0.0
 10
972.4283441611122
 20
541.6592621312037
 30
0.0
 10
971.6956562258292
 20
541.5418266512623
 30
0.0
 10
970.6246757125446
 20
541.1202831086223
 30
0.0
 10
969.6575756370391
 20
540.4525381424439
 30
0.0
 10
968.9159430868817
 20
539.5419911568787
 30
0.0
 10
968.834331489206
 20
538.9537786223391
 30
0.0
 10
968.785571955009
 20
538.6023461052739
 30
0.0
  0
LINE
  5
105
330
1F
100
AcDbEntity
  8
0
  6
Continuous
 62
     7
370
    15
100
AcDbLine
 10
968.785571955
 20
538.6023461053
 30
0.0
 11
968.785571955
 21
536.0499932596
 31
0.0
  0
SPLINE
  5
106
330
1F
100
AcDbEntity
  8
0
  6
Continuous
 62
     7
370
    15
100
AcDbSpline
210
0.0
220
0.0
230
1.0
 70
     8
 71
     3
 72
    11
 73
     7
 74
     0
 42
0.00000001
 43
0.00000001
 40
0.0
 40
0.0
 40
0.0
 40
0.0
 40
0.3340922237528796
 40
0.6236913802336564
 40
0.918511848809832
 40
1.0
 40
1.0
 40
1.0
 40
1.0
 10
977.9239921791989
 20
539.6381928750836
 30
0.0
 10
977.7113438162635
 20
539.9411995639205
 30
0.0
 10
977.3143667495907
 20
540.5068597216391
 30
0.0
 10
976.1530688218734
 20
541.2381303585363
 30
0.0
 10
975.0810032671261
 20
541.5916226425617
 30
0.0
 10
974.4296365788825
 20
541.6836847822494
 30
0.0
 10
974.2885856850581
 20
541.7036204764211
 30
0.0
  0
LWPOLYLINE
  5
107
330
1F
100
AcDbEntity
  8
0
  6
Continuous
 62
     7
370
    15
100
AcDbPolyline
 90
        3
 70
   128
 43
0.0
 10
977.9239921792
 20
539.6381928751
 10
977.8860240205
 20
539.741763396
 10
977.8441219552
 20
539.814473612
  0
LINE
  5
108
330
1F
100
AcDbEntity
  8
0
  6
Continuous
 62
     7
370
    15
100
AcDbLine
 10
949.7855781539
 20
529.7397687265
 30
0.0
 11
949.7855781539
 21
508.739767147
 31
0.0
  0
LINE
  5
109
330
1F
100
AcDbEntity
  8
0
  6
Continuous
 62
     7
370
    15
100
AcDbLine
 10
948.9472686274
 20
523.4277709553
 30
0.0
 11
948.9472686274
 21
515.0517686436
 31
0.0
  0
LINE
  5
10A
330
1F
100
AcDbEntity
  8
0
  6
Continuous
 62
     7
370
    15
100
AcDbLine
 10
948.4784631951
 20
524.2397724816
 30
0.0
 11
948.4784631951
 21
514.2397671172
 31
0.0
  0
LINE
  5
10B
330
1F
100
AcDbEntity
  8
0
  6
Continuous
 62
     7
370
    15
100
AcDbLine
 10
949.3167727216
 20
523.4277709553
 30
0.0
 11
949.3167727216
 21
515.0517686436
 31
0.0
  0
LINE
  5
10C
330
1F
100
AcDbEntity
  8
0
  6
Continuous
 62
     7
370
    15
100
AcDbLine
 10
942.9472713693
 20
523.4277709553
 30
0.0
 11
942.9472713693
 21
515.0517686436
 31
0.0
  0
LINE
  5
10D
330
1F
100
AcDbEntity
  8
0
  6
Continuous
 62
     7
370
    15
100
AcDbLine
 10
942.4784510358
 20
524.2397724816
 30
0.0
 11
942.4784510358
 21
514.2397671172
 31
0.0
  0
LINE
  5
10E
330
1F
100
AcDbEntity
  8
0
  6
Continuous
 62
     7
370
    15
100
AcDbLine
 10
946.9472645743
 20
523.4277709553
 30
0.0
 11
946.9472645743
 21
515.0517686436
 31
0.0
  0
LINE
  5
10F
330
1F
100
AcDbEntity
  8
0
  6
Continuous
 62
     7
370
    15
100
AcDbLine
 10
946.478459142
 20
524.2397724816
 30
0.0
 11
946.478459142
 21
514.2397671172
 31
0.0
  0
LINE
  5
110
330
1F
100
AcDbEntity
  8
0
  6
Continuous
 62
     7
370
    15
100
AcDbLine
 10
943.7855808957
 20
524.2397724816
 30
0.0
 11
943.7855808957
 21
514.2397671172
 31
0.0
  0
LINE
  5
111
330
1F
100
AcDbEntity
  8
0
  6
Continuous
 62
     7
370
    15
100
AcDbLine
 10
943.3167754634
 20
523.4277709553
 30
0.0
 11
943.3167754634
 21
515.0517686436
 31
0.0
  0
LINE
  5
112
330
1F
100
AcDbEntity
  8
0
  6
Continuous
 62
     7
370
    15
100
AcDbLine
 10
945.7855849488
 20
524.2397724816
 30
0.0
 11
945.7855849488
 21
514.2397671172
 31
0.0
  0
LINE
  5
113
330
1F
100
AcDbEntity
  8
0
  6
Continuous
 62
     7
370
    15
100
AcDbLine
 10
945.3167646153
 20
523.4277709553
 30
0.0
 11
945.3167646153
 21
515.0517686436
 31
0.0
  0
LINE
  5
114
330
1F
100
AcDbEntity
  8
0
  6
Continuous
 62
     7
370
    15
100
AcDbLine
 10
944.4784550889
 20
524.2397724816
 30
0.0
 11
944.4784550889
 21
514.2397671172
 31
0.0
  0
LINE
  5
115
330
1F
100
AcDbEntity
  8
0
  6
Continuous
 62
     7
370
    15
100
AcDbLine
 10
941.7855768426
 20
524.2397724816
 30
0.0
 11
941.7855768426
 21
514.2397671172
 31
0.0
  0
LINE
  5
116
330
1F
100
AcDbEntity
  8
0
  6
Continuous
 62
     7
370
    15
100
AcDbLine
 10
941.3167714103
 20
523.4277709553
 30
0.0
 11
941.3167714103
 21
515.0517686436
 31
0.0
  0
LINE
  5
117
330
1F
100
AcDbEntity
  8
0
  6
Continuous
 62
     7
370
    15
100
AcDbLine
 10
947.7855741008
 20
524.2397724816
 30
0.0
 11
947.7855741008
 21
514.2397671172
 31
0.0
  0
LINE
  5
118
330
1F
100
AcDbEntity
  8
0
  6
Continuous
 62
     7
370
    15
100
AcDbLine
 10
947.3167686685
 20
523.4277709553
 30
0.0
 11
947.3167686685
 21
515.0517686436
 31
0.0
  0
LINE
  5
119
330
1F
100
AcDbEntity
  8
0
  6
Continuous
 62
     7
370
    15
100
AcDbLine
 10
944.9472605212
 20
523.4277709553
 30
0.0
 11
944.9472605212
 21
515.0517686436
 31
0.0
  0
LINE
  5
11A
330
1F
100
AcDbEntity
  8
0
  6
Continuous
 62
     7
370
    15
100
AcDbLine
 10
929.7855823262
 20
524.2397724816
 30
0.0
 11
929.7855823262
 21
514.2397671172
 31
0.0
  0
LINE
  5
11B
330
1F
100
AcDbEntity
  8
0
  6
Continuous
 62
     7
370
    15
100
AcDbLine
 10
930.4784565194
 20
524.2397724816
 30
0.0
 11
930.4784565194
 21
514.2397671172
 31
0.0
  0
LINE
  5
11C
330
1F
100
AcDbEntity
  8
0
  6
Continuous
 62
     7
370
    15
100
AcDbLine
 10
930.9472619517
 20
523.4277709553
 30
0.0
 11
930.9472619517
 21
515.0517686436
 31
0.0
  0
LINE
  5
11D
330
1F
100
AcDbEntity
  8
0
  6
Continuous
 62
     7
370
    15
100
AcDbLine
 10
929.3167768939
 20
523.4277709553
 30
0.0
 11
929.3167768939
 21
515.0517686436
 31
0.0
  0
LINE
  5
11E
330
1F
100
AcDbEntity
  8
0
  6
Continuous
 62
     7
370
    15
100
AcDbLine
 10
928.5908668263
 20
524.0450590083
 30
0.0
 11
928.5908668263
 21
514.4344768652
 31
0.0
  0
LINE
  5
11F
330
1F
100
AcDbEntity
  8
0
  6
Continuous
 62
     7
370
    15
100
AcDbLine
 10
928.9472727998
 20
523.4277709553
 30
0.0
 11
928.9472727998
 21
515.0517686436
 31
0.0
  0
SPLINE
  5
120
330
1F
100
AcDbEntity
  8
0
  6
Continuous
 62
     7
370
    15
100
AcDbSpline
210
0.0
220
0.0
230
1.0
 70
     8
 71
     3
 72
    11
 73
     7
 74
     0
 42
0.00000001
 43
0.00000001
 40
0.0
 40
0.0
 40
0.0
 40
0.0
 40
0.3340921289522448
 40
0.6236910871773148
 40
0.9185119105666454
 40
1.0
 40
1.0
 40
1.0
 40
1.0
 10
977.9239921791988
 20
497.4034591743314
 30
0.0
 10
977.7113439820056
 20
496.9268797496541
 30
0.0
 10
977.3143672986289
 20
496.0371900091758
 30
0.0
 10
976.1530669743319
 20
494.9689098271863
 30
0.0
 10
975.0810044765284
 20
494.4650941791131
 30
0.0
 10
974.4296366159944
 20
494.334955365617
 30
0.0
 10
974.2885856850581
 20
494.3067743608319
 30
0.0
  0
SPLINE
  5
121
330
1F
100
AcDbEntity
  8
0
  6
Continuous
 62
     7
370
    15
100
AcDbSpline
210
0.0
220
0.0
230
1.0
 70
     8
 71
     3
 72
    11
 73
     7
 74
     0
 42
0.00000001
 43
0.00000001
 40
0.0
 40
0.0
 40
0.0
 40
0.0
 40
0.0091297510401672
 40
0.4999907544757333
 40
0.9908517579112994
 40
1.0
 40
1.0
 40
1.0
 40
1.0
 10
974.2885856850581
 20
494.3067743608319
 30
0.0
 10
974.2838177842093
 20
494.3059646549397
 30
0.0
 10
974.0227037261959
 20
494.2616211171842
 30
0.0
 10
973.4968499021985
 20
494.2193848865226
 30
0.0
 10
972.971015681662
 20
494.2617093706937
 30
0.0
 10
972.7098767260549
 20
494.3059646596107
 30
0.0
 10
972.7050988896327
 20
494.3067743608319
 30
0.0
  0
SPLINE
  5
122
330
1F
100
AcDbEntity
  8
0
  6
Continuous
 62
     7
370
    15
100
AcDbSpline
210
0.0
220
0.0
230
1.0
 70
     8
 71
     3
 72
    12
 73
     8
 74
     0
 42
0.00000001
 43
0.00000001
 40
0.0
 40
0.0
 40
0.0
 40
0.0
 40
0.1136356552155573
 40
0.3008422582304845
 40
0.4919209727787816
 40
0.6964437642557931
 40
1.0
 40
1.0
 40
1.0
 40
1.0
 10
972.7050988896327
 20
494.3067743608319
 30
0.0
 10
972.4283441086951
 20
494.3695252639436
 30
0.0
 10
971.6956556482344
 20
494.5356537855095
 30
0.0
 10
970.6246765098201
 20
495.1385295674326
 30
0.0
 10
969.6575756827523
 20
496.1264713371154
 30
0.0
 10
968.9159426930476
 20
497.5297984044279
 30
0.0
 10
968.8343313575338
 20
498.5536630706932
 30
0.0
 10
968.785571955009
 20
499.1653799244725
 30
0.0
  0
LINE
  5
123
330
1F
100
AcDbEntity
  8
0
  6
Continuous
 62
     7
370
    15
100
AcDbLine
 10
968.785571955
 20
499.1653799245
 30
0.0
 11
968.785571955
 21
498.9510453472
 31
0.0
  0
LINE
  5
124
330
1F
100
AcDbEntity
  8
0
  6
Continuous
 62
     7
370
    15
100
AcDbLine
 10
969.7303204759
 20
503.7134303877
 30
0.0
 11
969.7533427699
 21
503.7194728085
 31
0.0
  0
LINE
  5
125
330
1F
100
AcDbEntity
  8
0
  6
Continuous
 62
     7
370
    15
100
AcDbLine
 10
924.7855721934
 20
526.2397690842
 30
0.0
 11
924.7855721934
 21
425.357415823
 31
0.0
  0
LINE
  5
126
330
1F
100
AcDbEntity
  8
0
  6
Continuous
 62
     7
370
    15
100
AcDbLine
 10
921.7855810149
 20
425.357415823
 30
0.0
 11
924.7855721934
 21
425.357415823
 31
0.0
  0
LINE
  5
127
330
1F
100
AcDbEntity
  8
0
  6
Continuous
 62
     7
370
    15
100
AcDbLine
 10
921.7855810149
 20
526.2397690842
 30
0.0
 11
921.7855810149
 21
425.357415823
 31
0.0
  0
LINE
  5
128
330
1F
100
AcDbEntity
  8
0
  6
Continuous
 62
     7
370
    15
100
AcDbLine
 10
924.7855721934
 20
424.2397672662
 30
0.0
 11
921.7855810149
 21
424.2397672662
 31
0.0
  0
LINE
  5
129
330
1F
100
AcDbEntity
  8
0
  6
Continuous
 62
     7
370
    15
100
AcDbLine
 10
924.7855721934
 20
425.357415823
 30
0.0
 11
924.7855721934
 21
424.2397672662
 31
0.0
  0
LINE
  5
12A
330
1F
100
AcDbEntity
  8
0
  6
Continuous
 62
     7
370
    15
100
AcDbLine
 10
921.7855810149
 20
424.2397672662
 30
0.0
 11
921.7855810149
 21
425.357415823
 31
0.0
  0
LINE
  5
12B
330
1F
100
AcDbEntity
  8
0
  6
Continuous
 62
     7
370
    15
100
AcDbLine
 10
511.3355844243
 20
440.8397688696
 30
0.0
 11
511.3355844243
 21
471.6397687027
 31
0.0
  0
LINE
  5
12C
330
1F
100
AcDbEntity
  8
0
  6
Continuous
 62
     7
370
    15
100
AcDbLine
 10
515.3355776294
 20
475.6397693583
 30
0.0
 11
515.3355776294
 21
436.8397682139
 31
0.0
  0
LINE
  5
12D
330
1F
100
AcDbEntity
  8
0
  6
Continuous
 62
     7
370
    15
100
AcDbLine
 10
518.8355772717
 20
436.8397682139
 30
0.0
 11
518.8355772717
 21
475.6397693583
 31
0.0
  0
LINE
  5
12E
330
1F
100
AcDbEntity
  8
0
  6
Continuous
 62
     7
370
    15
100
AcDbLine
 10
520.8355813249
 20
470.1397684568
 30
0.0
 11
520.8355813249
 21
442.3397691154
 31
0.0
  0
SPLINE
  5
12F
330
1F
100
AcDbEntity
  8
0
  6
Continuous
 62
     7
370
    15
100
AcDbSpline
210
0.0
220
0.0
230
1.0
 70
    24
 71
     3
 72
    55
 73
    51
 74
     0
 42
0.00000001
 43
0.00000001
 40
0.0
 40
0.0
 40
0.0
 40
0.0
 40
0.0625000000000013
 40
0.0625000000000013
 40
0.0937500000000019
 40
0.0937500000000019
 40
0.1250000000000026
 40
0.1562500000000033
 40
0.1562500000000033
 40
0.187500000000004
 40
0.187500000000004
 40
0.2500000000000053
 40
0.2500000000000053
 40
0.2812500000000059
 40
0.2812500000000059
 40
0.3125000000000067
 40
0.3125000000000067
 40
0.375000000000008
 40
0.375000000000008
 40
0.4062500000000087
 40
0.4062500000000087
 40
0.4375000000000094
 40
0.4375000000000094
 40
0.5000000000000108
 40
0.5000000000000108
 40
0.5312500000000104
 40
0.5312500000000104
 40
0.56250000000001
 40
0.56250000000001
 40
0.5937500000000097
 40
0.5937500000000097
 40
0.6250000000000093
 40
0.6250000000000093
 40
0.6875000000000087
 40
0.6875000000000087
 40
0.7187500000000075
 40
0.7187500000000075
 40
0.7500000000000063
 40
0.7500000000000063
 40
0.812500000000004
 40
0.812500000000004
 40
0.8437500000000033
 40
0.8437500000000033
 40
0.8750000000000026
 40
0.8750000000000026
 40
0.9062500000000019
 40
0.9062500000000019
 40
0.9375000000000012
 40
0.9375000000000012
 40
1.0
 40
1.0
 40
1.0
 40
1.0
 10
923.3732205061605
 20
806.2397687861287
 30
0.0
 10
923.3732153666998
 20
806.2397687861287
 30
0.0
 10
923.455926801009
 20
806.2397687861289
 30
0.0
 10
923.7014600038362
 20
806.2397687861288
 30
0.0
 10
923.8042789887813
 20
806.2397687861285
 30
0.0
 10
924.0474826960499
 20
806.2397687861287
 30
0.0
 10
924.3285738856346
 20
806.2397687861285
 30
0.0
 10
924.6835880652402
 20
806.2397687861287
 30
0.0
 10
925.0762398192684
 20
806.2397687861287
 30
0.0
 10
925.2921009173833
 20
806.2397687861288
 30
0.0
 10
925.9942863235216
 20
806.2397687861289
 30
0.0
 10
926.5236565033026
 20
806.2397687861287
 30
0.0
 10
927.4075074189108
 20
806.2397687861287
 30
0.0
 10
927.7172008784175
 20
806.2397687861289
 30
0.0
 10
928.3672328651065
 20
806.2397687861289
 30
0.0
 10
928.7083833853434
 20
806.2397687861289
 30
0.0
 10
929.7557712724663
 20
806.2397687861287
 30
0.0
 10
930.4911969965423
 20
806.2397687861287
 30
0.0
 10
931.6570335643892
 20
806.2397687861288
 30
0.0
 10
932.0581693584918
 20
806.2397687861288
 30
0.0
 10
932.8753555552863
 20
806.2397687861287
 30
0.0
 10
933.2871380229155
 20
806.2397687861289
 30
0.0
 10
934.5308000049157
 20
806.2397687861287
 30
0.0
 10
935.3713443567356
 20
806.2397687861288
 30
0.0
 10
936.6498083909196
 20
806.2397687861288
 30
0.0
 10
937.0760590061129
 20
806.2397687861289
 30
0.0
 10
937.917851648107
 20
806.2397687861289
 30
0.0
 10
938.335048762473
 20
806.2397687861288
 30
0.0
 10
939.162167671923
 20
806.2397687861287
 30
0.0
 10
939.5722128058231
 20
806.2397687861286
 30
0.0
 10
940.3843832491556
 20
806.2397687861287
 30
0.0
 10
940.788875695089
 20
806.2397687861289
 30
0.0
 10
941.9644085621873
 20
806.2397687861289
 30
0.0
 10
942.7015302036058
 20
806.2397687861288
 30
0.0
 10
943.7472283172233
 20
806.2397687861287
 30
0.0
 10
944.0853242972198
 20
806.2397687861287
 30
0.0
 10
944.7399974553749
 20
806.2397687861287
 30
0.0
 10
945.0525942295329
 20
806.2397687861285
 30
0.0
 10
945.9411162147826
 20
806.2397687861286
 30
0.0
 10
946.4709358062257
 20
806.2397687861287
 30
0.0
 10
947.1718454994588
 20
806.2397687861287
 30
0.0
 10
947.3899170489934
 20
806.2397687861288
 30
0.0
 10
947.7847012182336
 20
806.2397687861288
 30
0.0
 10
947.9628280402334
 20
806.2397687861288
 30
0.0
 10
948.2815784697314
 20
806.2397687861287
 30
0.0
 10
948.4221991717845
 20
806.2397687861287
 30
0.0
 10
948.6653286599469
 20
806.2397687861287
 30
0.0
 10
948.7679386267652
 20
806.2397687861287
 30
0.0
 10
949.0150469766922
 20
806.2397687861288
 30
0.0
 10
949.0979401077002
 20
806.2397687861287
 30
0.0
 10
949.0979355632568
 20
806.2397687861287
 30
0.0
  0
LINE
  5
130
330
1F
100
AcDbEntity
  8
0
  6
Continuous
 62
     7
370
    15
100
AcDbLine
 10
929.2355804666
 20
686.2397729585
 30
0.0
 11
932.2355716451
 21
686.2397729585
 31
0.0
  0
LINE
  5
131
330
1F
100
AcDbEntity
  8
0
  6
Continuous
 62
     7
370
    15
100
AcDbLine
 10
940.2355729564
 20
686.2397729585
 30
0.0
 11
943.235579036
 21
686.2397729585
 31
0.0
  0
LINE
  5
132
330
1F
100
AcDbEntity
  8
0
  6
Continuous
 62
     7
370
    15
100
AcDbLine
 10
932.2355716451
 20
686.2397729585
 30
0.0
 11
940.2355729564
 21
686.2397729585
 31
0.0
  0
SPLINE
  5
133
330
1F
100
AcDbEntity
  8
0
  6
Continuous
 62
     7
370
    15
100
AcDbSpline
210
0.0
220
0.0
230
1.0
 70
     8
 71
     3
 72
    16
 73
    12
 74
     0
 42
0.00000001
 43
0.00000001
 40
0.0
 40
0.0
 40
0.0
 40
0.0
 40
0.1250000000000013
 40
0.1250000000000013
 40
0.2500000000000026
 40
0.2500000000000026
 40
0.5000000000000018
 40
0.5000000000000018
 40
0.7500000000000009
 40
0.7500000000000009
 40
1.0
 40
1.0
 40
1.0
 40
1.0
 10
572.8406440485628
 20
468.5161338780593
 30
0.0
 10
572.8361953093304
 20
468.4621588482888
 30
0.0
 10
572.8581442089733
 20
468.399297183451
 30
0.0
 10
572.9432794649873
 20
468.2567847013697
 30
0.0
 10
573.0071206494628
 20
468.1765760291844
 30
0.0
 10
573.2465084216371
 20
467.9156709429482
 30
0.0
 10
573.4659486338404
 20
467.7174199555826
 30
0.0
 10
573.9754893954484
 20
467.278856898038
 30
0.0
 10
574.2668495388074
 20
467.0381058745591
 30
0.0
 10
574.8771528369003
 20
466.5253611882688
 30
0.0
 10
575.1991551551746
 20
466.2509825953867
 30
0.0
 10
575.5219582024779
 20
465.9584586206057
 30
0.0
  0
LINE
  5
134
330
1F
100
AcDbEntity
  8
0
  6
Continuous
 62
     7
370
    15
100
AcDbLine
 10
594.3355738147
 20
465.9584588537
 30
0.0
 11
575.5219637378
 21
465.9584588537
 31
0.0
  0
SPLINE
  5
135
330
1F
100
AcDbEntity
  8
0
  6
Continuous
 62
     7
370
    15
100
AcDbSpline
210
0.0
220
0.0
230
1.0
 70
     8
 71
     3
 72
     8
 73
     4
 74
     0
 42
0.00000001
 43
0.00000001
 40
0.0
 40
0.0
 40
0.0
 40
0.0
 40
0.0000226150302116
 40
0.0000226150302116
 40
0.0000226150302116
 40
0.0000226150302116
 10
594.3369554449225
 20
465.9442237484188
 30
0.0
 10
594.3369705805711
 20
465.9489751127653
 30
0.0
 10
594.3371342554392
 20
465.9537219244174
 30
0.0
 10
594.3374470988057
 20
465.9584586206057
 30
0.0
  0
SPLINE
  5
136
330
1F
100
AcDbEntity
  8
0
  6
Continuous
 62
     7
370
    15
100
AcDbSpline
210
0.0
220
0.0
230
1.0
 70
    24
 71
     3
 72
    22
 73
    18
 74
     0
 42
0.00000001
 43
0.00000001
 40
0.0
 40
0.0
 40
0.0
 40
0.0
 40
0.1249999999999999
 40
0.1249999999999999
 40
0.2499999999999999
 40
0.2499999999999999
 40
0.3749999999999999
 40
0.3749999999999999
 40
0.4999999999999999
 40
0.4999999999999999
 40
0.6249999999999999
 40
0.6249999999999999
 40
0.7499999999999999
 40
0.7499999999999999
 40
0.8749999999999999
 40
0.8749999999999999
 40
1.0
 40
1.0
 40
1.0
 40
1.0
 10
594.3355780346827
 20
446.535312079605
 30
0.0
 10
594.3355780346827
 20
447.1189016104038
 30
0.0
 10
594.3355780346827
 20
447.7826622000939
 30
0.0
 10
594.3355780346827
 20
449.2379899778794
 30
0.0
 10
594.3355780346828
 20
450.0294981607531
 30
0.0
 10
594.3355780346827
 20
451.7014057977479
 30
0.0
 10
594.3355780346827
 20
452.5817374655721
 30
0.0
 10
594.3355780346827
 20
454.3880053268736
 30
0.0
 10
594.3355780346827
 20
455.3138682865151
 30
0.0
 10
594.3355780346828
 20
457.1656692857423
 30
0.0
 10
594.3355780346827
 20
458.0915322453838
 30
0.0
 10
594.3355780346828
 20
459.8978001066853
 30
0.0
 10
594.3355780346827
 20
460.7781317745096
 30
0.0
 10
594.3355780346828
 20
462.4500394115043
 30
0.0
 10
594.3355780346827
 20
463.2415475943781
 30
0.0
 10
594.3355780346827
 20
464.6968753721635
 30
0.0
 10
594.3355780346827
 20
465.3606359618536
 30
0.0
 10
594.3355780346827
 20
465.9442254926525
 30
0.0
  0
SPLINE
  5
137
330
1F
100
AcDbEntity
  8
0
  6
Continuous
 62
     7
370
    15
100
AcDbSpline
210
0.0
220
0.0
230
1.0
 70
     8
 71
     3
 72
     8
 73
     4
 74
     0
 42
0.00000001
 43
0.00000001
 40
0.0
 40
0.0
 40
0.0
 40
0.0
 40
0.0000226150302116
 40
0.0000226150302116
 40
0.0000226150302116
 40
0.0000226150302116
 10
594.3374470988056
 20
446.5210789516518
 30
0.0
 10
594.3371342554391
 20
446.5258156478401
 30
0.0
 10
594.336970580571
 20
446.5305624594922
 30
0.0
 10
594.3369554449224
 20
446.5353138238386
 30
0.0
  0
LINE
  5
138
330
1F
100
AcDbEntity
  8
0
  6
Continuous
 62
     7
370
    15
100
AcDbLine
 10
575.5219637378
 20
446.5210787186
 30
0.0
 11
594.3355738147
 21
446.5210787186
 31
0.0
  0
SPLINE
  5
139
330
1F
100
AcDbEntity
  8
0
  6
Continuous
 62
     7
370
    15
100
AcDbSpline
210
0.0
220
0.0
230
1.0
 70
     8
 71
     3
 72
    16
 73
    12
 74
     0
 42
0.00000001
 43
0.00000001
 40
0.0
 40
0.0
 40
0.0
 40
0.0
 40
0.1250000000000013
 40
0.1250000000000013
 40
0.2500000000000026
 40
0.2500000000000026
 40
0.5000000000000017
 40
0.5000000000000017
 40
0.7500000000000009
 40
0.7500000000000009
 40
1.0
 40
1.0
 40
1.0
 40
1.0
 10
572.8406440485628
 20
443.9634036941981
 30
0.0
 10
572.8361953093303
 20
444.0173787239686
 30
0.0
 10
572.8581442089733
 20
444.0802403888064
 30
0.0
 10
572.9432794649873
 20
444.2227528708877
 30
0.0
 10
573.0071206494628
 20
444.302961543073
 30
0.0
 10
573.2465084216371
 20
444.5638666293092
 30
0.0
 10
573.4659486338403
 20
444.7621176166749
 30
0.0
 10
573.9754893954484
 20
445.2006806742195
 30
0.0
 10
574.2668495388074
 20
445.4414316976984
 30
0.0
 10
574.8771528369002
 20
445.9541763839886
 30
0.0
 10
575.1991551551845
 20
446.2285549768665
 30
0.0
 10
575.5219582024779
 20
446.5210789516518
 30
0.0
  0
LINE
  5
13A
330
1F
100
AcDbEntity
  8
0
  6
Continuous
 62
     7
370
    15
100
AcDbLine
 10
572.3355739339
 20
468.7397689724
 30
0.0
 11
572.3355739339
 21
443.7397685999
 31
0.0
  0
SPLINE
  5
13B
330
1F
100
AcDbEntity
  8
0
  6
Continuous
 62
     7
370
    15
100
AcDbSpline
210
0.0
220
0.0
230
1.0
 70
     8
 71
     3
 72
     8
 73
     4
 74
     0
 42
0.00000001
 43
0.00000001
 40
0.0
 40
0.0
 40
0.0
 40
0.0
 40
0.0000226150302117
 40
0.0000226150302117
 40
0.0000226150302117
 40
0.0000226150302117
 10
849.2342006244431
 20
446.5353138238386
 30
0.0
 10
849.2341854887945
 20
446.5305624594922
 30
0.0
 10
849.2340218139265
 20
446.5258156478401
 30
0.0
 10
849.2337089705601
 20
446.5210789516518
 30
0.0
  0
SPLINE
  5
13C
330
1F
100
AcDbEntity
  8
0
  6
Continuous
 62
     7
370
    15
100
AcDbSpline
210
0.0
220
0.0
230
1.0
 70
    24
 71
     3
 72
    14
 73
    10
 74
     0
 42
0.00000001
 43
0.00000001
 40
0.1393700509402417
 40
0.1393700509402417
 40
0.1393700509402417
 40
0.1393700509402417
 40
0.2500000000000002
 40
0.3750000000000001
 40
0.5000000000000003
 40
0.5000000000000003
 40
0.6250000000000002
 40
0.7500000000000002
 40
0.8606299490597572
 40
0.8606299490597572
 40
0.8606299490597572
 40
0.8606299490597572
 10
849.2355780346827
 20
465.944335660012
 30
0.0
 10
849.2355780346827
 20
465.2280957576235
 30
0.0
 10
849.235578034683
 20
463.4454273504633
 30
0.0
 10
849.2355780346826
 20
460.0907829325157
 30
0.0
 10
849.2355780346828
 20
457.5234909396265
 30
0.0
 10
849.2355780346828
 20
454.9560466326309
 30
0.0
 10
849.2355780346827
 20
452.3887546397417
 30
0.0
 10
849.2355780346827
 20
449.0341102217942
 30
0.0
 10
849.2355780346827
 20
447.2514418146339
 30
0.0
 10
849.2355780346827
 20
446.5352019122455
 30
0.0
  0
SPLINE
  5
13D
330
1F
100
AcDbEntity
  8
0
  6
Continuous
 62
     7
370
    15
100
AcDbSpline
210
0.0
220
0.0
230
1.0
 70
     8
 71
     3
 72
     8
 73
     4
 74
     0
 42
0.00000001
 43
0.00000001
 40
0.0
 40
0.0
 40
0.0
 40
0.0
 40
0.0000226150302116
 40
0.0000226150302116
 40
0.0000226150302116
 40
0.0000226150302116
 10
849.23370897056
 20
465.9584586206057
 30
0.0
 10
849.2340218139263
 20
465.9537219244174
 30
0.0
 10
849.2341854887944
 20
465.9489751127653
 30
0.0
 10
849.2342006244431
 20
465.9442237484188
 30
0.0
  0
LINE
  5
13E
330
1F
100
AcDbEntity
  8
0
  6
Continuous
 62
     7
370
    15
100
AcDbLine
 10
868.0491923316
 20
465.9584588537
 30
0.0
 11
849.2355822547
 21
465.9584588537
 31
0.0
  0
SPLINE
  5
13F
330
1F
100
AcDbEntity
  8
0
  6
Continuous
 62
     7
370
    15
100
AcDbSpline
210
0.0
220
0.0
230
1.0
 70
     8
 71
     3
 72
    16
 73
    12
 74
     0
 42
0.00000001
 43
0.00000001
 40
0.0
 40
0.0
 40
0.0
 40
0.0
 40
0.1250000000000013
 40
0.1250000000000013
 40
0.2500000000000026
 40
0.2500000000000026
 40
0.5000000000000018
 40
0.5000000000000018
 40
0.7500000000000009
 40
0.7500000000000009
 40
1.0
 40
1.0
 40
1.0
 40
1.0
 10
870.7305120208027
 20
468.5161338780593
 30
0.0
 10
870.7349607600352
 20
468.4621588482888
 30
0.0
 10
870.7130118603923
 20
468.399297183451
 30
0.0
 10
870.6278766043782
 20
468.2567847013697
 30
0.0
 10
870.5640354199028
 20
468.1765760291844
 30
0.0
 10
870.3246476477284
 20
467.9156709429482
 30
0.0
 10
870.1052074355252
 20
467.7174199555826
 30
0.0
 10
869.5956666739172
 20
467.278856898038
 30
0.0
 10
869.3043065305583
 20
467.0381058745591
 30
0.0
 10
868.6940032324652
 20
466.5253611882688
 30
0.0
 10
868.3720009141801
 20
466.2509825953915
 30
0.0
 10
868.0491978668878
 20
465.9584586206057
 30
0.0
  0
SPLINE
  5
140
330
1F
100
AcDbEntity
  8
0
  6
Continuous
 62
     7
370
    15
100
AcDbSpline
210
0.0
220
0.0
230
1.0
 70
     8
 71
     3
 72
    16
 73
    12
 74
     0
 42
0.00000001
 43
0.00000001
 40
0.0
 40
0.0
 40
0.0
 40
0.0
 40
0.1250000000000013
 40
0.1250000000000013
 40
0.2500000000000026
 40
0.2500000000000026
 40
0.5000000000000018
 40
0.5000000000000018
 40
0.7500000000000009
 40
0.7500000000000009
 40
1.0
 40
1.0
 40
1.0
 40
1.0
 10
870.7305120208027
 20
443.9634036941981
 30
0.0
 10
870.7349607600352
 20
444.0173787239686
 30
0.0
 10
870.7130118603923
 20
444.0802403888064
 30
0.0
 10
870.6278766043782
 20
444.2227528708877
 30
0.0
 10
870.5640354199028
 20
444.302961543073
 30
0.0
 10
870.3246476477284
 20
444.5638666293092
 30
0.0
 10
870.1052074355251
 20
444.7621176166749
 30
0.0
 10
869.5956666739172
 20
445.2006806742195
 30
0.0
 10
869.3043065305583
 20
445.4414316976984
 30
0.0
 10
868.6940032324652
 20
445.9541763839886
 30
0.0
 10
868.3720009141717
 20
446.2285549768624
 30
0.0
 10
868.0491978668878
 20
446.5210789516518
 30
0.0
  0
LINE
  5
141
330
1F
100
AcDbEntity
  8
0
  6
Continuous
 62
     7
370
    15
100
AcDbLine
 10
849.2355822547
 20
446.5210787186
 30
0.0
 11
868.0491923316
 21
446.5210787186
 31
0.0
  0
LINE
  5
142
330
1F
100
AcDbEntity
  8
0
  6
Continuous
 62
     7
370
    15
100
AcDbLine
 10
871.2355821355
 20
468.7397689724
 30
0.0
 11
871.2355821355
 21
443.7397685999
 31
0.0
  0
SPLINE
  5
143
330
1F
100
AcDbEntity
  8
0
  6
Continuous
 62
     7
370
    15
100
AcDbSpline
210
0.0
220
0.0
230
1.0
 70
     8
 71
     3
 72
    44
 73
    40
 74
     0
 42
0.00000001
 43
0.00000001
 40
0.0
 40
0.0
 40
0.0
 40
0.0
 40
0.0625000000000012
 40
0.0625000000000012
 40
0.125000000000001
 40
0.125000000000001
 40
0.1875000000000008
 40
0.1875000000000008
 40
0.2500000000000007
 40
0.2500000000000007
 40
0.2812500000000006
 40
0.2812500000000006
 40
0.3125000000000005
 40
0.3125000000000005
 40
0.3750000000000004
 40
0.3750000000000004
 40
0.4062500000000004
 40
0.4062500000000004
 40
0.4375000000000004
 40
0.4375000000000004
 40
0.5000000000000003
 40
0.5000000000000003
 40
0.5625000000000002
 40
0.5625000000000002
 40
0.6250000000000002
 40
0.6250000000000002
 40
0.6875000000000001
 40
0.6875000000000001
 40
0.7187500000000002
 40
0.7187500000000002
 40
0.7500000000000002
 40
0.7500000000000002
 40
0.8125000000000001
 40
0.8125000000000001
 40
0.8750000000000001
 40
0.8750000000000001
 40
0.9375
 40
0.9375
 40
1.0
 40
1.0
 40
1.0
 40
1.0
 10
849.2355780346827
 20
465.9443356673372
 30
0.0
 10
848.6095098538545
 20
465.8723471877669
 30
0.0
 10
847.9866682063582
 20
465.7543831951828
 30
0.0
 10
846.7735492608699
 20
465.4338506179287
 30
0.0
 10
846.1826542700173
 20
465.2309919528137
 30
0.0
 10
845.0350673751793
 20
464.7319087804545
 30
0.0
 10
844.4738037096171
 20
464.4320805975493
 30
0.0
 10
843.4278537610306
 20
463.7497539081194
 30
0.0
 10
842.9408756459248
 20
463.3654781714106
 30
0.0
 10
842.2652892686077
 20
462.723327127133
 30
0.0
 10
842.0492751905163
 20
462.4982790376941
 30
0.0
 10
841.636439820165
 20
462.025191265065
 30
0.0
 10
841.4391079270042
 20
461.7761579454256
 30
0.0
 10
840.8908457840529
 20
461.0112216602394
 30
0.0
 10
840.57821791412
 20
460.4728008296178
 30
0.0
 10
840.1925804875456
 20
459.6203120353654
 30
0.0
 10
840.0778842642911
 20
459.3286898011243
 30
0.0
 10
839.8775123706612
 20
458.7297985848106
 30
0.0
 10
839.7928001818083
 20
458.4249453522467
 30
0.0
 10
839.5885390436599
 20
457.5063887340049
 30
0.0
 10
839.5162757809004
 20
456.8839163793767
 30
0.0
 10
839.5146874985562
 20
455.6163695955337
 30
0.0
 10
839.5855120515905
 20
454.9943502463931
 30
0.0
 10
839.8538938992049
 20
453.7725429005768
 30
0.0
 10
840.0551263062667
 20
453.1668406061954
 30
0.0
 10
840.5686202616965
 20
452.0243266913732
 30
0.0
 10
840.8812762435628
 20
451.483465662012
 30
0.0
 10
841.4298522614296
 20
450.7154280349947
 30
0.0
 10
841.6266589428727
 20
450.4663173419945
 30
0.0
 10
842.038637372896
 20
449.9927231092946
 30
0.0
 10
842.2546982247436
 20
449.7668763368885
 30
0.0
 10
842.9321712476236
 20
449.1211737526199
 30
0.0
 10
843.4227355183608
 20
448.7329777100258
 30
0.0
 10
844.4823840054148
 20
448.0420049284037
 30
0.0
 10
845.0345410159767
 20
447.748020378611
 30
0.0
 10
846.1780342759092
 20
447.2503929014956
 30
0.0
 10
846.7694034263463
 20
447.0468291204506
 30
0.0
 10
847.9890191688866
 20
446.7244865241616
 30
0.0
 10
848.6095098543636
 20
446.6071903887069
 30
0.0
 10
849.2355780346827
 20
446.5352019049198
 30
0.0
  0
SPLINE
  5
144
330
1F
100
AcDbEntity
  8
0
  6
Continuous
 62
     7
370
    15
100
AcDbSpline
210
0.0
220
0.0
230
1.0
 70
     8
 71
     3
 72
    44
 73
    40
 74
     0
 42
0.00000001
 43
0.00000001
 40
0.0
 40
0.0
 40
0.0
 40
0.0
 40
0.0625000000000005
 40
0.0625000000000005
 40
0.1250000000000011
 40
0.1250000000000011
 40
0.1875000000000016
 40
0.1875000000000016
 40
0.2500000000000022
 40
0.2500000000000022
 40
0.2812500000000019
 40
0.2812500000000019
 40
0.3125000000000016
 40
0.3125000000000016
 40
0.3750000000000011
 40
0.3750000000000011
 40
0.4375000000000006
 40
0.4375000000000006
 40
0.5
 40
0.5
 40
0.5624999999999996
 40
0.5624999999999996
 40
0.5937499999999994
 40
0.5937499999999994
 40
0.6249999999999994
 40
0.6249999999999994
 40
0.6874999999999987
 40
0.6874999999999987
 40
0.7187499999999987
 40
0.7187499999999987
 40
0.7499999999999987
 40
0.7499999999999987
 40
0.8124999999999987
 40
0.8124999999999987
 40
0.8749999999999987
 40
0.8749999999999987
 40
0.9374999999999987
 40
0.9374999999999987
 40
1.0
 40
1.0
 40
1.0
 40
1.0
 10
594.3355780346828
 20
446.5352019049198
 30
0.0
 10
594.9612320375982
 20
446.6071427647495
 30
0.0
 10
595.5821368645722
 20
446.7244865164217
 30
0.0
 10
596.8017526116802
 20
447.0468291104177
 30
0.0
 10
597.3931217643122
 20
447.2503928905174
 30
0.0
 10
598.5366150284909
 20
447.7480203660712
 30
0.0
 10
599.0887720411018
 20
448.042004915253
 30
0.0
 10
600.1484205321202
 20
448.7329776959631
 30
0.0
 10
600.6389848055032
 20
449.1211737388205
 30
0.0
 10
601.3164578313955
 20
449.7668763234435
 30
0.0
 10
601.5325186841994
 20
449.9927230960196
 30
0.0
 10
601.9444971160468
 20
450.4663173291556
 30
0.0
 10
602.1413037983903
 20
450.7154280224525
 30
0.0
 10
602.6898798189671
 20
451.4834656507962
 30
0.0
 10
603.0025358023619
 20
452.0243266811927
 30
0.0
 10
603.5160297603156
 20
453.1668405983752
 30
0.0
 10
603.7172621684123
 20
453.7725428942175
 30
0.0
 10
603.985644017409
 20
454.9943502431255
 30
0.0
 10
604.0564685708113
 20
455.6163695938679
 30
0.0
 10
604.0548802884633
 20
456.8839163810389
 30
0.0
 10
603.9826170253324
 20
457.5063887372733
 30
0.0
 10
603.7783558861352
 20
458.4249453578471
 30
0.0
 10
603.693643696829
 20
458.7297985912256
 30
0.0
 10
603.4932718022146
 20
459.3286898088626
 30
0.0
 10
603.3785755783998
 20
459.620312043729
 30
0.0
 10
602.9929381499372
 20
460.472800839747
 30
0.0
 10
602.68031027848
 20
461.0112216714039
 30
0.0
 10
602.1320481328221
 20
461.776157957919
 30
0.0
 10
601.9347162387143
 20
462.0251912779108
 30
0.0
 10
601.521880866573
 20
462.4982790509333
 30
0.0
 10
601.3058667875464
 20
462.7233271405215
 30
0.0
 10
600.6302804072958
 20
463.3654781850948
 30
0.0
 10
600.1433022900342
 20
463.7497539217623
 30
0.0
 10
599.0973523368568
 20
464.4320806107783
 30
0.0
 10
598.536088669117
 20
464.7319087930733
 30
0.0
 10
597.3885017701824
 20
465.2309919637815
 30
0.0
 10
596.797606777226
 20
465.4338506279222
 30
0.0
 10
595.5844878273908
 20
465.7543832028621
 30
0.0
 10
594.9612320381417
 20
465.8723948120084
 30
0.0
 10
594.3355780346828
 20
465.9443356673372
 30
0.0
  0
LINE
  5
145
330
1F
100
AcDbEntity
  8
0
  6
Continuous
 62
     7
370
    15
100
AcDbLine
 10
931.2355845197
 20
456.2397687861
 30
0.0
 11
941.2355749829
 21
456.2397687861
 31
0.0
  0
LINE
  5
146
330
1F
100
AcDbEntity
  8
0
  6
Continuous
 62
     7
370
    15
100
AcDbLine
 10
931.2355845197
 20
686.2397729585
 30
0.0
 11
931.2355845197
 21
456.2397687861
 31
0.0
  0
LINE
  5
147
330
1F
100
AcDbEntity
  8
0
  6
Continuous
 62
     7
370
    15
100
AcDbLine
 10
941.2355749829
 20
686.2397729585
 30
0.0
 11
941.2355749829
 21
456.2397687861
 31
0.0
  0
LINE
  5
148
330
1F
100
AcDbEntity
  8
0
  6
Continuous
 62
     7
370
    15
100
AcDbLine
 10
931.2355845197
 20
456.2397687861
 30
0.0
 11
931.2355845197
 21
443.7397685999
 31
0.0
  0
LINE
  5
149
330
1F
100
AcDbEntity
  8
0
  6
Continuous
 62
     7
370
    15
100
AcDbLine
 10
941.2355749829
 20
456.2397687861
 30
0.0
 11
941.2355749829
 21
443.7397685999
 31
0.0
  0
SPLINE
  5
14A
330
1F
100
AcDbEntity
  8
0
  6
Continuous
 62
     7
370
    15
100
AcDbSpline
210
0.0
220
0.0
230
1.0
 70
     8
 71
     3
 72
    18
 73
    14
 74
     0
 42
0.00000001
 43
0.00000001
 40
0.0
 40
0.0
 40
0.0
 40
0.0
 40
0.2499999999999999
 40
0.2499999999999999
 40
0.4999999999999998
 40
0.4999999999999998
 40
0.7499999999999997
 40
0.7499999999999997
 40
0.8749999999999998
 40
0.8749999999999998
 40
0.9374999999999999
 40
0.9374999999999999
 40
1.0
 40
1.0
 40
1.0
 40
1.0
 10
849.2337089705601
 20
446.5210789516518
 30
0.0
 10
849.2025973172276
 20
446.0500238947831
 30
0.0
 10
849.1676907699839
 20
445.5233827972191
 30
0.0
 10
849.0903660860234
 20
444.3633137964729
 30
0.0
 10
849.0474253244873
 20
443.7221727008491
 30
0.0
 10
848.9574981213029
 20
442.3883333614522
 30
0.0
 10
848.9102177277761
 20
441.6911391814188
 30
0.0
 10
848.8355669745314
 20
440.5984572828574
 30
0.0
 10
848.8103374049023
 20
440.2304626126257
 30
0.0
 10
848.7721885283659
 20
439.6761055443213
 30
0.0
 10
848.7594096192919
 20
439.4907520835914
 30
0.0
 10
848.7337244690912
 20
439.1189047744559
 30
0.0
 10
848.7206791211936
 20
438.9304397773889
 30
0.0
 10
848.7079014987087
 20
438.7461270840706
 30
0.0
  0
SPLINE
  5
14B
330
1F
100
AcDbEntity
  8
0
  6
Continuous
 62
     7
370
    15
100
AcDbSpline
210
0.0
220
0.0
230
1.0
 70
     8
 71
     3
 72
    58
 73
    54
 74
     0
 42
0.00000001
 43
0.00000001
 40
0.0
 40
0.0
 40
0.0
 40
0.0
 40
0.0156250000000012
 40
0.0156250000000012
 40
0.0312500000000023
 40
0.0312500000000023
 40
0.0625000000000024
 40
0.0625000000000024
 40
0.1250000000000034
 40
0.1250000000000034
 40
0.1562500000000035
 40
0.1562500000000035
 40
0.1875000000000036
 40
0.1875000000000036
 40
0.2500000000000032
 40
0.2500000000000032
 40
0.2812500000000028
 40
0.2812500000000028
 40
0.3125000000000023
 40
0.3125000000000023
 40
0.3750000000000018
 40
0.3750000000000018
 40
0.4062500000000017
 40
0.4062500000000017
 40
0.4375000000000016
 40
0.4375000000000016
 40
0.5000000000000011
 40
0.5000000000000011
 40
0.5625000000000008
 40
0.5625000000000008
 40
0.5937500000000007
 40
0.5937500000000007
 40
0.6250000000000006
 40
0.6250000000000006
 40
0.6875000000000003
 40
0.6875000000000003
 40
0.7187500000000002
 40
0.7187500000000002
 40
0.7500000000000001
 40
0.7500000000000001
 40
0.8125
 40
0.8125
 40
0.8437499999999999
 40
0.8437499999999999
 40
0.8749999999999998
 40
0.8749999999999998
 40
0.9375000000000003
 40
0.9375000000000003
 40
0.9687500000000006
 40
0.9687500000000006
 40
0.9843750000000002
 40
0.9843750000000002
 40
1.0
 40
1.0
 40
1.0
 40
1.0
 10
848.7079014987087
 20
438.7461270840702
 30
0.0
 10
848.4310882708372
 20
438.7847002176256
 30
0.0
 10
848.1535583922118
 20
438.8194328362965
 30
0.0
 10
847.6010966487516
 20
438.9021947113718
 30
0.0
 10
847.3259948971071
 20
438.9492661159114
 30
0.0
 10
846.5040063279745
 20
439.1071955499555
 30
0.0
 10
845.9604235337314
 20
439.2347049839386
 30
0.0
 10
844.3428777294782
 20
439.6837707942874
 30
0.0
 10
843.3000363789291
 20
440.0664395158661
 30
0.0
 10
841.7937617911888
 20
440.7636278084822
 30
0.0
 10
841.301137356388
 20
441.0167826484037
 30
0.0
 10
840.3355703944507
 20
441.5662493552683
 30
0.0
 10
839.8607649206492
 20
441.8638857673376
 30
0.0
 10
838.4817179246186
 20
442.8158952853559
 30
0.0
 10
837.6288113177407
 20
443.5233402086627
 30
0.0
 10
836.45051223981
 20
444.6951697201735
 30
0.0
 10
836.0746823082727
 20
445.1043250320772
 30
0.0
 10
835.3584527500917
 20
445.9614320203236
 30
0.0
 10
835.019203246319
 20
446.4084843831725
 30
0.0
 10
834.0759409484021
 20
447.7823536610582
 30
0.0
 10
833.5389466152374
 20
448.7497548084246
 30
0.0
 10
832.8768081361571
 20
450.2812182909519
 30
0.0
 10
832.6792733105167
 20
450.8081982780321
 30
0.0
 10
832.3411051076183
 20
451.8706905745783
 30
0.0
 10
832.1997993959385
 20
452.4068516397719
 30
0.0
 10
831.8586419018876
 20
454.0299777560993
 30
0.0
 10
831.7405144626047
 20
455.1317446963159
 30
0.0
 10
831.7425377788146
 20
457.3760649542452
 30
0.0
 10
831.8625589252317
 20
458.4787771882426
 30
0.0
 10
832.2079268980453
 20
460.1058271717789
 30
0.0
 10
832.3508605022016
 20
460.6436324499394
 30
0.0
 10
832.6930030297079
 20
461.7100467941567
 30
0.0
 10
832.8904912496172
 20
462.2327379404175
 30
0.0
 10
833.5529280105262
 20
463.7563101175049
 30
0.0
 10
834.0894709122863
 20
464.7193811369658
 30
0.0
 10
835.0316022932036
 20
466.0878287146448
 30
0.0
 10
835.3697146193086
 20
466.5325021150894
 30
0.0
 10
836.0880950536078
 20
467.390311759727
 30
0.0
 10
836.4642928327677
 20
467.7988564909247
 30
0.0
 10
837.6410827950372
 20
468.966793545336
 30
0.0
 10
838.4895260226309
 20
469.6689024304323
 30
0.0
 10
839.8545894766893
 20
470.6114535390979
 30
0.0
 10
840.325119835329
 20
470.9070708611385
 30
0.0
 10
841.2974212355596
 20
471.4609066616234
 30
0.0
 10
841.7935342596757
 20
471.715858398284
 30
0.0
 10
843.3053195816315
 20
472.4154352621286
 30
0.0
 10
844.3463960948317
 20
472.7966659573184
 30
0.0
 10
845.9566530553424
 20
473.2438245466725
 30
0.0
 10
846.5025921217203
 20
473.3720498942511
 30
0.0
 10
847.3256175109584
 20
473.5302091362682
 30
0.0
 10
847.6009415862272
 20
473.5773187614202
 30
0.0
 10
848.1535905971843
 20
473.6601104304809
 30
0.0
 10
848.4310828963556
 20
473.6948366057131
 30
0.0
 10
848.7079014987086
 20
473.7334104881872
 30
0.0
  0
SPLINE
  5
14C
330
1F
100
AcDbEntity
  8
0
  6
Continuous
 62
     7
370
    15
100
AcDbSpline
210
0.0
220
0.0
230
1.0
 70
     8
 71
     3
 72
    18
 73
    14
 74
     0
 42
0.00000001
 43
0.00000001
 40
0.0
 40
0.0
 40
0.0
 40
0.0
 40
0.2499999999999996
 40
0.2499999999999996
 40
0.4999999999999991
 40
0.4999999999999991
 40
0.7499999999999987
 40
0.7499999999999987
 40
0.874999999999999
 40
0.874999999999999
 40
0.9374999999999994
 40
0.9374999999999994
 40
1.0
 40
1.0
 40
1.0
 40
1.0
 10
849.23370897056
 20
465.9584586206057
 30
0.0
 10
849.2025972188842
 20
466.4295151664713
 30
0.0
 10
849.167690688919
 20
466.956155983745
 30
0.0
 10
849.0903664574964
 20
468.1162182102043
 30
0.0
 10
849.0474255535412
 20
468.7573614699384
 30
0.0
 10
848.9574980244907
 20
470.0912056507949
 30
0.0
 10
848.9102180259752
 20
470.7883939245213
 30
0.0
 10
848.8355690244578
 20
471.8810503348889
 30
0.0
 10
848.8103382104657
 20
472.2490632352375
 30
0.0
 10
848.7721889020507
 20
472.8034266072683
 30
0.0
 10
848.7594098751799
 20
472.9887817811172
 30
0.0
 10
848.7337245436128
 20
473.3606317219346
 30
0.0
 10
848.720679076104
 20
473.5490984419759
 30
0.0
 10
848.7079014987088
 20
473.7334104881874
 30
0.0
  0
SPLINE
  5
14D
330
1F
100
AcDbEntity
  8
0
  6
Continuous
 62
     7
370
    15
100
AcDbSpline
210
0.0
220
0.0
230
1.0
 70
     8
 71
     3
 72
    18
 73
    14
 74
     0
 42
0.00000001
 43
0.00000001
 40
0.0
 40
0.0
 40
0.0
 40
0.0
 40
0.2500000000000001
 40
0.2500000000000001
 40
0.5000000000000002
 40
0.5000000000000002
 40
0.7500000000000003
 40
0.7500000000000003
 40
0.8750000000000001
 40
0.8750000000000001
 40
0.9375000000000001
 40
0.9375000000000001
 40
1.0
 40
1.0
 40
1.0
 40
1.0
 10
594.3374470988057
 20
465.9584586206057
 30
0.0
 10
594.3685587521381
 20
466.4295136774744
 30
0.0
 10
594.4034652993818
 20
466.9561547750383
 30
0.0
 10
594.4807899833423
 20
468.1162237757846
 30
0.0
 10
594.5237307448779
 20
468.7573648714085
 30
0.0
 10
594.613657948062
 20
470.0912042108055
 30
0.0
 10
594.6609383415891
 20
470.7883983908389
 30
0.0
 10
594.7355890948338
 20
471.8810802894004
 30
0.0
 10
594.7608186644537
 20
472.2490749596328
 30
0.0
 10
594.798967540987
 20
472.8034320279373
 30
0.0
 10
594.8117464500738
 20
472.9887854886664
 30
0.0
 10
594.8374316002747
 20
473.3606327978018
 30
0.0
 10
594.850476948274
 20
473.5490977948619
 30
0.0
 10
594.8632545706569
 20
473.7334104881872
 30
0.0
  0
SPLINE
  5
14E
330
1F
100
AcDbEntity
  8
0
  6
Continuous
 62
     7
370
    15
100
AcDbSpline
210
0.0
220
0.0
230
1.0
 70
     8
 71
     3
 72
    58
 73
    54
 74
     0
 42
0.00000001
 43
0.00000001
 40
0.0
 40
0.0
 40
0.0
 40
0.0
 40
0.0156250000000002
 40
0.0156250000000002
 40
0.0312500000000004
 40
0.0312500000000004
 40
0.0625000000000002
 40
0.0625000000000002
 40
0.1250000000000003
 40
0.1250000000000003
 40
0.1562500000000004
 40
0.1562500000000004
 40
0.1875000000000005
 40
0.1875000000000005
 40
0.2500000000000008
 40
0.2500000000000008
 40
0.2812500000000006
 40
0.2812500000000006
 40
0.3125000000000004
 40
0.3125000000000004
 40
0.3750000000000001
 40
0.3750000000000001
 40
0.40625
 40
0.40625
 40
0.4374999999999999
 40
0.4374999999999999
 40
0.5
 40
0.5
 40
0.5625
 40
0.5625
 40
0.59375
 40
0.59375
 40
0.625
 40
0.625
 40
0.6875000000000001
 40
0.6875000000000001
 40
0.7187499999999999
 40
0.7187499999999999
 40
0.7499999999999997
 40
0.7499999999999997
 40
0.8124999999999992
 40
0.8124999999999992
 40
0.843749999999999
 40
0.843749999999999
 40
0.8749999999999988
 40
0.8749999999999988
 40
0.9374999999999991
 40
0.9374999999999991
 40
0.9687499999999992
 40
0.9687499999999992
 40
0.9843749999999997
 40
0.9843749999999997
 40
1.0
 40
1.0
 40
1.0
 40
1.0
 10
594.8632545706569
 20
473.7334104881872
 30
0.0
 10
595.1400759472427
 20
473.6948362191317
 30
0.0
 10
595.4175710308213
 20
473.6601097154268
 30
0.0
 10
595.9702255401841
 20
473.5773169872952
 30
0.0
 10
596.245552344886
 20
473.5302067196963
 30
0.0
 10
597.0685858640752
 20
473.3720452170913
 30
0.0
 10
597.614530238771
 20
473.2438179198347
 30
0.0
 10
599.2248023514724
 20
472.7966523227964
 30
0.0
 10
600.2658883353396
 20
472.4154153388695
 30
0.0
 10
601.7776867910842
 20
471.7158262934581
 30
0.0
 10
602.2738046115066
 20
471.4608696854406
 30
0.0
 10
603.2461126198872
 20
470.9070245802035
 30
0.0
 10
603.7166459816302
 20
470.6114022454885
 30
0.0
 10
605.0817175164731
 20
469.6688349872448
 30
0.0
 10
605.9301649264256
 20
468.966713893438
 30
0.0
 10
607.1069589333474
 20
467.7987558577215
 30
0.0
 10
607.4831576850719
 20
467.3902036830548
 30
0.0
 10
608.2015391663136
 20
466.5323780762427
 30
0.0
 10
608.5396496661022
 20
466.0876987038306
 30
0.0
 10
609.4817766319244
 20
464.7192297263991
 30
0.0
 10
610.0183147985363
 20
463.7561434466951
 30
0.0
 10
610.6807409474246
 20
462.232546432914
 30
0.0
 10
610.8782255392082
 20
461.7098449340117
 30
0.0
 10
611.2203567917992
 20
460.6434174995348
 30
0.0
 10
611.3632842986383
 20
460.1056056010968
 30
0.0
 10
611.7086322559617
 20
458.4785354750776
 30
0.0
 10
611.8286378332806
 20
457.3758094490902
 30
0.0
 10
611.8306225460432
 20
455.131460387251
 30
0.0
 10
611.7124748615346
 20
454.0296922685874
 30
0.0
 10
611.3712840086142
 20
452.4065551828929
 30
0.0
 10
611.2299666724057
 20
451.8703905505781
 30
0.0
 10
610.8917738651996
 20
450.8078913595781
 30
0.0
 10
610.6942270762423
 20
450.2809110366507
 30
0.0
 10
610.0320530084438
 20
448.7494484366222
 30
0.0
 10
609.4950338408433
 20
447.7820484990676
 30
0.0
 10
608.5517315015389
 20
446.4081825997867
 30
0.0
 10
608.2124674537017
 20
445.9611310054003
 30
0.0
 10
607.4962143430836
 20
445.1040333575183
 30
0.0
 10
607.120372520914
 20
444.6948828410806
 30
0.0
 10
605.9420371315448
 20
443.5230684162689
 30
0.0
 10
605.089105471359
 20
442.8156344767876
 30
0.0
 10
603.710018477137
 20
441.8636440824814
 30
0.0
 10
603.2352039396488
 20
441.5660173898755
 30
0.0
 10
602.2696166262372
 20
441.0165685830603
 30
0.0
 10
601.7769819546177
 20
440.7634228270977
 30
0.0
 10
600.2706762963272
 20
440.0662625759484
 30
0.0
 10
599.2277993300399
 20
439.6836095869212
 30
0.0
 10
597.6102431219266
 20
439.2345832335356
 30
0.0
 10
597.066698367204
 20
439.1070984105933
 30
0.0
 10
596.2448321875854
 20
438.9492081212605
 30
0.0
 10
595.969782150714
 20
438.9021501443597
 30
0.0
 10
595.4174466599641
 20
438.8194132458456
 30
0.0
 10
595.1399740232691
 20
438.7846871503108
 30
0.0
 10
594.8632545706569
 20
438.7461270840702
 30
0.0
  0
SPLINE
  5
14F
330
1F
100
AcDbEntity
  8
0
  6
Continuous
 62
     7
370
    15
100
AcDbSpline
210
0.0
220
0.0
230
1.0
 70
     8
 71
     3
 72
    18
 73
    14
 74
     0
 42
0.00000001
 43
0.00000001
 40
0.0
 40
0.0
 40
0.0
 40
0.0
 40
0.2499999999999997
 40
0.2499999999999997
 40
0.4999999999999994
 40
0.4999999999999994
 40
0.7499999999999991
 40
0.7499999999999991
 40
0.8749999999999996
 40
0.8749999999999996
 40
0.9374999999999998
 40
0.9374999999999998
 40
1.0
 40
1.0
 40
1.0
 40
1.0
 10
594.3374470988056
 20
446.5210789516518
 30
0.0
 10
594.3685588504813
 20
446.0500224057861
 30
0.0
 10
594.4034653804464
 20
445.5233815885126
 30
0.0
 10
594.4807896118691
 20
444.3633193620535
 30
0.0
 10
594.5237305158238
 20
443.7221761023195
 30
0.0
 10
594.613658044874
 20
442.3883319214631
 30
0.0
 10
594.6609380433912
 20
441.6911436477369
 30
0.0
 10
594.7355870449089
 20
440.5984872373695
 30
0.0
 10
594.7608178589086
 20
440.2304743370216
 30
0.0
 10
594.7989671673267
 20
439.6761109649917
 30
0.0
 10
594.8117461941836
 20
439.4907557911421
 30
0.0
 10
594.8374315257485
 20
439.1189058503251
 30
0.0
 10
594.8504769930904
 20
438.9304391302703
 30
0.0
 10
594.863254570657
 20
438.7461270840707
 30
0.0
  0
SPLINE
  5
150
330
1F
100
AcDbEntity
  8
0
  6
Continuous
 62
     7
370
    15
100
AcDbSpline
210
0.0
220
0.0
230
1.0
 70
     8
 71
     3
 72
    12
 73
     8
 74
     0
 42
0.00000001
 43
0.00000001
 40
0.0
 40
0.0
 40
0.0
 40
0.0
 40
0.2499999999999992
 40
0.2499999999999992
 40
0.4999999999999984
 40
0.4999999999999984
 40
1.0
 40
1.0
 40
1.0
 40
1.0
 10
572.8406440485628
 20
468.5161338780593
 30
0.0
 10
572.8769352560361
 20
468.9564426714946
 30
0.0
 10
572.9160728777292
 20
469.4073155303138
 30
0.0
 10
572.9999003395435
 20
470.3229490283416
 30
0.0
 10
573.0443162275609
 20
470.7848257690438
 30
0.0
 10
573.185374042142
 20
472.1821167882078
 30
0.0
 10
573.2898041744863
 20
473.1290516940454
 30
0.0
 10
573.4056307578041
 20
474.0917643639549
 30
0.0
  0
LWPOLYLINE
  5
151
330
1F
100
AcDbEntity
  8
0
  6
Continuous
 62
     7
370
    15
100
AcDbPolyline
 90
        9
 70
   128
 43
0.0
 10
573.4056263192
 20
474.0917640904
 10
573.4628616794
 20
474.0848778912
 10
573.6323623879
 20
474.0644856521
 10
573.9076017364
 20
474.0313715467
 10
574.2780148013
 20
473.9868040362
 10
574.7293709739
 20
473.9325004795
 10
575.2443253024
 20
473.8705470392
 10
575.8030741437
 20
473.8033223131
 10
576.3841449244
 20
473.7334097901
  0
SPLINE
  5
152
330
1F
100
AcDbEntity
  8
0
  6
Continuous
 62
     7
370
    15
100
AcDbSpline
210
0.0
220
0.0
230
1.0
 70
     8
 71
     3
 72
    16
 73
    12
 74
     0
 42
0.00000001
 43
0.00000001
 40
0.0
 40
0.0
 40
0.0
 40
0.0
 40
0.2500000000000003
 40
0.2500000000000003
 40
0.3750000000000001
 40
0.3750000000000001
 40
0.5
 40
0.5
 40
0.75
 40
0.75
 40
1.0
 40
1.0
 40
1.0
 40
1.0
 10
576.3841509440246
 20
473.7334104881872
 30
0.0
 10
576.2679180416854
 20
472.9902644414986
 30
0.0
 10
576.1633808055099
 20
472.2594865546382
 30
0.0
 10
576.0225569706006
 20
471.1815307091217
 30
0.0
 10
575.9782852611628
 20
470.8252769822052
 30
0.0
 10
575.8948725657006
 20
470.1192179082458
 30
0.0
 10
575.8563753215212
 20
469.7748201064176
 30
0.0
 10
575.7500499991204
 20
468.7727191260443
 30
0.0
 10
575.6910314940801
 20
468.1430843622502
 30
0.0
 10
575.5918353436086
 20
466.9642792634927
 30
0.0
 10
575.5529924181395
 20
466.4311878156564
 30
0.0
 10
575.5219582024779
 20
465.9584586206057
 30
0.0
  0
LINE
  5
153
330
1F
100
AcDbEntity
  8
0
  6
Continuous
 62
     7
370
    15
100
AcDbLine
 10
576.3841449244
 20
473.7334097901
 30
0.0
 11
594.8632537349
 21
473.7334097901
 31
0.0
  0
SPLINE
  5
154
330
1F
100
AcDbEntity
  8
0
  6
Continuous
 62
     7
370
    15
100
AcDbSpline
210
0.0
220
0.0
230
1.0
 70
     8
 71
     3
 72
    16
 73
    12
 74
     0
 42
0.00000001
 43
0.00000001
 40
0.0
 40
0.0
 40
0.0
 40
0.0
 40
0.2500000000000003
 40
0.2500000000000003
 40
0.3750000000000005
 40
0.3750000000000005
 40
0.5000000000000007
 40
0.5000000000000007
 40
0.7500000000000003
 40
0.7500000000000003
 40
1.0
 40
1.0
 40
1.0
 40
1.0
 10
867.1870051253411
 20
438.7461270840702
 30
0.0
 10
867.3032380276802
 20
439.4892731307589
 30
0.0
 10
867.4077752638557
 20
440.2200510176192
 30
0.0
 10
867.5485990987652
 20
441.2980068631357
 30
0.0
 10
867.5928708082027
 20
441.6542605900522
 30
0.0
 10
867.6762835036649
 20
442.3603196640117
 30
0.0
 10
867.7147807478443
 20
442.7047174658398
 30
0.0
 10
867.8211060702452
 20
443.7068184462131
 30
0.0
 10
867.8801245752855
 20
444.3364532100073
 30
0.0
 10
867.9793207257569
 20
445.5152583087647
 30
0.0
 10
868.018163651226
 20
446.0483497566011
 30
0.0
 10
868.0491978668877
 20
446.5210789516518
 30
0.0
  0
LINE
  5
155
330
1F
100
AcDbEntity
  8
0
  6
Continuous
 62
     7
370
    15
100
AcDbLine
 10
867.1870111449
 20
438.7461277822
 30
0.0
 11
848.7079023345
 21
438.7461277822
 31
0.0
  0
SPLINE
  5
156
330
1F
100
AcDbEntity
  8
0
  6
Continuous
 62
     7
370
    15
100
AcDbSpline
210
0.0
220
0.0
230
1.0
 70
     8
 71
     3
 72
    12
 73
     8
 74
     0
 42
0.00000001
 43
0.00000001
 40
0.0
 40
0.0
 40
0.0
 40
0.0
 40
0.2499999999999997
 40
0.2499999999999997
 40
0.4999999999999993
 40
0.4999999999999993
 40
1.0
 40
1.0
 40
1.0
 40
1.0
 10
870.7305120208027
 20
443.9634036941981
 30
0.0
 10
870.6942208133294
 20
443.5230949007629
 30
0.0
 10
870.6550831916364
 20
443.0722220419437
 30
0.0
 10
870.571255729822
 20
442.1565885439158
 30
0.0
 10
870.5268398418048
 20
441.6947118032136
 30
0.0
 10
870.3857820272236
 20
440.2974207840496
 30
0.0
 10
870.2813518948791
 20
439.3504858782121
 30
0.0
 10
870.1655253115614
 20
438.3877732083026
 30
0.0
  0
LWPOLYLINE
  5
157
330
1F
100
AcDbEntity
  8
0
  6
Continuous
 62
     7
370
    15
100
AcDbPolyline
 90
        9
 70
   128
 43
0.0
 10
870.1655297502
 20
438.3877734819
 10
870.10829439
 20
438.394659681
 10
869.9387936814
 20
438.4150519201
 10
869.663554333
 20
438.4481660256
 10
869.2931412681
 20
438.4927335361
 10
868.8417850955
 20
438.5470370927
 10
868.326830767
 20
438.6089905331
 10
867.7680819257
 20
438.6762152591
 10
867.1870111449
 20
438.7461277822
  0
SPLINE
  5
158
330
1F
100
AcDbEntity
  8
0
  6
Continuous
 62
     7
370
    15
100
AcDbSpline
210
0.0
220
0.0
230
1.0
 70
     8
 71
     3
 72
    12
 73
     8
 74
     0
 42
0.00000001
 43
0.00000001
 40
0.0
 40
0.0
 40
0.0
 40
0.0
 40
0.5000000000000007
 40
0.5000000000000007
 40
0.7500000000000003
 40
0.7500000000000003
 40
1.0
 40
1.0
 40
1.0
 40
1.0
 10
573.4056307578041
 20
438.3877732083026
 30
0.0
 10
573.289813712831
 20
439.3504065986118
 30
0.0
 10
573.1853826673583
 20
440.2973367889679
 30
0.0
 10
573.0443154041577
 20
441.6947192374014
 30
0.0
 10
572.9998949849944
 20
442.1566430380447
 30
0.0
 10
572.9160566553529
 20
443.0724032300294
 30
0.0
 10
572.8769322026435
 20
443.5231319465319
 30
0.0
 10
572.8406440485628
 20
443.9634036941981
 30
0.0
  0
SPLINE
  5
159
330
1F
100
AcDbEntity
  8
0
  6
Continuous
 62
     7
370
    15
100
AcDbSpline
210
0.0
220
0.0
230
1.0
 70
     8
 71
     3
 72
    16
 73
    12
 74
     0
 42
0.00000001
 43
0.00000001
 40
0.0
 40
0.0
 40
0.0
 40
0.0
 40
0.2499999999999994
 40
0.2499999999999994
 40
0.4999999999999988
 40
0.4999999999999988
 40
0.6249999999999989
 40
0.6249999999999989
 40
0.749999999999999
 40
0.749999999999999
 40
1.0
 40
1.0
 40
1.0
 40
1.0
 10
575.5219582024779
 20
446.5210789516518
 30
0.0
 10
575.552992699606
 20
446.04834546916
 30
0.0
 10
575.5918430214662
 20
445.515162672022
 30
0.0
 10
575.6910329142036
 20
444.3364407305956
 30
0.0
 10
575.750044367191
 20
443.706885981334
 30
0.0
 10
575.8563467878574
 20
442.704979167247
 30
0.0
 10
575.8948162959905
 20
442.3608101532048
 30
0.0
 10
575.9782456036819
 20
441.6545821070306
 30
0.0
 10
576.0225251512377
 20
441.2982565835264
 30
0.0
 10
576.1633696171174
 20
440.2201243564388
 30
0.0
 10
576.2679169089567
 20
439.4892803729667
 30
0.0
 10
576.3841509440247
 20
438.7461270840702
 30
0.0
  0
LWPOLYLINE
  5
15A
330
1F
100
AcDbEntity
  8
0
  6
Continuous
 62
     7
370
    15
100
AcDbPolyline
 90
        9
 70
   128
 43
0.0
 10
573.4056263192
 20
438.3877734819
 10
573.4628616794
 20
438.394659681
 10
573.6323623879
 20
438.4150519201
 10
573.9076017364
 20
438.4481660256
 10
574.2780148013
 20
438.4927335361
 10
574.7293709739
 20
438.5470370927
 10
575.2443253024
 20
438.6089905331
 10
575.8030741437
 20
438.6762152591
 10
576.3841449244
 20
438.7461277822
  0
LINE
  5
15B
330
1F
100
AcDbEntity
  8
0
  6
Continuous
 62
     7
370
    15
100
AcDbLine
 10
594.8632537349
 20
438.7461277822
 30
0.0
 11
576.3841449244
 21
438.7461277822
 31
0.0
  0
LINE
  5
15C
330
1F
100
AcDbEntity
  8
0
  6
Continuous
 62
     7
370
    15
100
AcDbLine
 10
848.7079023345
 20
473.7334097901
 30
0.0
 11
867.1870111449
 21
473.7334097901
 31
0.0
  0
SPLINE
  5
15D
330
1F
100
AcDbEntity
  8
0
  6
Continuous
 62
     7
370
    15
100
AcDbSpline
210
0.0
220
0.0
230
1.0
 70
     8
 71
     3
 72
    16
 73
    12
 74
     0
 42
0.00000001
 43
0.00000001
 40
0.0
 40
0.0
 40
0.0
 40
0.0
 40
0.2500000000000006
 40
0.2500000000000006
 40
0.5000000000000011
 40
0.5000000000000011
 40
0.6250000000000008
 40
0.6250000000000008
 40
0.7500000000000006
 40
0.7500000000000006
 40
1.0
 40
1.0
 40
1.0
 40
1.0
 10
868.0491978668878
 20
465.9584586206057
 30
0.0
 10
868.0181633697597
 20
466.4311921030974
 30
0.0
 10
867.9793130478994
 20
466.9643749002355
 30
0.0
 10
867.8801231551621
 20
468.1430968416619
 30
0.0
 10
867.8211117021746
 20
468.7726515909234
 30
0.0
 10
867.7148092815081
 20
469.7745584050105
 30
0.0
 10
867.6763397733752
 20
470.1187274190526
 30
0.0
 10
867.5929104656838
 20
470.8249554652269
 30
0.0
 10
867.548630918128
 20
471.1812809887311
 30
0.0
 10
867.4077864522484
 20
472.2594132158187
 30
0.0
 10
867.3032391604089
 20
472.9902571992907
 30
0.0
 10
867.187005125341
 20
473.7334104881872
 30
0.0
  0
SPLINE
  5
15E
330
1F
100
AcDbEntity
  8
0
  6
Continuous
 62
     7
370
    15
100
AcDbSpline
210
0.0
220
0.0
230
1.0
 70
     8
 71
     3
 72
    12
 73
     8
 74
     0
 42
0.00000001
 43
0.00000001
 40
0.0
 40
0.0
 40
0.0
 40
0.0
 40
0.5000000000000002
 40
0.5000000000000002
 40
0.7500000000000001
 40
0.7500000000000001
 40
1.0
 40
1.0
 40
1.0
 40
1.0
 10
870.1655253115614
 20
474.0917643639549
 30
0.0
 10
870.2813423565345
 20
473.1291309736457
 30
0.0
 10
870.3857734020073
 20
472.1822007832896
 30
0.0
 10
870.5268406652079
 20
470.784818334856
 30
0.0
 10
870.5712610843713
 20
470.3228945342128
 30
0.0
 10
870.6550994140126
 20
469.4071343422281
 30
0.0
 10
870.6942238667222
 20
468.9564056257256
 30
0.0
 10
870.7305120208027
 20
468.5161338780593
 30
0.0
  0
LWPOLYLINE
  5
15F
330
1F
100
AcDbEntity
  8
0
  6
Continuous
 62
     7
370
    15
100
AcDbPolyline
 90
        9
 70
   128
 43
0.0
 10
870.1655297502
 20
474.0917640904
 10
870.10829439
 20
474.0848778912
 10
869.9387936814
 20
474.0644856521
 10
869.663554333
 20
474.0313715467
 10
869.2931412681
 20
473.9868040362
 10
868.8417850955
 20
473.9325004795
 10
868.326830767
 20
473.8705470392
 10
867.7680819257
 20
473.8033223131
 10
867.1870111449
 20
473.7334097901
  0
ARC
  5
160
330
1F
100
AcDbEntity
  8
0
  6
Continuous
 62
     7
370
    15
100
AcDbCircle
 10
721.7855780347
 20
456.2397687861
 30
0.0
 40
149.45
100
AcDbArc
 50
186.8604361457
 51
353.1395638543
  0
ARC
  5
161
330
1F
100
AcDbEntity
  8
0
  6
Continuous
 62
     7
370
    15
100
AcDbCircle
 10
721.7855780347
 20
456.2397687861
 30
0.0
 40
146.4500000000001
100
AcDbArc
 50
186.8604361457
 51
353.1395638543
  0
ARC
  5
162
330
1F
100
AcDbEntity
  8
0
  6
Continuous
 62
     7
370
    15
100
AcDbCircle
 10
721.7855780347
 20
456.2397687861
 30
0.0
 40
149.45
100
AcDbArc
 50
6.8604361457
 51
173.1395638543
  0
ARC
  5
163
330
1F
100
AcDbEntity
  8
0
  6
Continuous
 62
     7
370
    15
100
AcDbCircle
 10
721.7855780347
 20
456.2397687861
 30
0.0
 40
146.4500000000001
100
AcDbArc
 50
6.8604361457
 51
173.1395638543
  0
LINE
  5
164
330
1F
100
AcDbEntity
  8
0
  6
Continuous
 62
     7
370
    15
100
AcDbLine
 10
912.7355842812
 20
510.2397701868
 30
0.0
 11
920.7355706914
 21
510.2397701868
 31
0.0
  0
LINE
  5
165
330
1F
100
AcDbEntity
  8
0
  6
Continuous
 62
     7
370
    15
100
AcDbLine
 10
918.7355815394
 20
508.239769859
 30
0.0
 11
914.7355734332
 21
508.239769859
 31
0.0
  0
CIRCLE
  5
166
330
1F
100
AcDbEntity
  8
0
  6
Continuous
 62
     7
370
    15
100
AcDbCircle
 10
888.0838938867
 20
525.1227866118
 30
0.0
 40
5.500000000000114
  0
CIRCLE
  5
167
330
1F
100
AcDbEntity
  8
0
  6
Continuous
 62
     7
370
    15
100
AcDbCircle
 10
888.0838938867
 20
387.3567509604
 30
0.0
 40
5.499999999999964
  0
CIRCLE
  5
168
330
1F
100
AcDbEntity
  8
0
  6
Continuous
 62
     7
370
    15
100
AcDbCircle
 10
790.6685958604
 20
289.9414529341
 30
0.0
 40
5.500000000000057
  0
CIRCLE
  5
169
330
1F
100
AcDbEntity
  8
0
  6
Continuous
 62
     7
370
    15
100
AcDbCircle
 10
652.902560209
 20
289.9414529341
 30
0.0
 40
5.499999999999964
  0
CIRCLE
  5
16A
330
1F
100
AcDbEntity
  8
0
  6
Continuous
 62
     7
370
    15
100
AcDbCircle
 10
555.4872621827
 20
387.3567509604
 30
0.0
 40
5.5
  0
CIRCLE
  5
16B
330
1F
100
AcDbEntity
  8
0
  6
Continuous
 62
     7
370
    15
100
AcDbCircle
 10
555.4872621827
 20
525.1227866118
 30
0.0
 40
5.499999999999884
  0
CIRCLE
  5
16C
330
1F
100
AcDbEntity
  8
0
  6
Continuous
 62
     7
370
    15
100
AcDbCircle
 10
652.902560209
 20
622.5380846382
 30
0.0
 40
5.5
  0
CIRCLE
  5
16D
330
1F
100
AcDbEntity
  8
0
  6
Continuous
 62
     7
370
    15
100
AcDbCircle
 10
790.6685958604
 20
622.5380846382
 30
0.0
 40
5.500000000000124
  0
CIRCLE
  5
16E
330
1F
100
AcDbEntity
  8
0
  6
Continuous
 62
     7
370
    15
100
AcDbCircle
 10
721.7855780347
 20
456.2397687861
 30
0.0
 40
150.4999999999991
  0
CIRCLE
  5
16F
330
1F
100
AcDbEntity
  8
0
  6
Continuous
 62
     7
370
    15
100
AcDbCircle
 10
721.7855780347
 20
456.2397687861
 30
0.0
 40
190.0
  0
CIRCLE
  5
170
330
1F
100
AcDbEntity
  8
0
  6
Continuous
 62
     7
370
    15
100
AcDbCircle
 10
721.7855780347
 20
456.2397687861
 30
0.0
 40
150.0
  0
ARC
  5
171
330
1F
100
AcDbEntity
  8
0
  6
Continuous
 62
     7
370
    15
100
AcDbCircle
 10
522.7654785472
 20
496.2397687861
 30
0.0
 40
7.999999999999943
100
AcDbArc
 50
270.0
 51
348.6358272401
  0
ARC
  5
172
330
1F
100
AcDbEntity
  8
0
  6
Continuous
 62
     7
370
    15
100
AcDbCircle
 10
681.7855780347
 20
655.2598682736
 30
0.0
 40
8.0
100
AcDbArc
 50
281.3641727599
 51
0.0
  0
LINE
  5
173
330
1F
100
AcDbEntity
  8
0
  6
Continuous
 62
     7
370
    15
100
AcDbLine
 10
689.7855765148
 20
656.2397717664
 30
0.0
 11
689.7855765148
 21
655.2598714063
 31
0.0
  0
LINE
  5
174
330
1F
100
AcDbEntity
  8
0
  6
Continuous
 62
     7
370
    15
100
AcDbLine
 10
753.7855795546
 20
656.2397717664
 30
0.0
 11
689.7855765148
 21
656.2397717664
 31
0.0
  0
ARC
  5
175
330
1F
100
AcDbEntity
  8
0
  6
Continuous
 62
     7
370
    15
100
AcDbCircle
 10
761.7855780347
 20
655.2598682736
 30
0.0
 40
8.000000000000114
100
AcDbArc
 50
180.0
 51
258.6358272401
  0
ARC
  5
176
330
1F
100
AcDbEntity
  8
0
  6
Continuous
 62
     7
370
    15
100
AcDbCircle
 10
920.8056775221
 20
496.2397687861
 30
0.0
 40
7.999999999999943
100
AcDbArc
 50
191.3641727599
 51
270.0
  0
LINE
  5
177
330
1F
100
AcDbEntity
  8
0
  6
Continuous
 62
     7
370
    15
100
AcDbLine
 10
921.7855810149
 20
488.239770306
 30
0.0
 11
920.8056806548
 21
488.239770306
 31
0.0
  0
LINE
  5
178
330
1F
100
AcDbEntity
  8
0
  6
Continuous
 62
     7
370
    15
100
AcDbLine
 10
920.8056806548
 20
424.2397672662
 30
0.0
 11
921.7855810149
 21
424.2397672662
 31
0.0
  0
ARC
  5
179
330
1F
100
AcDbEntity
  8
0
  6
Continuous
 62
     7
370
    15
100
AcDbCircle
 10
920.8056775221
 20
416.2397687861
 30
0.0
 40
8.000000000000057
100
AcDbArc
 50
90.0
 51
168.6358272401
  0
ARC
  5
17A
330
1F
100
AcDbEntity
  8
0
  6
Continuous
 62
     7
370
    15
100
AcDbCircle
 10
721.7855780347
 20
456.2397687861
 30
0.0
 40
195.0000000000001
100
AcDbArc
 50
281.3641727599
 51
348.6358272401
  0
ARC
  5
17B
330
1F
100
AcDbEntity
  8
0
  6
Continuous
 62
     7
370
    15
100
AcDbCircle
 10
761.7855780347
 20
257.2196692987
 30
0.0
 40
8.000000000000114
100
AcDbArc
 50
101.3641727599
 51
180.0
  0
LINE
  5
17C
330
1F
100
AcDbEntity
  8
0
  6
Continuous
 62
     7
370
    15
100
AcDbLine
 10
753.7855795546
 20
256.2397658059
 30
0.0
 11
753.7855795546
 21
257.219666166
 31
0.0
  0
LINE
  5
17D
330
1F
100
AcDbEntity
  8
0
  6
Continuous
 62
     7
370
    15
100
AcDbLine
 10
689.7855765148
 20
256.2397658059
 30
0.0
 11
753.7855795546
 21
256.2397658059
 31
0.0
  0
LINE
  5
17E
330
1F
100
AcDbEntity
  8
0
  6
Continuous
 62
     7
370
    15
100
AcDbLine
 10
689.7855765148
 20
257.219666166
 30
0.0
 11
689.7855765148
 21
256.2397658059
 31
0.0
  0
ARC
  5
17F
330
1F
100
AcDbEntity
  8
0
  6
Continuous
 62
     7
370
    15
100
AcDbCircle
 10
681.7855780347
 20
257.2196692987
 30
0.0
 40
8.0
100
AcDbArc
 50
0.0
 51
78.6358272401
  0
ARC
  5
180
330
1F
100
AcDbEntity
  8
0
  6
Continuous
 62
     7
370
    15
100
AcDbCircle
 10
721.7855780347
 20
456.2397687861
 30
0.0
 40
195.0000000000001
100
AcDbArc
 50
191.3641727599
 51
258.6358272401
  0
ARC
  5
181
330
1F
100
AcDbEntity
  8
0
  6
Continuous
 62
     7
370
    15
100
AcDbCircle
 10
522.7654785472
 20
416.2397687861
 30
0.0
 40
8.000000000000057
100
AcDbArc
 50
11.3641727599
 51
90.0
  0
LINE
  5
182
330
1F
100
AcDbEntity
  8
0
  6
Continuous
 62
     7
370
    15
100
AcDbLine
 10
521.7855750545
 20
424.2397672662
 30
0.0
 11
522.7654754146
 21
424.2397672662
 31
0.0
  0
LINE
  5
183
330
1F
100
AcDbEntity
  8
0
  6
Continuous
 62
     7
370
    15
100
AcDbLine
 10
521.7855750545
 20
488.239770306
 30
0.0
 11
521.7855750545
 21
424.2397672662
 31
0.0
  0
CIRCLE
  5
184
330
1F
100
AcDbEntity
  8
0
  6
Continuous
 62
     7
370
    15
100
AcDbCircle
 10
888.0838938867
 20
387.3567509604
 30
0.0
 40
4.99999999999996
  0
CIRCLE
  5
185
330
1F
100
AcDbEntity
  8
0
  6
Continuous
 62
     7
370
    15
100
AcDbCircle
 10
790.6685958604
 20
289.9414529341
 30
0.0
 40
5.0
  0
CIRCLE
  5
186
330
1F
100
AcDbEntity
  8
0
  6
Continuous
 62
     7
370
    15
100
AcDbCircle
 10
652.902560209
 20
289.9414529341
 30
0.0
 40
5.000000000000041
  0
CIRCLE
  5
187
330
1F
100
AcDbEntity
  8
0
  6
Continuous
 62
     7
370
    15
100
AcDbCircle
 10
555.4872621827
 20
525.1227866118
 30
0.0
 40
5.000000000000041
  0
CIRCLE
  5
188
330
1F
100
AcDbEntity
  8
0
  6
Continuous
 62
     7
370
    15
100
AcDbCircle
 10
790.6685958604
 20
622.5380846382
 30
0.0
 40
5.000000000000121
  0
LINE
  5
189
330
1F
100
AcDbEntity
  8
0
  6
Continuous
 62
     7
370
    15
100
AcDbLine
 10
522.7654754146
 20
488.239770306
 30
0.0
 11
521.7855750545
 21
488.239770306
 31
0.0
  0
ARC
  5
18A
330
1F
100
AcDbEntity
  8
0
  6
Continuous
 62
     7
370
    15
100
AcDbCircle
 10
721.7855780347
 20
456.2397687861
 30
0.0
 40
195.0000000000001
100
AcDbArc
 50
101.3641727599
 51
168.6358272401
  0
CIRCLE
  5
18B
330
1F
100
AcDbEntity
  8
0
  6
Continuous
 62
     7
370
    15
100
AcDbCircle
 10
555.4872621827
 20
387.3567509604
 30
0.0
 40
5.0
  0
LINE
  5
18C
330
1F
100
AcDbEntity
  8
0
  6
Continuous
 62
     7
370
    15
100
AcDbLine
 10
753.7855795546
 20
655.2598714063
 30
0.0
 11
753.7855795546
 21
656.2397717664
 31
0.0
  0
ARC
  5
18D
330
1F
100
AcDbEntity
  8
0
  6
Continuous
 62
     7
370
    15
100
AcDbCircle
 10
721.7855780347
 20
456.2397687861
 30
0.0
 40
195.0000000000001
100
AcDbArc
 50
11.3641727599
 51
78.6358272401
  0
CIRCLE
  5
18E
330
1F
100
AcDbEntity
  8
0
  6
Continuous
 62
     7
370
    15
100
AcDbCircle
 10
888.0838938867
 20
525.1227866118
 30
0.0
 40
5.0
  0
CIRCLE
  5
18F
330
1F
100
AcDbEntity
  8
0
  6
Continuous
 62
     7
370
    15
100
AcDbCircle
 10
652.902560209
 20
622.5380846382
 30
0.0
 40
5.000000000000114
  0
SPLINE
  5
190
330
1F
100
AcDbEntity
  8
0
  6
Continuous
 62
     8
370
    15
100
AcDbSpline
210
0.0
220
0.0
230
1.0
 70
     8
 71
     3
 72
    11
 73
     7
 74
     0
 42
0.00000001
 43
0.00000001
 40
0.0
 40
0.0
 40
0.0
 40
0.0
 40
0.2616477884156932
 40
0.564563533622076
 40
0.8758189484771479
 40
1.0
 40
1.0
 40
1.0
 40
1.0
 10
979.0382712109523
 20
537.7655117937886
 30
0.0
 10
979.0301900200207
 20
537.7792485072995
 30
0.0
 10
979.0127530459268
 20
537.808888534326
 30
0.0
 10
978.712438402045
 20
538.31727342352
 30
0.0
 10
978.3192189070522
 20
538.9791463901247
 30
0.0
 10
978.0116943491361
 20
539.4919481938741
 30
0.0
 10
977.9239921791989
 20
539.6381928750836
 30
0.0
  0
LINE
  5
191
330
1F
100
AcDbEntity
  8
0
  6
Continuous
 62
     8
370
    15
100
AcDbLine
 10
977.9239921792
 20
497.4034591743
 30
0.0
 11
977.9239921792
 21
497.3396933803
 31
0.0
  0
LINE
  5
192
330
1F
100
AcDbEntity
  8
0
  6
Continuous
 62
     8
370
    15
100
AcDbLine
 10
969.7261034472
 20
503.7179454395
 30
0.0
 11
969.547483228
 21
503.6654337475
 31
0.0
  0
SPLINE
  5
193
330
1F
100
AcDbEntity
  8
0
  6
Continuous
 62
     8
370
    15
100
AcDbSpline
210
0.0
220
0.0
230
1.0
 70
     8
 71
     3
 72
    14
 73
    10
 74
     0
 42
0.00000001
 43
0.00000001
 40
0.0
 40
0.0
 40
0.0
 40
0.0
 40
0.0635703511175232
 40
0.2183888568341785
 40
0.3774525763670316
 40
0.5361614194752058
 40
0.6998687807831317
 40
0.8587114596651682
 40
1.0
 40
1.0
 40
1.0
 40
1.0
 10
977.2080509884792
 20
497.2002743908727
 30
0.0
 10
977.2946186878152
 20
497.4481800499665
 30
0.0
 10
977.5920123715753
 20
498.2998323145912
 30
0.0
 10
977.9873566045252
 20
499.6579561204835
 30
0.0
 10
978.2846361133153
 20
501.1250692567988
 30
0.0
 10
978.3630086208158
 20
502.3217423898207
 30
0.0
 10
978.2064178561476
 20
503.1667609347358
 30
0.0
 10
977.8579261460219
 20
503.6640593773865
 30
0.0
 10
977.4705290821048
 20
503.7002240686645
 30
0.0
 10
977.2881596310573
 20
503.7172488102281
 30
0.0
  0
LWPOLYLINE
  5
194
330
1F
100
AcDbEntity
  8
0
  6
Continuous
 62
     8
370
    15
100
AcDbPolyline
 90
       21
 70
   128
 43
0.0
 10
951.0934232696
 20
804.1067212054
 10
951.0935126765
 20
804.1067212054
 10
950.773987077
 20
804.1119962165
 10
950.0492243989
 20
804.1238277385
 10
948.9313988908
 20
804.1417091319
 10
947.503644131
 20
804.1638820597
 10
945.7749157174
 20
804.1895418593
 10
943.7244265302
 20
804.2208939025
 10
941.4555310233
 20
804.242113156
 10
939.0000282748
 20
804.2388050982
 10
936.4641784652
 20
804.2314737269
 10
934.0576558335
 20
804.2355566451
 10
931.7064016087
 20
804.2423813769
 10
929.3525098784
 20
804.2280464599
 10
927.2070555909
 20
804.1968732306
 10
925.3385095818
 20
804.1695146987
 10
923.7846313937
 20
804.1455834338
 10
922.5912122949
 20
804.1265695521
 10
921.791139148
 20
804.1135459372
 10
921.3776468261
 20
804.1067212054
 10
921.3776468261
 20
804.1067212054
  0
LINE
  5
195
330
1F
100
AcDbEntity
  8
0
  6
Continuous
 62
     8
370
    15
100
AcDbLine
 10
926.7355828507
 20
532.2397663423
 30
0.0
 11
926.7355828507
 21
540.2397676536
 31
0.0
  0
LINE
  5
196
330
1F
100
AcDbEntity
  8
0
  6
Continuous
 62
     8
370
    15
100
AcDbLine
 10
920.7355706914
 20
526.2397690842
 30
0.0
 11
912.7355842812
 21
526.2397690842
 31
0.0
  0
SPLINE
  5
197
330
1F
100
AcDbEntity
  8
0
  6
Continuous
 62
     7
370
    15
100
AcDbSpline
210
0.0
220
0.0
230
1.0
 70
     8
 71
     3
 72
    17
 73
    13
 74
     0
 42
0.00000001
 43
0.00000001
 40
0.0
 40
0.0
 40
0.0
 40
0.0
 40
0.0494752258139738
 40
0.1321461379312468
 40
0.1578018461347046
 40
0.1719177658821037
 40
0.1844747610070437
 40
0.2066360702520177
 40
0.3520291963450002
 40
0.5246320226181403
 40
0.7255901751004379
 40
1.0
 40
1.0
 40
1.0
 40
1.0
 10
284.9025434842828
 20
524.0734755226933
 30
0.0
 10
284.9036338957076
 20
524.0743895050808
 30
0.0
 10
284.9065463363518
 20
524.0768307115767
 30
0.0
 10
284.9085131028511
 20
524.0784752955775
 30
0.0
 10
284.9138079530744
 20
524.0829930279143
 30
0.0
 10
284.919024531023
 20
524.0875018264882
 30
0.0
 10
284.9276840352324
 20
524.0951379722978
 30
0.0
 10
284.9693804865776
 20
524.1333730852929
 30
0.0
 10
285.0423654336024
 20
524.2158480094195
 30
0.0
 10
285.1246316951114
 20
524.3602611877335
 30
0.0
 10
285.188403301133
 20
524.5615429599217
 30
0.0
 10
285.1718928046921
 20
524.714298353919
 30
0.0
 10
285.1623619935039
 20
524.8024775811994
 30
0.0
  0
SPLINE
  5
198
330
1F
100
AcDbEntity
  8
0
  6
Continuous
 62
     7
370
    15
100
AcDbSpline
210
0.0
220
0.0
230
1.0
 70
     8
 71
     3
 72
    20
 73
    16
 74
     0
 42
0.00000001
 43
0.00000001
 40
0.0
 40
0.0
 40
0.0
 40
0.0
 40
0.0906179201651978
 40
0.2623192481112026
 40
0.4073591830263414
 40
0.5265187756612477
 40
0.6184242764181653
 40
0.6811088618023678
 40
0.7060157085041605
 40
0.717474512878331
 40
0.725805867026815
 40
0.7373460913974338
 40
0.7595168199788288
 40
0.823540400907882
 40
1.0
 40
1.0
 40
1.0
 40
1.0
 10
285.158020167661
 20
524.800562781986
 30
0.0
 10
285.1513320942988
 20
524.8333337297264
 30
0.0
 10
285.1319715707675
 20
524.92819852419
 30
0.0
 10
285.049839066317
 20
525.057644027458
 30
0.0
 10
284.9419605412042
 20
525.176410901473
 30
0.0
 10
284.8355347913507
 20
525.2539129877838
 30
0.0
 10
284.7458536873694
 20
525.3004318231403
 30
0.0
 10
284.6846487648735
 20
525.3239888410426
 30
0.0
 10
284.649620299285
 20
525.3349235900499
 30
0.0
 10
284.6368704240236
 20
525.338570400806
 30
0.0
 10
284.6312325040652
 20
525.3401271619663
 30
0.0
 10
284.626759987459
 20
525.3413458772626
 30
0.0
 10
284.6217541822388
 20
525.3426456963173
 30
0.0
 10
284.6169449982731
 20
525.3439328104402
 30
0.0
 10
284.6056371414779
 20
525.346799597087
 30
0.0
 10
284.5973397633556
 20
525.3489031621777
 30
0.0
  0
SPLINE
  5
199
330
1F
100
AcDbEntity
  8
0
  6
Continuous
 62
     7
370
    15
100
AcDbSpline
210
0.0
220
0.0
230
1.0
 70
     8
 71
     3
 72
    20
 73
    16
 74
     0
 42
0.00000001
 43
0.00000001
 40
0.0
 40
0.0
 40
0.0
 40
0.0
 40
0.0906130217142189
 40
0.2623200592312723
 40
0.4073594469879966
 40
0.5265165792310572
 40
0.6184222081871519
 40
0.6811093575465804
 40
0.7060148401570114
 40
0.7174737345393184
 40
0.725806429597391
 40
0.7373459233189681
 40
0.7595164609405893
 40
0.8235401512463069
 40
0.9999999999999999
 40
0.9999999999999999
 40
0.9999999999999999
 40
0.9999999999999999
 10
271.6370659908775
 20
541.7555286714398
 30
0.0
 10
271.6072754791526
 20
541.7707293374935
 30
0.0
 10
271.5210334727349
 20
541.8147344875716
 30
0.0
 10
271.3686227656027
 20
541.8312329880026
 30
0.0
 10
271.2085025681337
 20
541.8209457745102
 30
0.0
 10
271.0815604928704
 20
541.7860464543508
 30
0.0
 10
270.9892671611109
 20
541.744950846352
 30
0.0
 10
270.932697080402
 20
541.71177385466
 30
0.0
 10
270.9023019130646
 20
541.6912115065168
 30
0.0
 10
270.8915034722144
 20
541.6835172603351
 30
0.0
 10
270.8867692701197
 20
541.6800744393187
 30
0.0
 10
270.8830352503727
 20
541.6773372427264
 30
0.0
 10
270.878883385552
 20
541.6742516771003
 30
0.0
 10
270.8749010798828
 20
541.6712662784946
 30
0.0
 10
270.8656034597691
 20
541.6642208410342
 30
0.0
 10
270.8587811356905
 20
541.6590511032903
 30
0.0
  0
SPLINE
  5
19A
330
1F
100
AcDbEntity
  8
0
  6
Continuous
 62
     7
370
    15
100
AcDbSpline
210
0.0
220
0.0
230
1.0
 70
     8
 71
     3
 72
    17
 73
    13
 74
     0
 42
0.00000001
 43
0.00000001
 40
0.0
 40
0.0
 40
0.0
 40
0.0
 40
0.0494748954952697
 40
0.1321457938798368
 40
0.1578011722510755
 40
0.171918122497154
 40
0.1844753966564203
 40
0.206635257326408
 40
0.3520273963622145
 40
0.5246328456876245
 40
0.7255894516362373
 40
1.0
 40
1.0
 40
1.0
 40
1.0
 10
279.6045287540678
 20
503.4046187230908
 30
0.0
 10
279.6059214747396
 20
503.4043348600073
 30
0.0
 10
279.6096413851506
 20
503.4035766711896
 30
0.0
 10
279.6121613392348
 20
503.4030710562012
 30
0.0
 10
279.618987597011
 20
503.4017423914115
 30
0.0
 10
279.625769382695
 20
503.4004762438432
 30
0.0
 10
279.6371386210209
 20
503.3984696651848
 30
0.0
 10
279.693026405841
 20
503.389696564166
 30
0.0
 10
279.8030161221161
 20
503.3840742689904
 30
0.0
 10
279.9672141955272
 20
503.4097884062285
 30
0.0
 10
280.1643442287705
 20
503.4854306901486
 30
0.0
 10
280.273479772054
 20
503.5935790290437
 30
0.0
 10
280.336479379845
 20
503.6560087630116
 30
0.0
  0
SPLINE
  5
19B
330
1F
100
AcDbEntity
  8
0
  6
Continuous
 62
     7
370
    15
100
AcDbSpline
210
0.0
220
0.0
230
1.0
 70
     8
 71
     3
 72
    17
 73
    13
 74
     0
 42
0.00000001
 43
0.00000001
 40
0.0
 40
0.0
 40
0.0
 40
0.0
 40
0.0494744420441426
 40
0.1321447227477978
 40
0.1578000965013847
 40
0.1719167753628867
 40
0.1844732198770486
 40
0.2066360768917674
 40
0.3520297973343557
 40
0.524633075920235
 40
0.7255877911648104
 40
1.0
 40
1.0
 40
1.0
 40
1.0
 10
272.0462360447768
 20
541.1024554797971
 30
0.0
 10
272.046203192172
 20
541.1038758756465
 30
0.0
 10
272.0461154438684
 20
541.1076697095525
 30
0.0
 10
272.0460489465504
 20
541.1102370938291
 30
0.0
 10
272.0458250875071
 20
541.1171897837562
 30
0.0
 10
272.0455495275769
 20
541.1240826196789
 30
0.0
 10
272.0449755842204
 20
541.1356129716095
 30
0.0
 10
272.041092573815
 20
541.1920560214891
 30
0.0
 10
272.0221038292773
 20
541.3005387982894
 30
0.0
 10
271.9604891040675
 20
541.4548968988706
 30
0.0
 10
271.8428820837979
 20
541.6302546064669
 30
0.0
 10
271.7131591984096
 20
541.712589347626
 30
0.0
 10
271.6382748475793
 20
541.7601182290875
 30
0.0
  0
SPLINE
  5
19C
330
1F
100
AcDbEntity
  8
0
  6
Continuous
 62
     7
370
    15
100
AcDbSpline
210
0.0
220
0.0
230
1.0
 70
     8
 71
     3
 72
    20
 73
    16
 74
     0
 42
0.00000001
 43
0.00000001
 40
0.0
 40
0.0
 40
0.0
 40
0.0
 40
0.0906128739148933
 40
0.2623215522479548
 40
0.4073607697009928
 40
0.5265189897061795
 40
0.618423570295143
 40
0.6811080753001423
 40
0.7060149333740454
 40
0.7174747074934009
 40
0.7258059911779096
 40
0.7373460495913401
 40
0.7595166623750126
 40
0.8235403044191094
 40
1.0
 40
1.0
 40
1.0
 40
1.0
 10
280.3322753897432
 20
503.658210409578
 30
0.0
 10
280.353725308495
 20
503.6838704976968
 30
0.0
 10
280.4158221799377
 20
503.7581556831821
 30
0.0
 10
280.4658174776722
 20
503.9030772463594
 30
0.0
 10
280.4914198551442
 20
504.0614718414155
 30
0.0
 10
280.485643624149
 20
504.1929986133042
 30
0.0
 10
280.4661077496971
 20
504.2921181970579
 30
0.0
 10
280.4463640494027
 20
504.3546582096113
 30
0.0
 10
280.4330712132061
 20
504.3888606517642
 30
0.0
 10
280.4279731818617
 20
504.4011043193326
 30
0.0
 10
280.425676750312
 20
504.4064834509034
 30
0.0
 10
280.4238341424636
 20
504.410736215748
 30
0.0
 10
280.4217456763212
 20
504.4154660591431
 30
0.0
 10
280.4197238521257
 20
504.4200173955069
 30
0.0
 10
280.4149242367965
 20
504.4306489699762
 30
0.0
 10
280.4114024183277
 20
504.4384501108491
 30
0.0
  0
SPLINE
  5
19D
330
1F
100
AcDbEntity
  8
0
  6
Continuous
 62
     7
370
    15
100
AcDbSpline
210
0.0
220
0.0
230
1.0
 70
     8
 71
     3
 72
    20
 73
    16
 74
     0
 42
0.00000001
 43
0.00000001
 40
0.0
 40
0.0
 40
0.0
 40
0.0
 40
0.0906142140160433
 40
0.2623210434897538
 40
0.4073613894617302
 40
0.5265184016010116
 40
0.6184242796357161
 40
0.6811096987100718
 40
0.7060155314500715
 40
0.7174741898258554
 40
0.7258058439391106
 40
0.7373461980543654
 40
0.7595167021720932
 40
0.8235404683623853
 40
1.0
 40
1.0
 40
1.0
 40
1.0
 10
260.7937142257454
 20
494.2490882405602
 30
0.0
 10
260.8271503070591
 20
494.2483172980002
 30
0.0
 10
260.9239451403604
 20
494.2460854797473
 30
0.0
 10
261.0684231908224
 20
494.2973483159049
 30
0.0
 10
261.2082200999901
 20
494.3760946500232
 30
0.0
 10
261.3074524429505
 20
494.4626135530182
 30
0.0
 10
261.3727673011954
 20
494.5396887396092
 30
0.0
 10
261.4093491332617
 20
494.5941195096211
 30
0.0
 10
261.4278084658686
 20
494.6258341694964
 30
0.0
 10
261.4341978338925
 20
494.6374537057478
 30
0.0
 10
261.4369731041024
 20
494.6426031442613
 30
0.0
 10
261.4391471855592
 20
494.6466980531852
 30
0.0
 10
261.4415484593167
 20
494.6512737370603
 30
0.0
 10
261.4438398229133
 20
494.6557021110982
 30
0.0
 10
261.4491606917579
 20
494.6660789130852
 30
0.0
 10
261.4530649879511
 20
494.6736931034886
 30
0.0
  0
SPLINE
  5
19E
330
1F
100
AcDbEntity
  8
0
  6
Continuous
 62
     7
370
    15
100
AcDbSpline
210
0.0
220
0.0
230
1.0
 70
     8
 71
     3
 72
    17
 73
    13
 74
     0
 42
0.00000001
 43
0.00000001
 40
0.0
 40
0.0
 40
0.0
 40
0.0
 40
0.0494747962536174
 40
0.1321456387962039
 40
0.1578008366046795
 40
0.1719185655752172
 40
0.1844741045675377
 40
0.206632785726554
 40
0.3520263097925293
 40
0.524634130520635
 40
0.7255877327498551
 40
1.0
 40
1.0
 40
1.0
 40
1.0
 10
260.141707447407
 20
494.6599505075776
 30
0.0
 10
260.1423538669374
 20
494.658685124315
 30
0.0
 10
260.144080433356
 20
494.6553053250591
 30
0.0
 10
260.1452544771572
 20
494.6530155212226
 30
0.0
 10
260.1484726456149
 20
494.6468552374187
 30
0.0
 10
260.1517110591577
 20
494.640759904718
 30
0.0
 10
260.1572304861339
 20
494.6306236399899
 30
0.0
 10
260.185222052594
 20
494.5814593050093
 30
0.0
 10
260.2493945979485
 20
494.4919566871583
 30
0.0
 10
260.3718801237902
 20
494.3796160008052
 30
0.0
 10
260.5539272992323
 20
494.272655866055
 30
0.0
 10
260.7065258078185
 20
494.2547590912217
 30
0.0
 10
260.7946156464222
 20
494.2444279023969
 30
0.0
  0
SPLINE
  5
19F
330
1F
100
AcDbEntity
  8
0
  6
Continuous
 62
     7
370
    15
100
AcDbSpline
210
0.0
220
0.0
230
1.0
 70
     8
 71
     3
 72
    17
 73
    13
 74
     0
 42
0.00000001
 43
0.00000001
 40
0.0
 40
0.0
 40
0.0
 40
0.0
 40
0.0494750350007032
 40
0.1321459000788032
 40
0.1578011563688838
 40
0.1719180384524552
 40
0.1844746449119092
 40
0.206635465304854
 40
0.3520266574032053
 40
0.5246326255854894
 40
0.7255872315303007
 40
0.9999999999999999
 40
0.9999999999999999
 40
0.9999999999999999
 40
0.9999999999999999
 10
250.7166710710648
 20
541.6683792301976
 30
0.0
 10
250.7155394077695
 20
541.6692407258012
 30
0.0
 10
250.7125167789881
 20
541.6715417471532
 30
0.0
 10
250.7104651077054
 20
541.673090895853
 30
0.0
 10
250.7048923902757
 20
541.6772496829898
 30
0.0
 10
250.6993306854988
 20
541.6813317574602
 30
0.0
 10
250.6899593450352
 20
541.688073142077
 30
0.0
 10
250.6434121282231
 20
541.7202279753725
 30
0.0
 10
250.5467545610249
 20
541.7730151607936
 30
0.0
 10
250.3876587162066
 20
541.8210831145975
 30
0.0
 10
250.1772313974201
 20
541.8384775473959
 30
0.0
 10
250.0319800434675
 20
541.7883860677308
 30
0.0
 10
249.9481315752986
 20
541.7594700285756
 30
0.0
  0
SPLINE
  5
1A0
330
1F
100
AcDbEntity
  8
0
  6
Continuous
 62
     7
370
    15
100
AcDbSpline
210
0.0
220
0.0
230
1.0
 70
     8
 71
     3
 72
    20
 73
    16
 74
     0
 42
0.00000001
 43
0.00000001
 40
0.0
 40
0.0
 40
0.0
 40
0.0
 40
0.0906132382063482
 40
0.2623211198946157
 40
0.4073619113731094
 40
0.5265174687827785
 40
0.6184261522578393
 40
0.6811107994119213
 40
0.7060150844798249
 40
0.717476061179882
 40
0.7258056481645538
 40
0.7373454081871436
 40
0.7595170187090768
 40
0.8235402997157737
 40
1.0
 40
1.0
 40
1.0
 40
1.0
 10
249.9509655898932
 20
541.7556627818906
 30
0.0
 10
249.9205063412249
 20
541.7418505028656
 30
0.0
 10
249.8323282297261
 20
541.7018645960173
 30
0.0
 10
249.7244016099688
 20
541.5929893886449
 30
0.0
 10
249.6326145933614
 20
541.4613869487563
 30
0.0
 10
249.5807481217483
 20
541.3403793773967
 30
0.0
 10
249.5553436067296
 20
541.2425993252094
 30
0.0
 10
249.5460006019582
 20
541.1776830486131
 30
0.0
 10
249.5431302270255
 20
541.1411045174308
 30
0.0
 10
249.5424163351195
 20
541.1278584908919
 30
0.0
 10
249.5421494659375
 20
541.1220207579306
 30
0.0
 10
249.541966396872
 20
541.1173906487082
 30
0.0
 10
249.5417903285494
 20
541.1122081410095
 30
0.0
 10
249.5416446844226
 20
541.10725643718
 30
0.0
 10
249.5413540647956
 20
541.095587596799
 30
0.0
 10
249.541140816224
 20
541.0870253273808
 30
0.0
  0
SPLINE
  5
1A1
330
1F
100
AcDbEntity
  8
0
  6
Continuous
 62
     7
370
    15
100
AcDbSpline
210
0.0
220
0.0
230
1.0
 70
     8
 71
     3
 72
    20
 73
    16
 74
     0
 42
0.00000001
 43
0.00000001
 40
0.0
 40
0.0
 40
0.0
 40
0.0
 40
0.0906174922063957
 40
0.2623250917435184
 40
0.4073632737444177
 40
0.5265193479092454
 40
0.6184257647744764
 40
0.6811108242240262
 40
0.706015605043434
 40
0.7174743659502341
 40
0.7258074248201658
 40
0.7373464409068368
 40
0.759517343140226
 40
0.8235406440331324
 40
1.0
 40
1.0
 40
1.0
 40
1.0
 10
236.4297962775949
 20
524.800875706371
 30
0.0
 10
236.4216044986878
 20
524.768448079211
 30
0.0
 10
236.3978904331026
 20
524.6745745889755
 30
0.0
 10
236.4157203223213
 20
524.5223111528315
 30
0.0
 10
236.4613798496883
 20
524.36849559724
 30
0.0
 10
236.523648041819
 20
524.2524984473739
 30
0.0
 10
236.5842619260197
 20
524.1716746160497
 30
0.0
 10
236.6291781392255
 20
524.1238897658479
 30
0.0
 10
236.6559997703058
 20
524.0988446437437
 30
0.0
 10
236.6659026158734
 20
524.0900290365888
 30
0.0
 10
236.6703070836409
 20
524.0861707775662
 30
0.0
 10
236.6738129379195
 20
524.0831522060471
 30
0.0
 10
236.6777466718902
 20
524.0797787452371
 30
0.0
 10
236.6815437496719
 20
524.076581315419
 30
0.0
 10
236.6904801503
 20
524.0690745224003
 30
0.0
 10
236.6970374277357
 20
524.0635662504994
 30
0.0
  0
SPLINE
  5
1A2
330
1F
100
AcDbEntity
  8
0
  6
Continuous
 62
     7
370
    15
100
AcDbSpline
210
0.0
220
0.0
230
1.0
 70
     8
 71
     3
 72
    17
 73
    13
 74
     0
 42
0.00000001
 43
0.00000001
 40
0.0
 40
0.0
 40
0.0
 40
0.0
 40
0.049474712884353
 40
0.1321456676282741
 40
0.157801134282893
 40
0.1719178635066626
 40
0.1844762939784301
 40
0.2066337462601612
 40
0.3520270792931955
 40
0.5246357304480609
 40
0.7255910500387561
 40
1.0
 40
1.0
 40
1.0
 40
1.0
 10
236.9754432729009
 20
525.3451033660733
 30
0.0
 10
236.9740655559138
 20
525.3447572926826
 30
0.0
 10
236.9703857097772
 20
525.3438329396828
 30
0.0
 10
236.9678951185721
 20
525.3431954964569
 30
0.0
 10
236.9611674726013
 20
525.341428193421
 30
0.0
 10
236.9545087236591
 20
525.3396274606826
 30
0.0
 10
236.9433957843268
 20
525.3364938858803
 30
0.0
 10
236.8892329231201
 20
525.3201721909472
 30
0.0
 10
236.7876986315701
 20
525.27749088582
 30
0.0
 10
236.650918600461
 20
525.1830867530966
 30
0.0
 10
236.5061293035592
 20
525.0294022244653
 30
0.0
 10
236.4547254991196
 20
524.8846131576034
 30
0.0
 10
236.4250521203998
 20
524.8010321685636
 30
0.0
  0
SPLINE
  5
1A3
330
1F
100
AcDbEntity
  8
0
  6
Continuous
 62
     7
370
    15
100
AcDbSpline
210
0.0
220
0.0
230
1.0
 70
     8
 71
     3
 72
    17
 73
    13
 74
     0
 42
0.00000001
 43
0.00000001
 40
0.0
 40
0.0
 40
0.0
 40
0.0
 40
0.0494746892935178
 40
0.1321453568055297
 40
0.1578012394538307
 40
0.1719171804103359
 40
0.184474058129816
 40
0.2066349986212494
 40
0.3520248146135397
 40
0.5246320849451052
 40
0.7255878159309684
 40
1.0
 40
1.0
 40
1.0
 40
1.0
 10
241.1699804505828
 20
504.4243871399724
 30
0.0
 10
241.1693934143542
 20
504.4230927065393
 30
0.0
 10
241.1678254588398
 20
504.4196353150869
 30
0.0
 10
241.1667701061225
 20
504.4172970934937
 30
0.0
 10
241.163956727253
 20
504.4109280382799
 30
0.0
 10
241.1612131979766
 20
504.404602151643
 30
0.0
 10
241.1567262770416
 20
504.3939644151259
 30
0.0
 10
241.1357476006626
 20
504.3414259004536
 30
0.0
 10
241.1057745818286
 20
504.2354505495843
 30
0.0
 10
241.0943173911569
 20
504.0696444746196
 30
0.0
 10
241.1241902190002
 20
503.8606237514782
 30
0.0
 10
241.2053446122874
 20
503.7301589442407
 30
0.0
 10
241.2521920195344
 20
503.6548464724385
 30
0.0
  0
SPLINE
  5
1A4
330
1F
100
AcDbEntity
  8
0
  6
Continuous
 62
     7
370
    15
100
AcDbSpline
210
0.0
220
0.0
230
1.0
 70
     8
 71
     3
 72
    20
 73
    16
 74
     0
 42
0.00000001
 43
0.00000001
 40
0.0
 40
0.0
 40
0.0
 40
0.0
 40
0.0906119434634602
 40
0.2623201383882749
 40
0.4073604801254241
 40
0.5265181567262852
 40
0.6184236034356876
 40
0.6811083656431246
 40
0.706016640709573
 40
0.7174741925452113
 40
0.7258060729695192
 40
0.7373457230941802
 40
0.7595165951429066
 40
0.8235403593109287
 40
1.0
 40
1.0
 40
1.0
 40
1.0
 10
241.2552728346113
 20
503.6584562787377
 30
0.0
 10
241.2755174916704
 20
503.631835628598
 30
0.0
 10
241.3341254525901
 20
503.5547692688917
 30
0.0
 10
241.4642821608053
 20
503.4737715176204
 30
0.0
 10
241.6130103133206
 20
503.4135684391441
 30
0.0
 10
241.7425244879027
 20
503.3899298920193
 30
0.0
 10
241.8435074138416
 20
503.3869267771807
 30
0.0
 10
241.9088715573237
 20
503.3922540226108
 30
0.0
 10
241.9451772768972
 20
503.3976051495129
 30
0.0
 10
241.9582446613137
 20
503.399850368396
 30
0.0
 10
241.964001863609
 20
503.4008936051285
 30
0.0
 10
241.9685552993394
 20
503.401738878986
 30
0.0
 10
241.9736360390062
 20
503.402729494592
 30
0.0
 10
241.9785207684901
 20
503.403677591863
 30
0.0
 10
241.9899529737339
 20
503.4059952116946
 30
0.0
 10
241.9983415892843
 20
503.4076958128774
 30
0.0
  0
ARC
  5
1A5
330
1F
100
AcDbEntity
  8
0
  6
Continuous
 62
     7
370
    15
100
AcDbCircle
 10
273.78559612
 20
804.2397967379
 30
0.0
 40
1.999966088073909
100
AcDbArc
 50
359.9476850583
 51
90.0010848394
  0
ARC
  5
1A6
330
1F
100
AcDbEntity
  8
0
  6
Continuous
 62
     7
370
    15
100
AcDbCircle
 10
247.8021819266
 20
804.2397687861
 30
0.0
 40
1.999999999999995
100
AcDbArc
 50
90.0000189073
 51
180.1647403223
  0
SPLINE
  5
1A7
330
1F
100
AcDbEntity
  8
0
  6
Continuous
 62
     7
370
    15
100
AcDbSpline
210
0.0
220
0.0
230
1.0
 70
     8
 71
     3
 72
    25
 73
    21
 74
     0
 42
0.00000001
 43
0.00000001
 40
0.0
 40
0.0
 40
0.0
 40
0.0
 40
0.1107415823981037
 40
0.2180866214789978
 40
0.3158862692611055
 40
0.4041403858459075
 40
0.4828493980029285
 40
0.5520132947577181
 40
0.6116327004346117
 40
0.6617079367080497
 40
0.6984691879845993
 40
0.7288516274410113
 40
0.7592707477185539
 40
0.790608883289827
 40
0.8228659116599385
 40
0.8488554880402405
 40
0.8768974885616648
 40
0.911298604986616
 40
0.9523327054509906
 40
1.0
 40
1.0
 40
1.0
 40
1.0
 10
245.8022457575921
 20
804.2318015524709
 30
0.0
 10
245.8205501124913
 20
799.8756361382422
 30
0.0
 10
245.8565974113638
 20
791.2969127967466
 30
0.0
 10
245.9107693981777
 20
778.8712741584825
 30
0.0
 10
245.9618874274755
 20
767.330347704626
 30
0.0
 10
246.0085742682201
 20
756.9160141226787
 30
0.0
 10
246.0504341353256
 20
747.6282782716648
 30
0.0
 10
246.0872677735372
 20
739.4671285720509
 30
0.0
 10
246.1189765977497
 20
732.4325521479824
 30
0.0
 10
246.1449453351992
 20
726.6728636885547
 30
0.0
 10
246.1657725917271
 20
722.0634926442874
 30
0.0
 10
246.183536624033
 20
718.2281339617091
 30
0.0
 10
246.1994440387236
 20
714.6055747880011
 30
0.0
 10
246.2148450281
 20
710.9090795420062
 30
0.0
 10
246.2286318368083
 20
707.386509711645
 30
0.0
 10
246.2411410684991
 20
703.9934059178207
 30
0.0
 10
246.2531391181988
 20
700.5157493385734
 30
0.0
 10
246.265918176759
 20
696.4458699292213
 30
0.0
 10
246.2799814727395
 20
691.6038553133628
 30
0.0
 10
246.2890174178008
 20
688.1147729633458
 30
0.0
 10
246.2938732496027
 20
686.2397729584538
 30
0.0
  0
SPLINE
  5
1A8
330
1F
100
AcDbEntity
  8
0
  6
Continuous
 62
     7
370
    15
100
AcDbSpline
210
0.0
220
0.0
230
1.0
 70
     8
 71
     3
 72
    24
 73
    20
 74
     0
 42
0.00000001
 43
0.00000001
 40
0.0
 40
0.0
 40
0.0
 40
0.0
 40
0.0595163104008124
 40
0.1082878213103806
 40
0.1463580756458734
 40
0.1794685526678636
 40
0.2116600185173991
 40
0.2423820344760729
 40
0.2722175637750623
 40
0.3021198359483913
 40
0.3382918584269198
 40
0.3883670719694471
 40
0.4479864505829959
 40
0.5171503159418605
 40
0.5958592923700927
 40
0.6841133709090128
 40
0.7819129724284997
 40
0.8892579645301578
 40
1.0
 40
1.0
 40
1.0
 40
1.0
 10
275.2938724151376
 20
686.2397729584538
 30
0.0
 10
275.2999759947672
 20
688.5808488648381
 30
0.0
 10
275.3110812419815
 20
692.840353658017
 30
0.0
 10
275.3283325353032
 20
698.5970307975387
 30
0.0
 10
275.3440797355551
 20
703.3144800830592
 30
0.0
 10
275.3590601372555
 20
707.3793263558656
 30
0.0
 10
275.3738983528386
 20
711.1550875549901
 30
0.0
 10
275.3891481737313
 20
714.8018203463685
 30
0.0
 10
275.4048049951472
 20
718.3583173929053
 30
0.0
 10
275.4222710130724
 20
722.1287083595669
 30
0.0
 10
275.4429034976898
 20
726.6960370696683
 30
0.0
 10
275.4687695456082
 20
732.4325516510271
 30
0.0
 10
275.5004777297721
 20
739.4671287439517
 30
0.0
 10
275.537311582293
 20
747.6282781955225
 30
0.0
 10
275.579171379632
 20
756.9160143160407
 30
0.0
 10
275.625858244601
 20
767.330347357972
 30
0.0
 10
275.6769762509712
 20
778.8712745025119
 30
0.0
 10
275.7311484037865
 20
791.2969323674616
 30
0.0
 10
275.7671955758417
 20
799.8756758200441
 30
0.0
 10
275.7854999071482
 20
804.2318611571158
 30
0.0
  0
LINE
  5
1A9
330
1F
100
AcDbEntity
  8
0
  6
Continuous
 62
     7
370
    15
100
AcDbLine
 10
290.7938721618
 20
646.2397664019
 30
0.0
 11
285.7938732049
 21
646.2397664019
 31
0.0
  0
LINE
  5
1AA
330
1F
100
AcDbEntity
  8
0
  6
Continuous
 62
     7
370
    15
100
AcDbLine
 10
285.7938732049
 20
266.2397711703
 30
0.0
 11
290.7938721618
 21
266.2397711703
 31
0.0
  0
LINE
  5
1AB
330
1F
100
AcDbEntity
  8
0
  6
Continuous
 62
     7
370
    15
100
AcDbLine
 10
235.7938724598
 20
646.2397664019
 30
0.0
 11
230.7938735029
 21
646.2397664019
 31
0.0
  0
LINE
  5
1AC
330
1F
100
AcDbEntity
  8
0
  6
Continuous
 62
     7
370
    15
100
AcDbLine
 10
230.7938735029
 20
266.2397711703
 30
0.0
 11
235.7938724598
 21
266.2397711703
 31
0.0
  0
SPLINE
  5
1AD
330
1F
100
AcDbEntity
  8
0
  6
Continuous
 62
     7
370
    15
100
AcDbSpline
210
0.0
220
0.0
230
1.0
 70
     8
 71
     3
 72
    18
 73
    14
 74
     0
 42
0.00000001
 43
0.00000001
 40
0.0
 40
0.0
 40
0.0
 40
0.0
 40
0.0344337034041331
 40
0.0724914826622164
 40
0.130634576497051
 40
0.2236187143019299
 40
0.4104358578485478
 40
0.5001958649399014
 40
0.737650875278631
 40
0.8568709136603182
 40
0.9094916489724887
 40
0.9625702547262321
 40
1.0
 40
1.0
 40
1.0
 40
1.0
 10
253.7938726163033
 20
430.4869915524089
 30
0.0
 10
253.7855636079297
 20
430.4821945210617
 30
0.0
 10
253.7680710852875
 20
430.4720955807691
 30
0.0
 10
253.6082081416848
 20
430.3797979379858
 30
0.0
 10
253.256878030617
 20
430.176957349359
 30
0.0
 10
252.4555341026274
 20
429.7143024792769
 30
0.0
 10
251.4936419587274
 20
429.1589517327723
 30
0.0
 10
250.1619144106661
 20
428.3900810313895
 30
0.0
 10
248.9929425410511
 20
427.7151747881413
 30
0.0
 10
247.9808632936532
 20
427.130848382136
 30
0.0
 10
247.5357504521465
 20
426.8738643689182
 30
0.0
 10
247.3280560169923
 20
426.7539492646295
 30
0.0
 10
247.3038732641108
 20
426.7399892349682
 30
0.0
 10
247.2938724821929
 20
426.7342160621249
 30
0.0
  0
SPLINE
  5
1AE
330
1F
100
AcDbEntity
  8
0
  6
Continuous
 62
     7
370
    15
100
AcDbSpline
210
0.0
220
0.0
230
1.0
 70
     8
 71
     3
 72
    18
 73
    14
 74
     0
 42
0.00000001
 43
0.00000001
 40
0.0
 40
0.0
 40
0.0
 40
0.0
 40
0.0391145029213464
 40
0.0780921289248163
 40
0.1389200528439948
 40
0.2382977478170708
 40
0.4914348530410286
 40
0.7614779215931999
 40
0.8314861906300745
 40
0.9019335595887542
 40
0.9480415057696555
 40
0.9875254317974846
 40
1.0
 40
1.0
 40
1.0
 40
1.0
 10
247.2938724821929
 20
426.7342160621249
 30
0.0
 10
247.2831408456962
 20
426.7404122930918
 30
0.0
 10
247.2617151268893
 20
426.752783071994
 30
0.0
 10
247.0785273040173
 20
426.8585432771228
 30
0.0
 10
246.6954876097746
 20
427.0796938494937
 30
0.0
 10
245.6975415245437
 20
427.655858733885
 30
0.0
 10
244.0687203435835
 20
428.5962579303766
 30
0.0
 10
242.5040391111305
 20
429.4996279478005
 30
0.0
 10
241.5138823127402
 20
430.0712948247278
 30
0.0
 10
241.1148482285594
 20
430.301676335127
 30
0.0
 10
240.8764450687453
 20
430.439320520863
 30
0.0
 10
240.7996562657596
 20
430.4836515544798
 30
0.0
 10
240.7949928949404
 20
430.4863449118428
 30
0.0
 10
240.793873279405
 20
430.4869915524089
 30
0.0
  0
SPLINE
  5
1AF
330
1F
100
AcDbEntity
  8
0
  6
Continuous
 62
     7
370
    15
100
AcDbSpline
210
0.0
220
0.0
230
1.0
 70
    24
 71
     3
 72
    18
 73
    14
 74
     0
 42
0.00000001
 43
0.00000001
 40
0.0
 40
0.0
 40
0.0
 40
0.0
 40
0.0391145130208237
 40
0.0780922073410819
 40
0.1389200641375675
 40
0.2382977167052789
 40
0.4914347502102092
 40
0.7614780636757307
 40
0.831486095635086
 40
0.901933447863316
 40
0.9480415510529965
 40
0.9875254148799998
 40
1.0
 40
1.0
 40
1.0
 40
1.0
 10
240.793873279405
 20
430.4869915524089
 30
0.0
 10
240.793873279405
 20
430.4993836338562
 30
0.0
 10
240.793873279405
 20
430.5241244504747
 30
0.0
 10
240.793873279405
 20
430.7356516908085
 30
0.0
 10
240.793873279405
 20
431.1779474006575
 30
0.0
 10
240.793873279405
 20
432.3302768476404
 30
0.0
 10
240.793873279405
 20
434.2110767628361
 30
0.0
 10
240.793873279405
 20
436.0178153327925
 30
0.0
 10
240.793873279405
 20
437.1611499323947
 30
0.0
 10
240.793873279405
 20
437.6219115336132
 30
0.0
 10
240.793873279405
 20
437.897203077384
 30
0.0
 10
240.793873279405
 20
437.9858626574249
 30
0.0
 10
240.793873279405
 20
437.9912522768673
 30
0.0
 10
240.793873279405
 20
437.9925462582671
 30
0.0
  0
SPLINE
  5
1B0
330
1F
100
AcDbEntity
  8
0
  6
Continuous
 62
     7
370
    15
100
AcDbSpline
210
0.0
220
0.0
230
1.0
 70
     8
 71
     3
 72
    18
 73
    14
 74
     0
 42
0.00000001
 43
0.00000001
 40
0.0
 40
0.0
 40
0.0
 40
0.0
 40
0.0344336903070499
 40
0.0724914898468626
 40
0.1306346467259137
 40
0.2236187466056474
 40
0.4104357918185376
 40
0.5001958143645441
 40
0.7376509180047488
 40
0.8568708291168691
 40
0.9094916711534538
 40
0.962570251763497
 40
1.0
 40
1.0
 40
1.0
 40
1.0
 10
240.793873279405
 20
437.9925462582671
 30
0.0
 10
240.8021818763382
 20
437.9973432932836
 30
0.0
 10
240.819673541183
 20
438.007442246143
 30
0.0
 10
240.9795375521638
 20
438.0997399351814
 30
0.0
 10
241.3308683838011
 20
438.3025801417137
 30
0.0
 10
242.1322110628455
 20
438.765235935578
 30
0.0
 10
243.0941051938748
 20
439.3205828222059
 30
0.0
 10
244.4258295897291
 20
440.0894587266009
 30
0.0
 10
245.5948032222857
 20
440.7643632753694
 30
0.0
 10
246.6068819681517
 20
441.3486879124958
 30
0.0
 10
247.0519951870891
 20
441.6056740422217
 30
0.0
 10
247.2596902714656
 20
441.7255866608585
 30
0.0
 10
247.2838720853536
 20
441.7395486817039
 30
0.0
 10
247.2938724821929
 20
441.7453226798737
 30
0.0
  0
SPLINE
  5
1B1
330
1F
100
AcDbEntity
  8
0
  6
Continuous
 62
     7
370
    15
100
AcDbSpline
210
0.0
220
0.0
230
1.0
 70
     8
 71
     3
 72
    18
 73
    14
 74
     0
 42
0.00000001
 43
0.00000001
 40
0.0
 40
0.0
 40
0.0
 40
0.0
 40
0.0391145185527476
 40
0.0780921935199345
 40
0.138920016058987
 40
0.2382977454031666
 40
0.491434813817595
 40
0.7614779721852134
 40
0.8314861590763634
 40
0.9019335282477025
 40
0.9480415255504987
 40
0.987525426738332
 40
1.0
 40
1.0
 40
1.0
 40
1.0
 10
247.2938724821929
 20
441.7453226798737
 30
0.0
 10
247.3046045236558
 20
441.7391266433871
 30
0.0
 10
247.3260310601389
 20
441.7267562474761
 30
0.0
 10
247.5092182508178
 20
441.6209926304558
 30
0.0
 10
247.8922573727159
 20
441.3998444909267
 30
0.0
 10
248.8902051693888
 20
440.8236805956164
 30
0.0
 10
250.5190241086774
 20
439.8832787188637
 30
0.0
 10
252.0837066754555
 20
438.9799106784272
 30
0.0
 10
253.0738629586403
 20
438.4082427861949
 30
0.0
 10
253.4728960619516
 20
438.1778613583184
 30
0.0
 10
253.7113017615862
 20
438.0402173882852
 30
0.0
 10
253.7880877321993
 20
437.995886245879
 30
0.0
 10
253.7927526326438
 20
437.9931928972457
 30
0.0
 10
253.7938726163033
 20
437.9925462582671
 30
0.0
  0
CIRCLE
  5
1B2
330
1F
100
AcDbEntity
  8
0
  6
Continuous
 62
     7
370
    15
100
AcDbCircle
 10
247.2938728324
 20
434.2397687861
 30
0.0
 40
5.505553499465115
  0
SPLINE
  5
1B3
330
1F
100
AcDbEntity
  8
0
  6
Continuous
 62
     7
370
    15
100
AcDbSpline
210
0.0
220
0.0
230
1.0
 70
    24
 71
     3
 72
    18
 73
    14
 74
     0
 42
0.00000001
 43
0.00000001
 40
0.0
 40
0.0
 40
0.0
 40
0.0
 40
0.0391145130208237
 40
0.0780922073410819
 40
0.1389200641375675
 40
0.2382977167052789
 40
0.4914347502102092
 40
0.7614780636757307
 40
0.831486095635086
 40
0.901933447863316
 40
0.9480415510529965
 40
0.9875254148799998
 40
1.0
 40
1.0
 40
1.0
 40
1.0
 10
253.7938726163033
 20
437.9925462582671
 30
0.0
 10
253.7938726163033
 20
437.9801541768198
 30
0.0
 10
253.7938726163033
 20
437.9554133602013
 30
0.0
 10
253.7938726163033
 20
437.7438861198676
 30
0.0
 10
253.7938726163033
 20
437.3015904100185
 30
0.0
 10
253.7938726163033
 20
436.1492609630355
 30
0.0
 10
253.7938726163033
 20
434.2684610478399
 30
0.0
 10
253.7938726163033
 20
432.4617224778835
 30
0.0
 10
253.7938726163033
 20
431.3183878782813
 30
0.0
 10
253.7938726163033
 20
430.8576262770628
 30
0.0
 10
253.7938726163033
 20
430.582334733292
 30
0.0
 10
253.7938726163033
 20
430.4936751532511
 30
0.0
 10
253.7938726163033
 20
430.4882855338087
 30
0.0
 10
253.7938726163033
 20
430.4869915524089
 30
0.0
  0
SPLINE
  5
1B4
330
1F
100
AcDbEntity
  8
0
  6
Continuous
 62
     7
370
    15
100
AcDbSpline
210
0.0
220
0.0
230
1.0
 70
     8
 71
     3
 72
    11
 73
     7
 74
     0
 42
0.00000001
 43
0.00000001
 40
0.0
 40
0.0
 40
0.0
 40
0.0
 40
0.2999212049076187
 40
0.5573018807458744
 40
0.8169221110677256
 40
1.0
 40
1.0
 40
1.0
 40
1.0
 10
273.2938730186347
 20
485.1679722943866
 30
0.0
 10
273.445328445962
 20
485.2554152670323
 30
0.0
 10
273.7267570115906
 20
485.4178983869852
 30
0.0
 10
274.0506491665953
 20
485.6048960487516
 30
0.0
 10
274.2599141058116
 20
485.7257179009806
 30
0.0
 10
274.2839380683891
 20
485.7395862512986
 30
0.0
 10
274.2938731825474
 20
485.7453215101325
 30
0.0
  0
SPLINE
  5
1B5
330
1F
100
AcDbEntity
  8
0
  6
Continuous
 62
     7
370
    15
100
AcDbSpline
210
0.0
220
0.0
230
1.0
 70
     8
 71
     3
 72
    18
 73
    14
 74
     0
 42
0.00000001
 43
0.00000001
 40
0.0
 40
0.0
 40
0.0
 40
0.0
 40
0.0344336903070499
 40
0.0724914898468626
 40
0.1306346467259137
 40
0.2236187466056474
 40
0.4104357918185376
 40
0.5001958143645441
 40
0.7376509180047488
 40
0.8568708291168691
 40
0.9094916711534538
 40
0.962570251763497
 40
1.0
 40
1.0
 40
1.0
 40
1.0
 10
280.7938723853353
 20
474.4869913139903
 30
0.0
 10
280.7855637884022
 20
474.4821942789739
 30
0.0
 10
280.7680721235573
 20
474.4720953261144
 30
0.0
 10
280.6082081125764
 20
474.379797637076
 30
0.0
 10
280.2568772809392
 20
474.1769574305437
 30
0.0
 10
279.4555346018948
 20
473.7143016366794
 30
0.0
 10
278.4936404708654
 20
473.1589547500515
 30
0.0
 10
277.1619160750112
 20
472.3900788456565
 30
0.0
 10
275.9929424424546
 20
471.7151742968881
 30
0.0
 10
274.9808636965886
 20
471.1308496597616
 30
0.0
 10
274.5357504776512
 20
470.8738635300357
 30
0.0
 10
274.3280553932747
 20
470.7539509113989
 30
0.0
 10
274.3038735793867
 20
470.7399888905535
 30
0.0
 10
274.2938731825474
 20
470.7342148923838
 30
0.0
  0
SPLINE
  5
1B6
330
1F
100
AcDbEntity
  8
0
  6
Continuous
 62
     7
370
    15
100
AcDbSpline
210
0.0
220
0.0
230
1.0
 70
     8
 71
     3
 72
    11
 73
     7
 74
     0
 42
0.00000001
 43
0.00000001
 40
0.0
 40
0.0
 40
0.0
 40
0.0
 40
0.1905155446665016
 40
0.3803645636744539
 40
0.6766393529519213
 40
1.0
 40
1.0
 40
1.0
 40
1.0
 10
274.2938731825474
 20
470.7342148923838
 30
0.0
 10
274.2831861311121
 20
470.7403849518794
 30
0.0
 10
274.2618494172851
 20
470.7527034846901
 30
0.0
 10
274.0778649656332
 20
470.8589274357466
 30
0.0
 10
273.7631748675389
 20
471.0406139650756
 30
0.0
 10
273.4548002506754
 20
471.2186544333606
 30
0.0
 10
273.2938730186347
 20
471.3115659707748
 30
0.0
  0
SPLINE
  5
1B7
330
1F
100
AcDbEntity
  8
0
  6
Continuous
 62
     7
370
    15
100
AcDbSpline
210
0.0
220
0.0
230
1.0
 70
    24
 71
     3
 72
    18
 73
    14
 74
     0
 42
0.00000001
 43
0.00000001
 40
0.0
 40
0.0
 40
0.0
 40
0.0
 40
0.0391145130208237
 40
0.0780922073410819
 40
0.1389200641375675
 40
0.2382977167052789
 40
0.4914347502102092
 40
0.7614780636757307
 40
0.831486095635086
 40
0.901933447863316
 40
0.9480415510529965
 40
0.9875254148799998
 40
1.0
 40
1.0
 40
1.0
 40
1.0
 10
280.7938723853353
 20
481.9925460198485
 30
0.0
 10
280.7938723853353
 20
481.9801539384012
 30
0.0
 10
280.7938723853353
 20
481.9554131217827
 30
0.0
 10
280.7938723853353
 20
481.7438858814489
 30
0.0
 10
280.7938723853353
 20
481.3015901715999
 30
0.0
 10
280.7938723853353
 20
480.149260724617
 30
0.0
 10
280.7938723853353
 20
478.2684608094213
 30
0.0
 10
280.7938723853353
 20
476.461722239465
 30
0.0
 10
280.7938723853353
 20
475.3183876398627
 30
0.0
 10
280.7938723853353
 20
474.8576260386442
 30
0.0
 10
280.7938723853353
 20
474.5823344948734
 30
0.0
 10
280.7938723853353
 20
474.4936749148325
 30
0.0
 10
280.7938723853353
 20
474.4882852953901
 30
0.0
 10
280.7938723853353
 20
474.4869913139903
 30
0.0
  0
SPLINE
  5
1B8
330
1F
100
AcDbEntity
  8
0
  6
Continuous
 62
     7
370
    15
100
AcDbSpline
210
0.0
220
0.0
230
1.0
 70
     8
 71
     3
 72
    18
 73
    14
 74
     0
 42
0.00000001
 43
0.00000001
 40
0.0
 40
0.0
 40
0.0
 40
0.0
 40
0.0391145029213464
 40
0.0780921289248163
 40
0.1389200528439948
 40
0.2382977478170708
 40
0.4914348530410286
 40
0.7614779215931999
 40
0.8314861906300745
 40
0.9019335595887542
 40
0.9480415057696555
 40
0.9875254317974846
 40
1.0
 40
1.0
 40
1.0
 40
1.0
 10
274.2938731825474
 20
485.7453215101325
 30
0.0
 10
274.3046048190441
 20
485.7391252791656
 30
0.0
 10
274.3260305378511
 20
485.7267545002634
 30
0.0
 10
274.509218360723
 20
485.6209942951346
 30
0.0
 10
274.8922580549657
 20
485.3998437227638
 30
0.0
 10
275.8902041401966
 20
484.8236788383724
 30
0.0
 10
277.5190253211567
 20
483.8832796418808
 30
0.0
 10
279.0837065536098
 20
482.9799096244569
 30
0.0
 10
280.0738633520001
 20
482.4082427475296
 30
0.0
 10
280.4728974361809
 20
482.1778612371305
 30
0.0
 10
280.7113005959951
 20
482.0402170513944
 30
0.0
 10
280.7880893989806
 20
481.9958860177777
 30
0.0
 10
280.7927527697998
 20
481.9931926604146
 30
0.0
 10
280.7938723853353
 20
481.9925460198485
 30
0.0
  0
SPLINE
  5
1B9
330
1F
100
AcDbEntity
  8
0
  6
Continuous
 62
     7
370
    15
100
AcDbSpline
210
0.0
220
0.0
230
1.0
 70
     8
 71
     3
 72
    14
 73
    10
 74
     0
 42
0.00000001
 43
0.00000001
 40
0.0
 40
0.0
 40
0.0
 40
0.0
 40
0.1575843361675384
 40
0.3151114939705762
 40
0.4729864218867932
 40
0.6308559563766561
 40
0.784361516205899
 40
0.9379121533048436
 40
1.0
 40
1.0
 40
1.0
 40
1.0
 10
268.7636639019969
 20
539.6381928750836
 30
0.0
 10
267.9856192764304
 20
539.2848939714775
 30
0.0
 10
266.4298123332999
 20
538.5784243562796
 30
0.0
 10
263.8791062665798
 20
537.9429062643293
 30
0.0
 10
261.2485400751214
 20
537.677194251602
 30
0.0
 10
258.6220528401568
 20
537.8026129053995
 30
0.0
 10
256.0891024848742
 20
538.3158452293351
 30
0.0
 10
254.1719365735219
 20
538.9844013919953
 30
0.0
 10
253.1254050211882
 20
539.4920327853971
 30
0.0
 10
252.8240817627433
 20
539.6381928750836
 30
0.0
  0
ARC
  5
1BA
330
1F
100
AcDbEntity
  8
0
  6
Continuous
 62
     7
370
    15
100
AcDbCircle
 10
260.7938728324
 20
519.2397687861
 30
0.0
 40
21.90007581424712
100
AcDbArc
 50
59.9123247387
 51
68.6591038327
  0
SPLINE
  5
1BB
330
1F
100
AcDbEntity
  8
0
  6
Continuous
 62
     7
370
    15
100
AcDbSpline
210
0.0
220
0.0
230
1.0
 70
     8
 71
     3
 72
    14
 73
    10
 74
     0
 42
0.00000001
 43
0.00000001
 40
0.0
 40
0.0
 40
0.0
 40
0.0
 40
0.1575843664349227
 40
0.3151116422173079
 40
0.4729864199847891
 40
0.6308560620459952
 40
0.7843617095011837
 40
0.9379123405157708
 40
1.0
 40
1.0
 40
1.0
 40
1.0
 10
281.7110872855905
 20
525.7269456216657
 30
0.0
 10
280.9497641552934
 20
526.1149673478017
 30
0.0
 10
279.4273937116173
 20
526.890870225129
 30
0.0
 10
277.3401911309056
 20
528.4888584623862
 30
0.0
 10
275.4923103639133
 20
530.3798413595032
 30
0.0
 10
273.9527796931602
 20
532.5115108372175
 30
0.0
 10
272.774778191623
 20
534.8118491818916
 30
0.0
 10
272.1021333960975
 20
536.7275839341762
 30
0.0
 10
271.8465179580452
 20
537.8622977464171
 30
0.0
 10
271.7729198774818
 20
538.1890102454984
 30
0.0
  0
ARC
  5
1BC
330
1F
100
AcDbEntity
  8
0
  6
Continuous
 62
     7
370
    15
100
AcDbCircle
 10
260.7938728324
 20
519.2397687861
 30
0.0
 40
21.90007581424712
100
AcDbArc
 50
8.4837533101
 51
17.2305324042
  0
SPLINE
  5
1BD
330
1F
100
AcDbEntity
  8
0
  6
Continuous
 62
     7
370
    15
100
AcDbSpline
210
0.0
220
0.0
230
1.0
 70
     8
 71
     3
 72
    14
 73
    10
 74
     0
 42
0.00000001
 43
0.00000001
 40
0.0
 40
0.0
 40
0.0
 40
0.0
 40
0.157584203203609
 40
0.3151113650414593
 40
0.4729863406833082
 40
0.6308559260330187
 40
0.7843616153555889
 40
0.9379120059153846
 40
1.0
 40
1.0
 40
1.0
 40
1.0
 10
278.907420768452
 20
506.9307214745843
 30
0.0
 10
278.7361107161308
 20
507.7678744307014
 30
0.0
 10
278.3935526212532
 20
509.4418773154302
 30
0.0
 10
278.3415588767814
 20
512.0700472179877
 30
0.0
 10
278.6678583395997
 20
514.693786922616
 30
0.0
 10
279.3745818578836
 20
517.2265158190224
 30
0.0
 10
280.4385851095664
 20
519.5817516251825
 30
0.0
 10
281.5169798540491
 20
521.3020880146587
 30
0.0
 10
282.2447641542007
 20
522.2094177061963
 30
0.0
 10
282.454312502456
 20
522.4706619211995
 30
0.0
  0
ARC
  5
1BE
330
1F
100
AcDbEntity
  8
0
  6
Continuous
 62
     7
370
    15
100
AcDbCircle
 10
260.7938728324
 20
519.2397687861
 30
0.0
 40
21.90007581424707
100
AcDbArc
 50
317.0551818815
 51
325.8019609756
  0
SPLINE
  5
1BF
330
1F
100
AcDbEntity
  8
0
  6
Continuous
 62
     7
370
    15
100
AcDbSpline
210
0.0
220
0.0
230
1.0
 70
     8
 71
     3
 72
    14
 73
    10
 74
     0
 42
0.00000001
 43
0.00000001
 40
0.0
 40
0.0
 40
0.0
 40
0.0
 40
0.1575843962768724
 40
0.3151114863747089
 40
0.4729864388330535
 40
0.6308559238923253
 40
0.7843614972784763
 40
0.9379120286472613
 40
1.0
 40
1.0
 40
1.0
 40
1.0
 10
262.4638839187596
 20
497.4034591743314
 30
0.0
 10
263.0115872244525
 20
498.0593521348749
 30
0.0
 10
264.1067946613994
 20
499.3708995379341
 30
0.0
 10
266.1291637751017
 20
501.0501878694811
 30
0.0
 10
268.3839299104243
 20
502.4309514966509
 30
0.0
 10
270.8047305803055
 20
503.4575453261442
 30
0.0
 10
273.3095240384059
 20
504.0941371867028
 30
0.0
 10
275.3269057499365
 20
504.3236274789155
 30
0.0
 10
276.4900516619922
 20
504.320334300047
 30
0.0
 10
276.8249518266443
 20
504.3193861076199
 30
0.0
  0
ARC
  5
1C0
330
1F
100
AcDbEntity
  8
0
  6
Continuous
 62
     7
370
    15
100
AcDbCircle
 10
260.7938728324
 20
519.2397687861
 30
0.0
 40
21.90007581424706
100
AcDbArc
 50
265.626610453
 51
274.373389547
  0
SPLINE
  5
1C1
330
1F
100
AcDbEntity
  8
0
  6
Continuous
 62
     7
370
    15
100
AcDbSpline
210
0.0
220
0.0
230
1.0
 70
     8
 71
     3
 72
    14
 73
    10
 74
     0
 42
0.00000001
 43
0.00000001
 40
0.0
 40
0.0
 40
0.0
 40
0.0
 40
0.15758431732567
 40
0.3151114608369615
 40
0.4729863710984749
 40
0.6308558558166474
 40
0.7843614670038661
 40
0.9379119899062388
 40
1.0
 40
1.0
 40
1.0
 40
1.0
 10
244.762793838096
 20
504.3193861076199
 30
0.0
 10
245.6170785942348
 20
504.3001170786214
 30
0.0
 10
247.3253381599461
 20
504.2615860117002
 30
0.0
 10
249.8991848909074
 20
503.7274530956728
 30
0.0
 10
252.3845330124896
 20
502.8254977261363
 30
0.0
 10
254.6965011150523
 20
501.5729104950969
 30
0.0
 10
256.7559211836756
 20
500.0114914677263
 30
0.0
 10
258.1931619649707
 20
498.5773243470911
 30
0.0
 10
258.9157962987436
 20
497.6658862073551
 30
0.0
 10
259.1238617459807
 20
497.4034591743314
 30
0.0
  0
ARC
  5
1C2
330
1F
100
AcDbEntity
  8
0
  6
Continuous
 62
     7
370
    15
100
AcDbCircle
 10
260.7938728324
 20
519.2397687861
 30
0.0
 40
21.90007581424706
100
AcDbArc
 50
214.1980390244
 51
222.9448181185
  0
SPLINE
  5
1C3
330
1F
100
AcDbEntity
  8
0
  6
Continuous
 62
     7
370
    15
100
AcDbSpline
210
0.0
220
0.0
230
1.0
 70
     8
 71
     3
 72
    14
 73
    10
 74
     0
 42
0.00000001
 43
0.00000001
 40
0.0
 40
0.0
 40
0.0
 40
0.0
 40
0.1575842195533167
 40
0.315111512246475
 40
0.4729864246161506
 40
0.6308558582747593
 40
0.784361584992217
 40
0.9379120334902039
 40
1.0
 40
1.0
 40
1.0
 40
1.0
 10
239.1334331622842
 20
522.4706619211995
 30
0.0
 10
239.6510053034808
 20
521.7907417978691
 30
0.0
 10
240.6859626143802
 20
520.4311471704581
 30
0.0
 10
241.8731290030074
 20
518.0858073354758
 30
0.0
 10
242.7175410147156
 20
515.5803239818031
 30
0.0
 10
243.1797150407762
 20
512.9917792721121
 30
0.0
 10
243.2429779418163
 20
510.4081318127135
 30
0.0
 10
243.0178055833321
 20
508.390263880898
 30
0.0
 10
242.7557714184385
 20
507.2570139194995
 30
0.0
 10
242.6803248962883
 20
506.9307214745843
 30
0.0
  0
ARC
  5
1C4
330
1F
100
AcDbEntity
  8
0
  6
Continuous
 62
     7
370
    15
100
AcDbCircle
 10
260.7938728324
 20
519.2397687861
 30
0.0
 40
21.90007581424709
100
AcDbArc
 50
162.7694675958
 51
171.5162466899
  0
SPLINE
  5
1C5
330
1F
100
AcDbEntity
  8
0
  6
Continuous
 62
     7
370
    15
100
AcDbSpline
210
0.0
220
0.0
230
1.0
 70
     8
 71
     3
 72
    14
 73
    10
 74
     0
 42
0.00000001
 43
0.00000001
 40
0.0
 40
0.0
 40
0.0
 40
0.0
 40
0.1575841092795393
 40
0.3151115265377705
 40
0.4729864005548705
 40
0.6308558362993028
 40
0.7843615727680058
 40
0.9379121563361495
 40
1.0
 40
1.0
 40
1.0
 40
1.0
 10
249.8148257872585
 20
538.1890102454984
 30
0.0
 10
249.605942506733
 20
537.3604337805856
 30
0.0
 10
249.1882510929506
 20
535.7035789371271
 30
0.0
 10
248.0947813005245
 20
533.3131171542132
 30
0.0
 10
246.6623941955473
 20
531.0907870697168
 30
0.0
 10
244.9267486219337
 20
529.115514458493
 30
0.0
 10
242.9462179318629
 20
527.455171632629
 30
0.0
 10
241.2281926858428
 20
526.373096041568
 30
0.0
 10
240.1788042671481
 20
525.8713975171412
 30
0.0
 10
239.8766583791498
 20
525.7269456216657
 30
0.0
  0
ARC
  5
1C6
330
1F
100
AcDbEntity
  8
0
  6
Continuous
 62
     7
370
    15
100
AcDbCircle
 10
260.7938728324
 20
519.2397687861
 30
0.0
 40
21.90007581424709
100
AcDbArc
 50
111.3408961673
 51
120.0876752613
  0
LWPOLYLINE
  5
1C7
330
1F
100
AcDbEntity
  8
0
  6
Continuous
 62
     7
370
    15
100
AcDbPolyline
 90
        9
 70
   128
 43
0.0
 10
282.4543125025
 20
522.4706619212
 10
282.5410428485
 20
522.3852112123
 10
282.6181191048
 20
522.3010718057
 10
282.6833806029
 20
522.2206055352
 10
282.7350000879
 20
522.1460699269
 10
282.7715321472
 20
522.0795585939
 10
282.7919486007
 20
522.0229267308
 10
282.7956813416
 20
521.9777687618
 10
282.7826241991
 20
521.9453438351
  0
SPLINE
  5
1C8
330
1F
100
AcDbEntity
  8
0
  6
Continuous
 62
     7
370
    15
100
AcDbSpline
210
0.0
220
0.0
230
1.0
 70
     8
 71
     3
 72
    14
 73
    10
 74
     0
 42
0.00000001
 43
0.00000001
 40
0.0
 40
0.0
 40
0.0
 40
0.0
 40
0.0621970656467568
 40
0.2157643752091078
 40
0.3692821696866309
 40
0.5269932415778164
 40
0.6847103533710143
 40
0.8423235621518264
 40
1.0
 40
1.0
 40
1.0
 40
1.0
 10
282.7826241991046
 20
521.9453438350522
 30
0.0
 10
282.5846429879758
 20
521.6985279857413
 30
0.0
 10
281.8978373987059
 20
520.8423128739107
 30
0.0
 10
280.8788557395574
 20
519.2171744137951
 30
0.0
 10
279.8728555424693
 20
516.9912310413921
 30
0.0
 10
279.204839638281
 20
514.5967015432412
 30
0.0
 10
278.8962409815201
 20
512.116157828622
 30
0.0
 10
278.9459535878107
 20
509.6319823610618
 30
0.0
 10
279.2693950117489
 20
508.0518119051418
 30
0.0
 10
279.4311481556419
 20
507.261568231281
 30
0.0
  0
LWPOLYLINE
  5
1C9
330
1F
100
AcDbEntity
  8
0
  6
Continuous
 62
     7
370
    15
100
AcDbPolyline
 90
        9
 70
   128
 43
0.0
 10
279.4311481556
 20
507.2615682313
 10
279.4288440636
 20
507.2266883382
 10
279.4058869621
 20
507.1876212189
 10
279.3629194638
 20
507.1454583833
 10
279.3011485627
 20
507.1013807484
 10
279.2223009309
 20
507.0566251108
 10
279.1285893908
 20
507.0124468932
 10
279.0226402721
 20
506.9700828919
 10
278.9074207685
 20
506.9307214746
  0
LWPOLYLINE
  5
1CA
330
1F
100
AcDbEntity
  8
0
  6
Continuous
 62
     7
370
    15
100
AcDbPolyline
 90
        9
 70
   128
 43
0.0
 10
276.8249518266
 20
504.3193861076
 10
276.8122150591
 20
504.1982955465
 10
276.7944882652
 20
504.0855757126
 10
276.7722706339
 20
503.984381927
 10
276.7461824259
 20
503.897556586
 10
276.7169556609
 20
503.8275248536
 10
276.6854117653
 20
503.7762536833
 10
276.6524317703
 20
503.7451773116
 10
276.6189395478
 20
503.7351711819
  0
SPLINE
  5
1CB
330
1F
100
AcDbEntity
  8
0
  6
Continuous
 62
     7
370
    15
100
AcDbSpline
210
0.0
220
0.0
230
1.0
 70
     8
 71
     3
 72
    14
 73
    10
 74
     0
 42
0.00000001
 43
0.00000001
 40
0.0
 40
0.0
 40
0.0
 40
0.0
 40
0.0621969545490733
 40
0.2157644854658255
 40
0.369282106737496
 40
0.5269932674086196
 40
0.6847103940428882
 40
0.8423235887284558
 40
1.0
 40
1.0
 40
1.0
 40
1.0
 10
276.618939547849
 20
503.735171181854
 30
0.0
 10
276.3025324546172
 20
503.7360720857454
 30
0.0
 10
275.2048997141741
 20
503.7391973684222
 30
0.0
 10
273.2989909498078
 20
503.5226071039531
 30
0.0
 10
270.9314464239368
 20
502.9212787440731
 30
0.0
 10
268.6428269032335
 20
501.9505897877651
 30
0.0
 10
266.5110493297713
 20
500.6452703694907
 30
0.0
 10
264.5998406928153
 20
499.057542074524
 30
0.0
 10
263.5660750604508
 20
497.8194463661547
 30
0.0
 10
263.0490886075917
 20
497.2002743908727
 30
0.0
  0
LWPOLYLINE
  5
1CC
330
1F
100
AcDbEntity
  8
0
  6
Continuous
 62
     7
370
    15
100
AcDbPolyline
 90
        9
 70
   128
 43
0.0
 10
263.0490886076
 20
497.2002743909
 10
263.0203831504
 20
497.1803291866
 10
262.9755248344
 20
497.173917962
 10
262.9157709452
 20
497.1812232563
 10
262.8427962335
 20
497.2020364532
 10
262.7586454181
 20
497.2357764074
 10
262.6656771899
 20
497.2815006205
 10
262.5664968072
 20
497.3379201421
 10
262.4638839188
 20
497.4034591743
  0
LWPOLYLINE
  5
1CD
330
1F
100
AcDbEntity
  8
0
  6
Continuous
 62
     7
370
    15
100
AcDbPolyline
 90
        9
 70
   128
 43
0.0
 10
252.8240817627
 20
539.6381928751
 10
252.8880962199
 20
539.741763396
 10
252.9529740131
 20
539.8356332609
 10
253.016898132
 20
539.9171649644
 10
253.0780757806
 20
539.9840711781
 10
253.1347928597
 20
540.034489257
 10
253.1854600674
 20
540.0669961402
 10
253.2286571367
 20
540.0806828567
 10
253.263173814
 20
540.0751694271
  0
SPLINE
  5
1CE
330
1F
100
AcDbEntity
  8
0
  6
Continuous
 62
     7
370
    15
100
AcDbSpline
210
0.0
220
0.0
230
1.0
 70
     8
 71
     3
 72
    14
 73
    10
 74
     0
 42
0.00000001
 43
0.00000001
 40
0.0
 40
0.0
 40
0.0
 40
0.0
 40
0.0621969610219594
 40
0.215764555131408
 40
0.3692821023717273
 40
0.5269932706822654
 40
0.6847104768401263
 40
0.8423235842926899
 40
1.0
 40
1.0
 40
1.0
 40
1.0
 10
253.2631738139812
 20
540.0751694270932
 30
0.0
 10
253.5478556608204
 20
539.9370732841454
 30
0.0
 10
254.5354320797967
 20
539.4580104431492
 30
0.0
 10
256.3465719055284
 20
538.8262090329345
 30
0.0
 10
258.7405616170988
 20
538.3407447586095
 30
0.0
 10
261.2237035409213
 20
538.2223102025295
 30
0.0
 10
263.710724519927
 20
538.473428558382
 30
0.0
 10
266.1215548392378
 20
539.0746737464325
 30
0.0
 10
267.5901345529045
 20
539.741626226847
 30
0.0
 10
268.3245718507591
 20
540.0751694270932
 30
0.0
  0
LWPOLYLINE
  5
1CF
330
1F
100
AcDbEntity
  8
0
  6
Continuous
 62
     7
370
    15
100
AcDbPolyline
 90
        9
 70
   128
 43
0.0
 10
268.3245718508
 20
540.0751694271
 10
268.359088528
 20
540.0806828567
 10
268.4022855973
 20
540.0669961402
 10
268.452952805
 20
540.034489257
 10
268.5096698842
 20
539.9840711781
 10
268.5708475328
 20
539.9171649644
 10
268.6347716516
 20
539.8356332609
 10
268.6996494448
 20
539.741763396
 10
268.763663902
 20
539.6381928751
  0
LWPOLYLINE
  5
1D0
330
1F
100
AcDbEntity
  8
0
  6
Continuous
 62
     7
370
    15
100
AcDbPolyline
 90
        9
 70
   128
 43
0.0
 10
271.7729198775
 20
538.1890102455
 10
271.8938074103
 20
538.2035388777
 10
272.0076466939
 20
538.2113396355
 10
272.1112460858
 20
538.2121964523
 10
272.2017026535
 20
538.2060869762
 10
272.276481337
 20
538.1931751201
 10
272.3334866604
 20
538.1738259622
 10
272.3711214057
 20
538.1485908458
 10
272.3883303842
 20
538.1181626746
  0
SPLINE
  5
1D1
330
1F
100
AcDbEntity
  8
0
  6
Continuous
 62
     7
370
    15
100
AcDbSpline
210
0.0
220
0.0
230
1.0
 70
     8
 71
     3
 72
    14
 73
    10
 74
     0
 42
0.00000001
 43
0.00000001
 40
0.0
 40
0.0
 40
0.0
 40
0.0
 40
0.0621967599939145
 40
0.2157645693335241
 40
0.3692818806310841
 40
0.5269933343132196
 40
0.6847103099654783
 40
0.8423235186082477
 40
1.0
 40
1.0
 40
1.0
 40
1.0
 10
272.3883303842071
 20
538.1181626746022
 30
0.0
 10
272.4578590320767
 20
537.8094892310479
 30
0.0
 10
272.6990583930303
 20
536.7386811596994
 30
0.0
 10
273.3343215414392
 20
534.9287539482139
 30
0.0
 10
274.4474030544563
 20
532.7543773153701
 30
0.0
 10
275.9030167346942
 20
530.7391353990032
 30
0.0
 10
277.6499796645015
 20
528.9512719433812
 30
0.0
 10
279.6231803677172
 20
527.4412809653843
 30
0.0
 10
281.060269556616
 20
526.708936914062
 30
0.0
 10
281.7789583495382
 20
526.3426914045178
 30
0.0
  0
LWPOLYLINE
  5
1D2
330
1F
100
AcDbEntity
  8
0
  6
Continuous
 62
     7
370
    15
100
AcDbPolyline
 90
        9
 70
   128
 43
0.0
 10
281.7789583495
 20
526.3426914045
 10
281.8047913751
 20
526.3191401193
 10
281.8210224649
 20
526.2768357226
 10
281.8271971336
 20
526.2169554064
 10
281.8231440178
 20
526.1411755511
 10
281.8089748761
 20
526.0516270229
 10
281.7850864521
 20
525.9508206674
 10
281.7521492979
 20
525.8415728041
 10
281.7110872856
 20
525.7269456217
  0
LWPOLYLINE
  5
1D3
330
1F
100
AcDbEntity
  8
0
  6
Continuous
 62
     7
370
    15
100
AcDbPolyline
 90
        9
 70
   128
 43
0.0
 10
259.123861746
 20
497.4034591743
 10
259.0212488575
 20
497.3379201421
 10
258.9220684749
 20
497.2815006205
 10
258.8291002466
 20
497.2357764074
 10
258.7449494312
 20
497.2020364532
 10
258.6719747196
 20
497.1812232563
 10
258.6122208303
 20
497.173917962
 10
258.5673625144
 20
497.1803291866
 10
258.5386570571
 20
497.2002743909
  0
SPLINE
  5
1D4
330
1F
100
AcDbEntity
  8
0
  6
Continuous
 62
     7
370
    15
100
AcDbSpline
210
0.0
220
0.0
230
1.0
 70
     8
 71
     3
 72
    14
 73
    10
 74
     0
 42
0.00000001
 43
0.00000001
 40
0.0
 40
0.0
 40
0.0
 40
0.0
 40
0.0621970275101278
 40
0.2157645414974955
 40
0.3692820774470747
 40
0.5269932922762802
 40
0.6847104394801513
 40
0.8423236093731881
 40
1.0
 40
1.0
 40
1.0
 40
1.0
 10
258.5386570571486
 20
497.2002743908727
 30
0.0
 10
258.3420851635795
 20
497.4482139453954
 30
0.0
 10
257.6601676156658
 20
498.3083284306412
 30
0.0
 10
256.30251355218
 20
499.6633838086346
 30
0.0
 10
254.3562377704051
 20
501.1394840062193
 30
0.0
 10
252.1703910099745
 20
502.3235834636112
 30
0.0
 10
249.8207092371745
 20
503.1764206403485
 30
0.0
 10
247.3877543961376
 20
503.6807324604678
 30
0.0
 10
245.7752299891802
 20
503.7170225158079
 30
0.0
 10
244.9688061168912
 20
503.735171181854
 30
0.0
  0
LWPOLYLINE
  5
1D5
330
1F
100
AcDbEntity
  8
0
  6
Continuous
 62
     7
370
    15
100
AcDbPolyline
 90
        9
 70
   128
 43
0.0
 10
244.9688061169
 20
503.7351711819
 10
244.9353138945
 20
503.7451773116
 10
244.9023338995
 20
503.7762536833
 10
244.8707900038
 20
503.8275248536
 10
244.8415632388
 20
503.897556586
 10
244.8154750309
 20
503.984381927
 10
244.7932573995
 20
504.0855757126
 10
244.7755306056
 20
504.1982955465
 10
244.7627938381
 20
504.3193861076
  0
LWPOLYLINE
  5
1D6
330
1F
100
AcDbEntity
  8
0
  6
Continuous
 62
     7
370
    15
100
AcDbPolyline
 90
        9
 70
   128
 43
0.0
 10
239.8766583791
 20
525.7269456217
 10
239.8355963668
 20
525.8415728041
 10
239.8026592127
 20
525.9508206674
 10
239.7787707886
 20
526.0516270229
 10
239.764601647
 20
526.1411755511
 10
239.7605485311
 20
526.2169554064
 10
239.7667231998
 20
526.2768357226
 10
239.7829542896
 20
526.3191401193
 10
239.8087873152
 20
526.3426914045
  0
SPLINE
  5
1D7
330
1F
100
AcDbEntity
  8
0
  6
Continuous
 62
     7
370
    15
100
AcDbSpline
210
0.0
220
0.0
230
1.0
 70
     8
 71
     3
 72
    14
 73
    10
 74
     0
 42
0.00000001
 43
0.00000001
 40
0.0
 40
0.0
 40
0.0
 40
0.0
 40
0.062196943084285
 40
0.2157645200305921
 40
0.3692822590828279
 40
0.5269933953410263
 40
0.6847106540656319
 40
0.8423235682725272
 40
1.0
 40
1.0
 40
1.0
 40
1.0
 10
239.8087873152021
 20
526.3426914045178
 30
0.0
 10
240.0942512222677
 20
526.4791630950511
 30
0.0
 10
241.0845407741289
 20
526.9525906840208
 30
0.0
 10
242.7077313234259
 20
527.9746740546259
 30
0.0
 10
244.5799059670945
 20
529.5436944159223
 30
0.0
 10
246.2207170242513
 20
531.4112485172337
 30
0.0
 10
247.5750210285895
 20
533.5122452618785
 30
0.0
 10
248.6080755402785
 20
535.7719775004397
 30
0.0
 10
249.0022755622158
 20
537.3359959219406
 30
0.0
 10
249.1994152805332
 20
538.1181626746022
 30
0.0
  0
LWPOLYLINE
  5
1D8
330
1F
100
AcDbEntity
  8
0
  6
Continuous
 62
     7
370
    15
100
AcDbPolyline
 90
        9
 70
   128
 43
0.0
 10
249.1994152805
 20
538.1181626746
 10
249.2166242591
 20
538.1485908458
 10
249.2542590043
 20
538.1738259622
 10
249.3112643278
 20
538.1931751201
 10
249.3860430113
 20
538.2060869762
 10
249.476499579
 20
538.2121964523
 10
249.5800989708
 20
538.2113396355
 10
249.6939382544
 20
538.2035388777
 10
249.8148257873
 20
538.1890102455
  0
LWPOLYLINE
  5
1D9
330
1F
100
AcDbEntity
  8
0
  6
Continuous
 62
     7
370
    15
100
AcDbPolyline
 90
        9
 70
   128
 43
0.0
 10
242.6803248963
 20
506.9307214746
 10
242.5651053926
 20
506.9700828919
 10
242.4591562739
 20
507.0124468932
 10
242.3654447338
 20
507.0566251108
 10
242.286597102
 20
507.1013807484
 10
242.2248262009
 20
507.1454583833
 10
242.1818587026
 20
507.1876212189
 10
242.1589016011
 20
507.2266883382
 10
242.1565975091
 20
507.2615682313
  0
SPLINE
  5
1DA
330
1F
100
AcDbEntity
  8
0
  6
Continuous
 62
     7
370
    15
100
AcDbSpline
210
0.0
220
0.0
230
1.0
 70
     8
 71
     3
 72
    14
 73
    10
 74
     0
 42
0.00000001
 43
0.00000001
 40
0.0
 40
0.0
 40
0.0
 40
0.0
 40
0.062196924340606
 40
0.2157645763921096
 40
0.3692820408091351
 40
0.526993156634253
 40
0.6847104411194247
 40
0.8423237211747082
 40
1.0
 40
1.0
 40
1.0
 40
1.0
 10
242.1565975090984
 20
507.261568231281
 30
0.0
 10
242.2278839918156
 20
507.5698414632706
 30
0.0
 10
242.4751807497989
 20
508.6392583840981
 30
0.0
 10
242.6881187260825
 20
510.5455784279931
 30
0.0
 10
242.6287011116589
 20
512.9875709395259
 30
0.0
 10
242.1916110996967
 20
515.434807805411
 30
0.0
 10
241.3933852646337
 20
517.8035990278088
 30
0.0
 10
240.2707508780628
 20
520.0201944788114
 30
0.0
 10
239.2937296767685
 20
521.3035419067198
 30
0.0
 10
238.8051214656356
 20
521.9453438350522
 30
0.0
  0
LWPOLYLINE
  5
1DB
330
1F
100
AcDbEntity
  8
0
  6
Continuous
 62
     7
370
    15
100
AcDbPolyline
 90
        9
 70
   128
 43
0.0
 10
238.8051214656
 20
521.9453438351
 10
238.7920643231
 20
521.9777687618
 10
238.795797064
 20
522.0229267308
 10
238.8162135175
 20
522.0795585939
 10
238.8527455768
 20
522.1460699269
 10
238.9043650618
 20
522.2206055352
 10
238.9696265599
 20
522.3010718057
 10
239.0467028162
 20
522.3852112123
 10
239.1334331623
 20
522.4706619212
  0
SPLINE
  5
1DC
330
1F
100
AcDbEntity
  8
0
  6
Continuous
 62
     7
370
    15
100
AcDbSpline
210
0.0
220
0.0
230
1.0
 70
     8
 71
     3
 72
    11
 73
     7
 74
     0
 42
0.00000001
 43
0.00000001
 40
0.0
 40
0.0
 40
0.0
 40
0.0
 40
0.3340924351088149
 40
0.6236911309547905
 40
0.918511843620822
 40
1.0
 40
1.0
 40
1.0
 40
1.0
 10
282.454312502456
 20
522.4706619211995
 30
0.0
 10
282.8541292129908
 20
522.8606786910385
 30
0.0
 10
283.6005158717813
 20
523.588770604263
 30
0.0
 10
284.5234296537975
 20
524.3460368979216
 30
0.0
 10
284.9631130990796
 20
524.6837785641128
 30
0.0
 10
285.0770692015153
 20
524.7693514361206
 30
0.0
 10
285.1017459324125
 20
524.78788189381
 30
0.0
  0
SPLINE
  5
1DD
330
1F
100
AcDbEntity
  8
0
  6
Continuous
 62
     7
370
    15
100
AcDbSpline
210
0.0
220
0.0
230
1.0
 70
     8
 71
     3
 72
    10
 73
     6
 74
     0
 42
0.00000001
 43
0.00000001
 40
0.0
 40
0.0
 40
0.0
 40
0.0
 40
0.0181618374043274
 40
0.9946470608199028
 40
1.0
 40
1.0
 40
1.0
 40
1.0
 10
285.1017459324125
 20
524.78788189381
 30
0.0
 10
285.1025327647848
 20
524.7880607642144
 30
0.0
 10
285.1456242477123
 20
524.7978567401373
 30
0.0
 10
285.1873623874484
 20
524.8071945914
 30
0.0
 10
285.166295273056
 20
524.8026143113967
 30
0.0
 10
285.1661804160598
 20
524.8025893399083
 30
0.0
  0
SPLINE
  5
1DE
330
1F
100
AcDbEntity
  8
0
  6
Continuous
 62
     7
370
    15
100
AcDbSpline
210
0.0
220
0.0
230
1.0
 70
     8
 71
     3
 72
    11
 73
     7
 74
     0
 42
0.00000001
 43
0.00000001
 40
0.0
 40
0.0
 40
0.0
 40
0.0
 40
0.2289938217920286
 40
0.4754110241032725
 40
0.7174854338845255
 40
0.9999999999999999
 40
0.9999999999999999
 40
0.9999999999999999
 40
0.9999999999999999
 10
284.9025472095731
 20
524.0734755226933
 30
0.0
 10
284.8885867694776
 20
524.0622132794061
 30
0.0
 10
284.8596036856948
 20
524.0388318860875
 30
0.0
 10
284.4037662793254
 20
523.6453320758201
 30
0.0
 10
283.67564343703
 20
522.9636462528945
 30
0.0
 10
283.0952122741195
 20
522.3017854200239
 30
0.0
 10
282.7826241991046
 20
521.9453438350522
 30
0.0
  0
SPLINE
  5
1DF
330
1F
100
AcDbEntity
  8
0
  6
Continuous
 62
     7
370
    15
100
AcDbSpline
210
0.0
220
0.0
230
1.0
 70
     8
 71
     3
 72
    11
 73
     7
 74
     0
 42
0.00000001
 43
0.00000001
 40
0.0
 40
0.0
 40
0.0
 40
0.0
 40
0.199042135647422
 40
0.4636329451551787
 40
0.7350874260487358
 40
1.0
 40
1.0
 40
1.0
 40
1.0
 10
285.1017459324125
 20
524.78788189381
 30
0.0
 10
285.0134333119087
 20
524.8053367295158
 30
0.0
 10
284.8077249064729
 20
524.8459946377477
 30
0.0
 10
284.0666896550869
 20
525.0101711489614
 30
0.0
 10
282.9830912912282
 20
525.2923530105563
 30
0.0
 10
282.1316269362941
 20
525.5832641363369
 30
0.0
 10
281.7110872855905
 20
525.7269456216657
 30
0.0
  0
SPLINE
  5
1E0
330
1F
100
AcDbEntity
  8
0
  6
Continuous
 62
     7
370
    15
100
AcDbSpline
210
0.0
220
0.0
230
1.0
 70
     8
 71
     3
 72
    12
 73
     8
 74
     0
 42
0.00000001
 43
0.00000001
 40
0.0
 40
0.0
 40
0.0
 40
0.0
 40
0.2490763053212838
 40
0.501264592613207
 40
0.7464895462322845
 40
0.9925856528722852
 40
1.0
 40
1.0
 40
1.0
 40
1.0
 10
281.7789583495382
 20
526.3426914045178
 30
0.0
 10
282.1246133044564
 20
526.1931877916305
 30
0.0
 10
282.8202418586793
 20
525.892312654144
 30
0.0
 10
283.7273059681287
 20
525.5902546984906
 30
0.0
 10
284.3330943980727
 20
525.4154159052201
 30
0.0
 10
284.6251955745034
 20
525.3417425511643
 30
0.0
 10
284.5981367334126
 20
525.3487141665154
 30
0.0
 10
284.597345351291
 20
525.3489180633389
 30
0.0
  0
SPLINE
  5
1E1
330
1F
100
AcDbEntity
  8
0
  6
Continuous
 62
     7
370
    15
100
AcDbSpline
210
0.0
220
0.0
230
1.0
 70
     8
 71
     3
 72
    11
 73
     7
 74
     0
 42
0.00000001
 43
0.00000001
 40
0.0
 40
0.0
 40
0.0
 40
0.0
 40
0.1990420811346977
 40
0.4636328849613384
 40
0.7350870857532081
 40
1.0
 40
1.0
 40
1.0
 40
1.0
 10
280.2872738829378
 20
503.6943010219895
 30
0.0
 10
280.2458598594188
 20
503.7742299950737
 30
0.0
 10
280.1493933077605
 20
503.9604102247608
 30
0.0
 10
279.8157180676595
 20
504.6421351831137
 30
0.0
 10
279.3607215790067
 20
505.6652619270211
 30
0.0
 10
279.0572875245991
 20
506.5123451712271
 30
0.0
 10
278.907420768452
 20
506.9307214745843
 30
0.0
  0
SPLINE
  5
1E2
330
1F
100
AcDbEntity
  8
0
  6
Continuous
 62
     7
370
    15
100
AcDbSpline
210
0.0
220
0.0
230
1.0
 70
     8
 71
     3
 72
    11
 73
     7
 74
     0
 42
0.00000001
 43
0.00000001
 40
0.0
 40
0.0
 40
0.0
 40
0.0
 40
0.3340919163004082
 40
0.6236911814627838
 40
0.9185119304856121
 40
1.0
 40
1.0
 40
1.0
 40
1.0
 10
276.8249518266443
 20
504.3193861076199
 30
0.0
 10
277.379159140683
 20
504.2499660630514
 30
0.0
 10
278.4137672757608
 20
504.1203709800766
 30
0.0
 10
279.5812523116371
 20
503.8709597786647
 30
0.0
 10
280.1194507034356
 20
503.7377803063038
 30
0.0
 10
280.2574012750754
 20
503.7020403558188
 30
0.0
 10
280.2872738829378
 20
503.6943010219895
 30
0.0
  0
SPLINE
  5
1E3
330
1F
100
AcDbEntity
  8
0
  6
Continuous
 62
     7
370
    15
100
AcDbSpline
210
0.0
220
0.0
230
1.0
 70
     8
 71
     3
 72
     9
 73
     5
 74
     0
 42
0.00000001
 43
0.00000001
 40
0.0
 40
0.0
 40
0.0
 40
0.0
 40
0.0183588152733782
 40
1.0
 40
1.0
 40
1.0
 40
1.0
 10
271.6118942043308
 20
541.7036204764211
 30
0.0
 10
271.6122457018627
 20
541.7043515468656
 30
0.0
 10
271.6313916830506
 20
541.7441727680925
 30
0.0
 10
271.6360231690246
 20
541.7537571210045
 30
0.0
 10
271.6405696264032
 20
541.7631655165517
 30
0.0
  0
SPLINE
  5
1E4
330
1F
100
AcDbEntity
  8
0
  6
Continuous
 62
     7
370
    15
100
AcDbSpline
210
0.0
220
0.0
230
1.0
 70
     8
 71
     3
 72
    11
 73
     7
 74
     0
 42
0.00000001
 43
0.00000001
 40
0.0
 40
0.0
 40
0.0
 40
0.0
 40
0.1990421250522728
 40
0.4636326403712385
 40
0.7350869755496005
 40
1.0
 40
1.0
 40
1.0
 40
1.0
 10
271.6118942043308
 20
541.7036204764211
 30
0.0
 10
271.5431844113425
 20
541.6454586844216
 30
0.0
 10
271.3831373723843
 20
541.5099813065232
 30
0.0
 10
270.7927553703718
 20
541.0329788258244
 30
0.0
 10
269.8965254899097
 20
540.3617223462238
 30
0.0
 10
269.1382016986292
 20
539.8774005036331
 30
0.0
 10
268.7636639019969
 20
539.6381928750836
 30
0.0
  0
SPLINE
  5
1E5
330
1F
100
AcDbEntity
  8
0
  6
Continuous
 62
     7
370
    15
100
AcDbSpline
210
0.0
220
0.0
230
1.0
 70
     8
 71
     3
 72
    12
 73
     8
 74
     0
 42
0.00000001
 43
0.00000001
 40
0.0
 40
0.0
 40
0.0
 40
0.0
 40
0.2490757515066054
 40
0.5012647686699888
 40
0.746489320350397
 40
0.9925856860312992
 40
0.9999999999999999
 40
0.9999999999999999
 40
0.9999999999999999
 40
0.9999999999999999
 10
268.3245718507591
 20
540.0751694270932
 30
0.0
 10
268.6569697989018
 20
540.2521985406074
 30
0.0
 10
269.3259204276734
 20
540.6084695027419
 30
0.0
 10
270.1276233407647
 20
541.129310548687
 30
0.0
 10
270.6420234734205
 20
541.4939374717114
 30
0.0
 10
270.881728712571
 20
541.676333707072
 30
0.0
 10
270.8594232491006
 20
541.6595566748429
 30
0.0
 10
270.8587708911422
 20
541.6590660044515
 30
0.0
  0
SPLINE
  5
1E6
330
1F
100
AcDbEntity
  8
0
  6
Continuous
 62
     7
370
    15
100
AcDbSpline
210
0.0
220
0.0
230
1.0
 70
     8
 71
     3
 72
    10
 73
     6
 74
     0
 42
0.00000001
 43
0.00000001
 40
0.0
 40
0.0
 40
0.0
 40
0.0
 40
0.018161862257497
 40
0.9946472574863613
 40
1.0
 40
1.0
 40
1.0
 40
1.0
 10
280.2872738829378
 20
503.6943010219895
 30
0.0
 10
280.2879048460363
 20
503.6937979766153
 30
0.0
 10
280.3224599872792
 20
503.6662483401937
 30
0.0
 10
280.3558688021078
 20
503.6397371700614
 30
0.0
 10
280.3390372833654
 20
503.6530194489568
 30
0.0
 10
280.3389455220226
 20
503.6530918607079
 30
0.0
  0
SPLINE
  5
1E7
330
1F
100
AcDbEntity
  8
0
  6
Continuous
 62
     7
370
    15
100
AcDbSpline
210
0.0
220
0.0
230
1.0
 70
     8
 71
     3
 72
    11
 73
     7
 74
     0
 42
0.00000001
 43
0.00000001
 40
0.0
 40
0.0
 40
0.0
 40
0.0
 40
0.2289938797433476
 40
0.4754110566375621
 40
0.717485576357095
 40
1.0
 40
1.0
 40
1.0
 40
1.0
 10
279.6045287540678
 20
503.4046149978005
 30
0.0
 10
279.5870191875695
 20
503.4085079384238
 30
0.0
 10
279.5506678164344
 20
503.4165900191205
 30
0.0
 10
278.9588081632234
 20
503.5276307687927
 30
0.0
 10
277.971867863672
 20
503.671881648779
 30
0.0
 10
277.0925118051338
 20
503.7130176304129
 30
0.0
 10
276.618939547849
 20
503.735171181854
 30
0.0
  0
SPLINE
  5
1E8
330
1F
100
AcDbEntity
  8
0
  6
Continuous
 62
     7
370
    15
100
AcDbSpline
210
0.0
220
0.0
230
1.0
 70
     8
 71
     3
 72
    11
 73
     7
 74
     0
 42
0.00000001
 43
0.00000001
 40
0.0
 40
0.0
 40
0.0
 40
0.0
 40
0.334091817324204
 40
0.623690943296087
 40
0.9185120143013433
 40
1.0
 40
1.0
 40
1.0
 40
1.0
 10
271.7729198774818
 20
538.1890102454984
 30
0.0
 10
271.7172759357644
 20
538.744769931506
 30
0.0
 10
271.6133984365296
 20
539.7822759847464
 30
0.0
 10
271.5967687902453
 20
540.9759858860657
 30
0.0
 10
271.6068446657052
 20
541.5303335653421
 30
0.0
 10
271.6109953852184
 20
541.6727753637972
 30
0.0
 10
271.6118942043308
 20
541.7036204764211
 30
0.0
  0
SPLINE
  5
1E9
330
1F
100
AcDbEntity
  8
0
  6
Continuous
 62
     7
370
    15
100
AcDbSpline
210
0.0
220
0.0
230
1.0
 70
     8
 71
     3
 72
    11
 73
     7
 74
     0
 42
0.00000001
 43
0.00000001
 40
0.0
 40
0.0
 40
0.0
 40
0.0
 40
0.2289936345936227
 40
0.4754113006758381
 40
0.7174847985427333
 40
1.0
 40
1.0
 40
1.0
 40
1.0
 10
272.0462425640348
 20
541.1024554797971
 30
0.0
 10
272.046343344795
 20
541.0845210840562
 30
0.0
 10
272.0465525746822
 20
541.0472876717776
 30
0.0
 10
272.069994256085
 20
540.4455449304522
 30
0.0
 10
272.1489785511276
 20
539.4512587872771
 30
0.0
 10
272.3045486910742
 20
538.5847939428561
 30
0.0
 10
272.3883303842071
 20
538.1181626746022
 30
0.0
  0
SPLINE
  5
1EA
330
1F
100
AcDbEntity
  8
0
  6
Continuous
 62
     7
370
    15
100
AcDbSpline
210
0.0
220
0.0
230
1.0
 70
     8
 71
     3
 72
    12
 73
     8
 74
     0
 42
0.00000001
 43
0.00000001
 40
0.0
 40
0.0
 40
0.0
 40
0.0
 40
0.2490763176730058
 40
0.5012646806068488
 40
0.7464893496778395
 40
0.9925856375166504
 40
1.0
 40
1.0
 40
1.0
 40
1.0
 10
279.4311481556419
 20
507.261568231281
 30
0.0
 10
279.5297743238723
 20
506.8981107610833
 30
0.0
 10
279.7282589296323
 20
506.1666546579302
 30
0.0
 10
280.057643037837
 20
505.269149213914
 30
0.0
 10
280.2986548652992
 20
504.686528478828
 30
0.0
 10
280.4231813652493
 20
504.4121993291615
 30
0.0
 10
280.4117534126023
 20
504.4377114158222
 30
0.0
 10
280.411419182134
 20
504.4384575614297
 30
0.0
  0
SPLINE
  5
1EB
330
1F
100
AcDbEntity
  8
0
  6
Continuous
 62
     7
370
    15
100
AcDbSpline
210
0.0
220
0.0
230
1.0
 70
     8
 71
     3
 72
    11
 73
     7
 74
     0
 42
0.00000001
 43
0.00000001
 40
0.0
 40
0.0
 40
0.0
 40
0.0
 40
0.1990422515843392
 40
0.4636330309500357
 40
0.7350875501870076
 40
1.0
 40
1.0
 40
1.0
 40
1.0
 10
260.7938728323701
 20
494.3067743608319
 30
0.0
 10
260.8305428120169
 20
494.3889885679438
 30
0.0
 10
260.9159589167542
 20
494.5804917373815
 30
0.0
 10
261.2409091614555
 20
495.266415775583
 30
0.0
 10
261.7571370604319
 20
496.2600559173392
 30
0.0
 10
262.2302250511664
 20
497.0254365385275
 30
0.0
 10
262.4638839187596
 20
497.4034591743314
 30
0.0
  0
SPLINE
  5
1EC
330
1F
100
AcDbEntity
  8
0
  6
Continuous
 62
     7
370
    15
100
AcDbSpline
210
0.0
220
0.0
230
1.0
 70
     8
 71
     3
 72
    11
 73
     7
 74
     0
 42
0.00000001
 43
0.00000001
 40
0.0
 40
0.0
 40
0.0
 40
0.0
 40
0.3340921289522448
 40
0.6236910871773148
 40
0.9185119105666454
 40
1.0
 40
1.0
 40
1.0
 40
1.0
 10
259.1238617459807
 20
497.4034591743314
 30
0.0
 10
259.41513059358
 20
496.9268797496541
 30
0.0
 10
259.9588781664121
 20
496.0371900091758
 30
0.0
 10
260.4917933098141
 20
494.9689098271863
 30
0.0
 10
260.7232331342108
 20
494.4650941791131
 30
0.0
 10
260.7812989316832
 20
494.334955365617
 30
0.0
 10
260.7938728323701
 20
494.3067743608319
 30
0.0
  0
SPLINE
  5
1ED
330
1F
100
AcDbEntity
  8
0
  6
Continuous
 62
     7
370
    15
100
AcDbSpline
210
0.0
220
0.0
230
1.0
 70
    24
 71
     3
 72
     9
 73
     5
 74
     0
 42
0.00000001
 43
0.00000001
 40
0.0
 40
0.0
 40
0.0
 40
0.0
 40
0.0183586473057796
 40
0.9999999999999999
 40
0.9999999999999999
 40
0.9999999999999999
 40
0.9999999999999999
 10
260.7938728323701
 20
494.3067743608319
 30
0.0
 10
260.79387283237
 20
494.3059634489273
 30
0.0
 10
260.7938728323631
 20
494.2617928795454
 30
0.0
 10
260.7938728323666
 20
494.2511406523552
 30
0.0
 10
260.79387283237
 20
494.2406839856469
 30
0.0
  0
SPLINE
  5
1EE
330
1F
100
AcDbEntity
  8
0
  6
Continuous
 62
     7
370
    15
100
AcDbSpline
210
0.0
220
0.0
230
1.0
 70
     8
 71
     3
 72
    12
 73
     8
 74
     0
 42
0.00000001
 43
0.00000001
 40
0.0
 40
0.0
 40
0.0
 40
0.0
 40
0.2490762581377144
 40
0.5012644372065106
 40
0.7464893702873059
 40
0.9925856547994681
 40
1.0
 40
1.0
 40
1.0
 40
1.0
 10
263.0490886075917
 20
497.2002743908727
 30
0.0
 10
262.8264194226834
 20
496.8965525266744
 30
0.0
 10
262.3782990578971
 20
496.285314143446
 30
0.0
 10
261.8819693090976
 20
495.4682105287534
 30
0.0
 10
261.5767091302943
 20
494.9165177703339
 30
0.0
 10
261.4399151398947
 20
494.6481198740651
 30
0.0
 10
261.4527062004634
 20
494.6729591854255
 30
0.0
 10
261.4530802965659
 20
494.673685652908
 30
0.0
  0
SPLINE
  5
1EF
330
1F
100
AcDbEntity
  8
0
  6
Continuous
 62
     7
370
    15
100
AcDbSpline
210
0.0
220
0.0
230
1.0
 70
     8
 71
     3
 72
    11
 73
     7
 74
     0
 42
0.00000001
 43
0.00000001
 40
0.0
 40
0.0
 40
0.0
 40
0.0
 40
0.2289938039175486
 40
0.4754111595813252
 40
0.717485478883716
 40
1.0
 40
1.0
 40
1.0
 40
1.0
 10
260.1417023251328
 20
494.6599505075776
 30
0.0
 10
260.1338290883745
 20
494.6760656364073
 30
0.0
 10
260.1174835604478
 20
494.7095220529244
 30
0.0
 10
259.8352824081917
 20
495.2414955636442
 30
0.0
 10
259.3327126799585
 20
496.1030514944193
 30
0.0
 10
258.8166044114889
 20
496.8162078438572
 30
0.0
 10
258.5386570571486
 20
497.2002743908727
 30
0.0
  0
SPLINE
  5
1F0
330
1F
100
AcDbEntity
  8
0
  6
Continuous
 62
     7
370
    15
100
AcDbSpline
210
0.0
220
0.0
230
1.0
 70
     8
 71
     3
 72
    11
 73
     7
 74
     0
 42
0.00000001
 43
0.00000001
 40
0.0
 40
0.0
 40
0.0
 40
0.0
 40
0.3340922237528796
 40
0.6236913802336564
 40
0.918511848809832
 40
1.0
 40
1.0
 40
1.0
 40
1.0
 10
252.8240817627433
 20
539.6381928750836
 30
0.0
 10
252.3548776059358
 20
539.9411995639205
 30
0.0
 10
251.4789560269075
 20
540.5068597216391
 30
0.0
 10
250.535306518211
 20
541.2381303585363
 30
0.0
 10
250.1081881160574
 20
541.5916226425617
 30
0.0
 10
249.999407479341
 20
541.6836847822494
 30
0.0
 10
249.9758514604095
 20
541.7036204764211
 30
0.0
  0
SPLINE
  5
1F1
330
1F
100
AcDbEntity
  8
0
  6
Continuous
 62
     7
370
    15
100
AcDbSpline
210
0.0
220
0.0
230
1.0
 70
     8
 71
     3
 72
    10
 73
     6
 74
     0
 42
0.00000001
 43
0.00000001
 40
0.0
 40
0.0
 40
0.0
 40
0.0
 40
0.0053533669469315
 40
0.981837747629147
 40
1.0
 40
1.0
 40
1.0
 40
1.0
 10
249.9471760383371
 20
541.7631655165517
 30
0.0
 10
249.9471248520353
 20
541.7632728804264
 30
0.0
 10
249.9377369950576
 20
541.7829640216978
 30
0.0
 10
249.9563371978775
 20
541.7442069297547
 30
0.0
 10
249.9755015197978
 20
541.7043482952811
 30
0.0
 10
249.9758514604095
 20
541.7036204764211
 30
0.0
  0
SPLINE
  5
1F2
330
1F
100
AcDbEntity
  8
0
  6
Continuous
 62
     7
370
    15
100
AcDbSpline
210
0.0
220
0.0
230
1.0
 70
     8
 71
     3
 72
    11
 73
     7
 74
     0
 42
0.00000001
 43
0.00000001
 40
0.0
 40
0.0
 40
0.0
 40
0.0
 40
0.2289938278432107
 40
0.4754111248339498
 40
0.7174855504157704
 40
1.0
 40
1.0
 40
1.0
 40
1.0
 10
250.7166738650325
 20
541.6683866807782
 30
0.0
 10
250.7307600324504
 20
541.6572834354164
 30
0.0
 10
250.7600041424764
 20
541.6342321312984
 30
0.0
 10
251.2450721067269
 20
541.277383983476
 30
0.0
 10
252.071687299825
 20
540.7192045163931
 30
0.0
 10
252.8461117769266
 20
540.3006042793444
 30
0.0
 10
253.2631738139812
 20
540.0751694270932
 30
0.0
  0
SPLINE
  5
1F3
330
1F
100
AcDbEntity
  8
0
  6
Continuous
 62
     7
370
    15
100
AcDbSpline
210
0.0
220
0.0
230
1.0
 70
     8
 71
     3
 72
    11
 73
     7
 74
     0
 42
0.00000001
 43
0.00000001
 40
0.0
 40
0.0
 40
0.0
 40
0.0
 40
0.1990422061820682
 40
0.4636329246606589
 40
0.7350870962311044
 40
1.0
 40
1.0
 40
1.0
 40
1.0
 10
249.9758514604095
 20
541.7036204764211
 30
0.0
 10
249.9784844536431
 20
541.6136372950132
 30
0.0
 10
249.9846175365552
 20
541.4040377012053
 30
0.0
 10
249.9894586719725
 20
540.6450504941957
 30
0.0
 10
249.9554768792933
 20
539.5258295533131
 30
0.0
 10
249.8613267484465
 20
538.6309789629018
 30
0.0
 10
249.8148257872585
 20
538.1890102454984
 30
0.0
  0
SPLINE
  5
1F4
330
1F
100
AcDbEntity
  8
0
  6
Continuous
 62
     7
370
    15
100
AcDbSpline
210
0.0
220
0.0
230
1.0
 70
     8
 71
     3
 72
    12
 73
     8
 74
     0
 42
0.00000001
 43
0.00000001
 40
0.0
 40
0.0
 40
0.0
 40
0.0
 40
0.2490762441657061
 40
0.5012645355304062
 40
0.7464894361675414
 40
0.9925856691219641
 40
1.0
 40
1.0
 40
1.0
 40
1.0
 10
249.1994152805332
 20
538.1181626746022
 30
0.0
 10
249.2682539732775
 20
538.4884192108848
 30
0.0
 10
249.4067914538813
 20
539.2335584003262
 30
0.0
 10
249.4994378027848
 20
540.1850925360711
 30
0.0
 10
249.5351003689663
 20
540.8146037930583
 30
0.0
 10
249.5418871584748
 20
541.1157607318464
 30
0.0
 10
249.5411457365149
 20
541.0878418604175
 30
0.0
 10
249.5411240524176
 20
541.0870253273808
 30
0.0
  0
SPLINE
  5
1F5
330
1F
100
AcDbEntity
  8
0
  6
Continuous
 62
     7
370
    15
100
AcDbSpline
210
0.0
220
0.0
230
1.0
 70
     8
 71
     3
 72
     9
 73
     5
 74
     0
 42
0.00000001
 43
0.00000001
 40
0.0
 40
0.0
 40
0.0
 40
0.0
 40
0.01835838341354
 40
1.0
 40
1.0
 40
1.0
 40
1.0
 10
236.4859997323278
 20
524.78788189381
 30
0.0
 10
236.4852094062509
 20
524.7880615382154
 30
0.0
 10
236.4421595331178
 20
524.7978469534895
 30
0.0
 10
236.4317679357574
 20
524.8002401139779
 30
0.0
 10
236.4215671113256
 20
524.8025893399083
 30
0.0
  0
SPLINE
  5
1F6
330
1F
100
AcDbEntity
  8
0
  6
Continuous
 62
     7
370
    15
100
AcDbSpline
210
0.0
220
0.0
230
1.0
 70
     8
 71
     3
 72
    11
 73
     7
 74
     0
 42
0.00000001
 43
0.00000001
 40
0.0
 40
0.0
 40
0.0
 40
0.0
 40
0.1990420501483557
 40
0.4636330763910596
 40
0.7350866204168816
 40
1.0
 40
1.0
 40
1.0
 40
1.0
 10
236.4859997323278
 20
524.78788189381
 30
0.0
 10
236.5579933264895
 20
524.7338389853995
 30
0.0
 10
236.7256896073346
 20
524.607955636304
 30
0.0
 10
237.322103672815
 20
524.1385064192691
 30
0.0
 10
238.1759635787368
 20
523.414127362192
 30
0.0
 10
238.8168816356647
 20
522.7825835015723
 30
0.0
 10
239.1334331622842
 20
522.4706619211995
 30
0.0
  0
SPLINE
  5
1F7
330
1F
100
AcDbEntity
  8
0
  6
Continuous
 62
     7
370
    15
100
AcDbSpline
210
0.0
220
0.0
230
1.0
 70
     8
 71
     3
 72
    12
 73
     8
 74
     0
 42
0.00000001
 43
0.00000001
 40
0.0
 40
0.0
 40
0.0
 40
0.0
 40
0.2490759011882569
 40
0.5012645744364242
 40
0.7464895123693046
 40
0.992585690695677
 40
1.0
 40
1.0
 40
1.0
 40
1.0
 10
238.8051214656356
 20
521.9453438350522
 30
0.0
 10
238.558563966091
 20
522.2300148614084
 30
0.0
 10
238.0623676681203
 20
522.8029145285382
 30
0.0
 10
237.3761908462923
 20
523.4686146969726
 30
0.0
 10
236.9062592991346
 20
523.8890151694794
 30
0.0
 10
236.6750277851215
 20
524.082028574999
 30
0.0
 10
236.6964011543709
 20
524.0640836278649
 30
0.0
 10
236.6970262518648
 20
524.0635587999188
 30
0.0
  0
SPLINE
  5
1F8
330
1F
100
AcDbEntity
  8
0
  6
Continuous
 62
     7
370
    15
100
AcDbSpline
210
0.0
220
0.0
230
1.0
 70
     8
 71
     3
 72
    11
 73
     7
 74
     0
 42
0.00000001
 43
0.00000001
 40
0.0
 40
0.0
 40
0.0
 40
0.0
 40
0.3340921822380208
 40
0.6236911435656123
 40
0.9185118483819183
 40
1.0
 40
1.0
 40
1.0
 40
1.0
 10
239.8766583791498
 20
525.7269456216657
 30
0.0
 10
239.3472146349603
 20
525.5490271991544
 30
0.0
 10
238.3588366009244
 20
525.2168849034138
 30
0.0
 10
237.1987527439869
 20
524.9350501171605
 30
0.0
 10
236.6560717407213
 20
524.8215249523975
 30
0.0
 10
236.5162726553967
 20
524.793870379123
 30
0.0
 10
236.4859997323278
 20
524.78788189381
 30
0.0
  0
SPLINE
  5
1F9
330
1F
100
AcDbEntity
  8
0
  6
Continuous
 62
     7
370
    15
100
AcDbSpline
210
0.0
220
0.0
230
1.0
 70
     8
 71
     3
 72
    11
 73
     7
 74
     0
 42
0.00000001
 43
0.00000001
 40
0.0
 40
0.0
 40
0.0
 40
0.0
 40
0.2289938554644664
 40
0.4754110911005628
 40
0.717485294204056
 40
1.0
 40
1.0
 40
1.0
 40
1.0
 10
236.9754414102558
 20
525.3451108166539
 30
0.0
 10
236.9929058445533
 20
525.3492013665805
 30
0.0
 10
237.0291635238173
 20
525.3576937027607
 30
0.0
 10
237.6105913296998
 20
525.5144466176163
 30
0.0
 10
238.5623812094848
 20
525.8126943248765
 30
0.0
 10
239.3725012574425
 20
526.1571737506488
 30
0.0
 10
239.8087873152021
 20
526.3426914045178
 30
0.0
  0
SPLINE
  5
1FA
330
1F
100
AcDbEntity
  8
0
  6
Continuous
 62
     7
370
    15
100
AcDbSpline
210
0.0
220
0.0
230
1.0
 70
     8
 71
     3
 72
    11
 73
     7
 74
     0
 42
0.00000001
 43
0.00000001
 40
0.0
 40
0.0
 40
0.0
 40
0.0
 40
0.334092198420632
 40
0.6236911016175625
 40
0.9185119429305665
 40
1.0
 40
1.0
 40
1.0
 40
1.0
 10
242.6803248962883
 20
506.9307214745843
 30
0.0
 10
242.4893231823371
 20
506.4058554760854
 30
0.0
 10
242.1327567316742
 20
505.4260233987342
 30
0.0
 10
241.6298074950536
 20
504.343312381733
 30
0.0
 10
241.380210190916
 20
503.8482387612899
 30
0.0
 10
241.3146652532861
 20
503.7217020064999
 30
0.0
 10
241.3004717818025
 20
503.6943010219895
 30
0.0
  0
SPLINE
  5
1FB
330
1F
100
AcDbEntity
  8
0
  6
Continuous
 62
     7
370
    15
100
AcDbSpline
210
0.0
220
0.0
230
1.0
 70
     8
 71
     3
 72
    10
 73
     6
 74
     0
 42
0.00000001
 43
0.00000001
 40
0.0
 40
0.0
 40
0.0
 40
0.0
 40
0.018161862257497
 40
0.9946472574863613
 40
1.0
 40
1.0
 40
1.0
 40
1.0
 10
241.3004717818025
 20
503.6943010219895
 30
0.0
 10
241.299840818704
 20
503.6937979766153
 30
0.0
 10
241.265285677461
 20
503.6662483401937
 30
0.0
 10
241.2318768626324
 20
503.6397371700614
 30
0.0
 10
241.2487083813749
 20
503.6530194489568
 30
0.0
 10
241.2488001427177
 20
503.6530918607079
 30
0.0
  0
SPLINE
  5
1FC
330
1F
100
AcDbEntity
  8
0
  6
Continuous
 62
     7
370
    15
100
AcDbSpline
210
0.0
220
0.0
230
1.0
 70
     8
 71
     3
 72
    11
 73
     7
 74
     0
 42
0.00000001
 43
0.00000001
 40
0.0
 40
0.0
 40
0.0
 40
0.0
 40
0.228993804611202
 40
0.4754110967057182
 40
0.7174853446471812
 40
0.9999999999999999
 40
0.9999999999999999
 40
0.9999999999999999
 40
0.9999999999999999
 10
241.1699748626474
 20
504.4243908652627
 30
0.0
 10
241.1776653849304
 20
504.4405942404382
 30
0.0
 10
241.19363157947
 20
504.4742338595345
 30
0.0
 10
241.4335957268082
 20
505.0265464761418
 30
0.0
 10
241.7938422575571
 20
505.9566418498124
 30
0.0
 10
242.0296204021725
 20
506.8047980647124
 30
0.0
 10
242.1565975090984
 20
507.261568231281
 30
0.0
  0
SPLINE
  5
1FD
330
1F
100
AcDbEntity
  8
0
  6
Continuous
 62
     7
370
    15
100
AcDbSpline
210
0.0
220
0.0
230
1.0
 70
     8
 71
     3
 72
    11
 73
     7
 74
     0
 42
0.00000001
 43
0.00000001
 40
0.0
 40
0.0
 40
0.0
 40
0.0
 40
0.199042253925186
 40
0.4636328835921302
 40
0.7350873817701381
 40
1.0
 40
1.0
 40
1.0
 40
1.0
 10
241.3004717818025
 20
503.6943010219895
 30
0.0
 10
241.3876131747015
 20
503.7168909849875
 30
0.0
 10
241.5905932679895
 20
503.7695102127066
 30
0.0
 10
242.3294717102308
 20
503.9431221002103
 30
0.0
 10
243.4281952476385
 20
504.1590390949559
 30
0.0
 10
244.3215596578208
 20
504.2663734765575
 30
0.0
 10
244.762793838096
 20
504.3193861076199
 30
0.0
  0
SPLINE
  5
1FE
330
1F
100
AcDbEntity
  8
0
  6
Continuous
 62
     7
370
    15
100
AcDbSpline
210
0.0
220
0.0
230
1.0
 70
     8
 71
     3
 72
    12
 73
     8
 74
     0
 42
0.00000001
 43
0.00000001
 40
0.0
 40
0.0
 40
0.0
 40
0.0
 40
0.2490761500213927
 40
0.5012644814494568
 40
0.746489395015337
 40
0.9925856533227744
 40
1.0
 40
1.0
 40
1.0
 40
1.0
 10
244.9688061168912
 20
503.735171181854
 30
0.0
 10
244.5925150933748
 20
503.7198933916089
 30
0.0
 10
243.8352313279045
 20
503.6891469166684
 30
0.0
 10
242.8869370771966
 20
503.5677345406968
 30
0.0
 10
242.2652797927853
 20
503.4624246192357
 30
0.0
 10
241.970148491523
 20
503.4020263421198
 30
0.0
 10
241.9975440841059
 20
503.4075166141294
 30
0.0
 10
241.9983453145746
 20
503.4076771864259
 30
0.0
  0
LINE
  5
1FF
330
1F
100
AcDbEntity
  8
0
  6
Continuous
 62
     7
370
    15
100
AcDbLine
 10
280.7938723853
 20
426.2397694567
 30
0.0
 11
280.7938723853
 21
474.3119827637
 31
0.0
  0
LINE
  5
200
330
1F
100
AcDbEntity
  8
0
  6
Continuous
 62
     7
370
    15
100
AcDbLine
 10
280.7938723853
 20
482.1675564328
 30
0.0
 11
280.7938723853
 21
518.896029813
 31
0.0
  0
LINE
  5
201
330
1F
100
AcDbEntity
  8
0
  6
Continuous
 62
     7
370
    15
100
AcDbLine
 10
199.7692889562
 20
424.2397672662
 30
0.0
 11
278.7938720575
 21
424.2397672662
 31
0.0
  0
ARC
  5
202
330
1F
100
AcDbEntity
  8
0
  6
Continuous
 62
     7
370
    15
100
AcDbCircle
 10
199.7692876228
 20
426.2397687861
 30
0.0
 40
2.000000000000004
100
AcDbArc
 50
206.178968704
 51
270.0
  0
ARC
  5
203
330
1F
100
AcDbEntity
  8
0
  6
Continuous
 62
     7
370
    15
100
AcDbCircle
 10
260.7938728324
 20
456.2397687861
 30
0.0
 40
70.00000000000001
100
AcDbArc
 50
108.7192343652
 51
206.178968704
  0
CIRCLE
  5
204
330
1F
100
AcDbEntity
  8
0
  6
Continuous
 62
     7
370
    15
100
AcDbCircle
 10
197.7938728324
 20
456.2397687861
 30
0.0
 40
2.000000000000028
  0
ARC
  5
205
330
1F
100
AcDbEntity
  8
0
  6
Continuous
 62
     7
370
    15
100
AcDbCircle
 10
278.7938728324
 20
426.2397687861
 30
0.0
 40
2.0
100
AcDbArc
 50
270.0
 51
0.0
  0
CIRCLE
  5
206
330
1F
100
AcDbEntity
  8
0
  6
Continuous
 62
     7
370
    15
100
AcDbCircle
 10
197.7938728324
 20
456.2397687861
 30
0.0
 40
0.5
  0
SPLINE
  5
207
330
1F
100
AcDbEntity
  8
0
  6
Continuous
 62
     7
370
    15
100
AcDbSpline
210
0.0
220
0.0
230
1.0
 70
    24
 71
     3
 72
    25
 73
    21
 74
     0
 42
0.00000001
 43
0.00000001
 40
0.0
 40
0.0
 40
0.0
 40
0.0
 40
0.0538123154243871
 40
0.1091759724339264
 40
0.1621847830759553
 40
0.2168212264848761
 40
0.2686304884947199
 40
0.3218383035569806
 40
0.3754862797362836
 40
0.4306774158317676
 40
0.4975235451704975
 40
0.5514441840565915
 40
0.606925321752254
 40
0.6608451181780379
 40
0.716334548285849
 40
0.7701843527766602
 40
0.8256155447249093
 40
0.8791587705136247
 40
0.9344889591445582
 40
1.0
 40
1.0
 40
1.0
 40
1.0
 10
247.8036803221825
 20
806.2397628256642
 30
0.0
 10
247.8494575697221
 20
806.2397628256641
 30
0.0
 10
247.9423317654536
 20
806.2397628256643
 30
0.0
 10
248.5297580157776
 20
806.2397628256641
 30
0.0
 10
249.4883545140905
 20
806.2397628256643
 30
0.0
 10
250.7400656269436
 20
806.2397628256641
 30
0.0
 10
252.2637394451471
 20
806.2397628256642
 30
0.0
 10
254.0048818296803
 20
806.2397628256642
 30
0.0
 10
255.9699153312207
 20
806.2397628256641
 30
0.0
 10
258.2459642952207
 20
806.2397628256643
 30
0.0
 10
260.6202307720113
 20
806.239762825664
 30
0.0
 10
262.9950891301455
 20
806.2397628256643
 30
0.0
 10
265.1353504778529
 20
806.2397628256642
 30
0.0
 10
267.1713770803161
 20
806.2397628256643
 30
0.0
 10
269.0076358245699
 20
806.2397628256641
 30
0.0
 10
270.624302203368
 20
806.2397628256642
 30
0.0
 10
271.9466575933429
 20
806.2397628256643
 30
0.0
 10
272.9490343232227
 20
806.2397628256643
 30
0.0
 10
273.6748274537507
 20
806.2397628256641
 30
0.0
 10
273.6492159168988
 20
806.2397628256643
 30
0.0
 10
273.6353312647465
 20
806.2397628256642
 30
0.0
  0
LINE
  5
208
330
1F
100
AcDbEntity
  8
0
  6
Continuous
 62
     7
370
    15
100
AcDbLine
 10
272.2938728547
 20
686.2397729585
 30
0.0
 11
275.2938724151
 21
686.2397729585
 31
0.0
  0
LINE
  5
209
330
1F
100
AcDbEntity
  8
0
  6
Continuous
 62
     7
370
    15
100
AcDbLine
 10
249.29387281
 20
686.2397729585
 30
0.0
 11
272.2938728547
 21
686.2397729585
 31
0.0
  0
LINE
  5
20A
330
1F
100
AcDbEntity
  8
0
  6
Continuous
 62
     7
370
    15
100
AcDbLine
 10
246.2938732496
 20
686.2397729585
 30
0.0
 11
249.29387281
 21
686.2397729585
 31
0.0
  0
ARC
  5
20B
330
1F
100
AcDbEntity
  8
0
  6
Continuous
 62
     7
370
    15
100
AcDbCircle
 10
260.7938728324
 20
456.2397687861
 30
0.0
 40
12.5
100
AcDbArc
 50
180.0
 51
0.0
  0
LINE
  5
20C
330
1F
100
AcDbEntity
  8
0
  6
Continuous
 62
     7
370
    15
100
AcDbLine
 10
248.2938726461
 20
686.2397729585
 30
0.0
 11
248.2938726461
 21
535.2524682113
 31
0.0
  0
LINE
  5
20D
330
1F
100
AcDbEntity
  8
0
  6
Continuous
 62
     7
370
    15
100
AcDbLine
 10
248.2938726461
 20
503.4235133955
 30
0.0
 11
248.2938726461
 21
456.2397687861
 31
0.0
  0
LINE
  5
20E
330
1F
100
AcDbEntity
  8
0
  6
Continuous
 62
     7
370
    15
100
AcDbLine
 10
273.2938730186
 20
456.2397687861
 30
0.0
 11
273.2938730186
 21
503.4656836817
 31
0.0
  0
LINE
  5
20F
330
1F
100
AcDbEntity
  8
0
  6
Continuous
 62
     7
370
    15
100
AcDbLine
 10
273.2938730186
 20
535.2122276255
 30
0.0
 11
273.2938730186
 21
686.2397729585
 31
0.0
  0
LINE
  5
210
330
1F
100
AcDbEntity
  8
0
  6
Continuous
 62
     7
370
    15
100
AcDbLine
 10
290.7938721618
 20
646.2397664019
 30
0.0
 11
290.7938721618
 21
266.2397711703
 31
0.0
  0
LINE
  5
211
330
1F
100
AcDbEntity
  8
0
  6
Continuous
 62
     7
370
    15
100
AcDbLine
 10
230.7938735029
 20
646.2397664019
 30
0.0
 11
230.7938735029
 21
519.4853185841
 31
0.0
  0
LINE
  5
212
330
1F
100
AcDbEntity
  8
0
  6
Continuous
 62
     7
370
    15
100
AcDbLine
 10
230.7938735029
 20
424.2397672662
 30
0.0
 11
230.7938735029
 21
266.2397711703
 31
0.0
  0
LINE
  5
213
330
1F
100
AcDbEntity
  8
0
  6
Continuous
 62
     7
370
    15
100
AcDbLine
 10
285.7938732049
 20
424.2397672662
 30
0.0
 11
285.7938732049
 21
488.239770306
 31
0.0
  0
LINE
  5
214
330
1F
100
AcDbEntity
  8
0
  6
Continuous
 62
     7
370
    15
100
AcDbLine
 10
278.7938720575
 20
424.2397672662
 30
0.0
 11
285.7938732049
 21
424.2397672662
 31
0.0
  0
LINE
  5
215
330
1F
100
AcDbEntity
  8
0
  6
Continuous
 62
     7
370
    15
100
AcDbLine
 10
280.7938723853
 20
488.239770306
 30
0.0
 11
285.7938732049
 21
488.239770306
 31
0.0
  0
LINE
  5
216
330
1F
100
AcDbEntity
  8
0
  6
Continuous
 62
     7
370
    15
100
AcDbLine
 10
285.7938732049
 20
417.8161225447
 30
0.0
 11
235.7938724598
 21
417.8161225447
 31
0.0
  0
LINE
  5
217
330
1F
100
AcDbEntity
  8
0
  6
Continuous
 62
     7
370
    15
100
AcDbLine
 10
235.7938724598
 20
417.8161225447
 30
0.0
 11
235.7938724598
 21
424.2397672662
 31
0.0
  0
LINE
  5
218
330
1F
100
AcDbEntity
  8
0
  6
Continuous
 62
     7
370
    15
100
AcDbLine
 10
285.7938732049
 20
424.2397672662
 30
0.0
 11
285.7938732049
 21
417.8161225447
 31
0.0
  0
LINE
  5
219
330
1F
100
AcDbEntity
  8
0
  6
Continuous
 62
     7
370
    15
100
AcDbLine
 10
285.7938732049
 20
494.6634150276
 30
0.0
 11
285.7938732049
 21
488.239770306
 31
0.0
  0
LINE
  5
21A
330
1F
100
AcDbEntity
  8
0
  6
Continuous
 62
     7
370
    15
100
AcDbLine
 10
235.7938724598
 20
265.0628327557
 30
0.0
 11
285.7938732049
 21
265.0628327557
 31
0.0
  0
LINE
  5
21B
330
1F
100
AcDbEntity
  8
0
  6
Continuous
 62
     7
370
    15
100
AcDbLine
 10
235.7938724598
 20
265.0628327557
 30
0.0
 11
235.7938724598
 21
417.8161225447
 31
0.0
  0
LINE
  5
21C
330
1F
100
AcDbEntity
  8
0
  6
Continuous
 62
     7
370
    15
100
AcDbLine
 10
285.7938732049
 20
265.0628327557
 30
0.0
 11
285.7938732049
 21
417.8161225447
 31
0.0
  0
LINE
  5
21D
330
1F
100
AcDbEntity
  8
0
  6
Continuous
 62
     7
370
    15
100
AcDbLine
 10
235.7938724598
 20
521.6232552358
 30
0.0
 11
235.7938724598
 21
647.4167048165
 31
0.0
  0
LINE
  5
21E
330
1F
100
AcDbEntity
  8
0
  6
Continuous
 62
     7
370
    15
100
AcDbLine
 10
285.7938732049
 20
494.6634150276
 30
0.0
 11
285.7938732049
 21
647.4167048165
 31
0.0
  0
LINE
  5
21F
330
1F
100
AcDbEntity
  8
0
  6
Continuous
 62
     7
370
    15
100
AcDbLine
 10
235.7938724598
 20
647.4167048165
 30
0.0
 11
235.7938724598
 21
655.2598714063
 31
0.0
  0
LINE
  5
220
330
1F
100
AcDbEntity
  8
0
  6
Continuous
 62
     7
370
    15
100
AcDbLine
 10
285.7938732049
 20
655.2598714063
 30
0.0
 11
285.7938732049
 21
647.4167048165
 31
0.0
  0
LINE
  5
221
330
1F
100
AcDbEntity
  8
0
  6
Continuous
 62
     7
370
    15
100
AcDbLine
 10
285.7938732049
 20
257.219666166
 30
0.0
 11
235.7938724598
 21
257.219666166
 31
0.0
  0
LINE
  5
222
330
1F
100
AcDbEntity
  8
0
  6
Continuous
 62
     7
370
    15
100
AcDbLine
 10
235.7938724598
 20
257.219666166
 30
0.0
 11
235.7938724598
 21
265.0628327557
 31
0.0
  0
LINE
  5
223
330
1F
100
AcDbEntity
  8
0
  6
Continuous
 62
     7
370
    15
100
AcDbLine
 10
285.7938732049
 20
265.0628327557
 30
0.0
 11
285.7938732049
 21
257.219666166
 31
0.0
  0
LINE
  5
224
330
1F
100
AcDbEntity
  8
0
  6
Continuous
 62
     7
370
    15
100
AcDbLine
 10
235.7938724598
 20
256.2397658059
 30
0.0
 11
285.7938732049
 21
256.2397658059
 31
0.0
  0
LINE
  5
225
330
1F
100
AcDbEntity
  8
0
  6
Continuous
 62
     7
370
    15
100
AcDbLine
 10
235.7938724598
 20
256.2397658059
 30
0.0
 11
235.7938724598
 21
257.219666166
 31
0.0
  0
LINE
  5
226
330
1F
100
AcDbEntity
  8
0
  6
Continuous
 62
     7
370
    15
100
AcDbLine
 10
285.7938732049
 20
256.2397658059
 30
0.0
 11
285.7938732049
 21
257.219666166
 31
0.0
  0
LINE
  5
227
330
1F
100
AcDbEntity
  8
0
  6
Continuous
 62
     7
370
    15
100
AcDbLine
 10
235.7938724598
 20
656.2397717664
 30
0.0
 11
248.2938726461
 21
656.2397717664
 31
0.0
  0
LINE
  5
228
330
1F
100
AcDbEntity
  8
0
  6
Continuous
 62
     7
370
    15
100
AcDbLine
 10
273.2938730186
 20
656.2397717664
 30
0.0
 11
285.7938732049
 21
656.2397717664
 31
0.0
  0
LINE
  5
229
330
1F
100
AcDbEntity
  8
0
  6
Continuous
 62
     7
370
    15
100
AcDbLine
 10
235.7938724598
 20
655.2598714063
 30
0.0
 11
235.7938724598
 21
656.2397717664
 31
0.0
  0
LINE
  5
22A
330
1F
100
AcDbEntity
  8
0
  6
Continuous
 62
     7
370
    15
100
AcDbLine
 10
285.7938732049
 20
655.2598714063
 30
0.0
 11
285.7938732049
 21
656.2397717664
 31
0.0
  0
ARC
  5
22B
330
1F
100
AcDbEntity
  8
0
  6
Continuous
 62
     8
370
    15
100
AcDbCircle
 10
274.2938728324
 20
478.2397687861
 30
0.0
 40
5.505553499465135
100
AcDbArc
 50
259.5350043722
 51
300.0
  0
ARC
  5
22C
330
1F
100
AcDbEntity
  8
0
  6
Continuous
 62
     8
370
    15
100
AcDbCircle
 10
274.2938728324
 20
478.2397687861
 30
0.0
 40
5.505553499465135
100
AcDbArc
 50
300.0
 51
100.4649956278
  0
LINE
  5
22D
330
1F
100
AcDbEntity
  8
0
  6
Continuous
 62
     8
370
    15
100
AcDbLine
 10
269.4074462196
 20
540.6790985891
 30
0.0
 11
268.3236754528
 21
540.0747968981
 31
0.0
  0
LINE
  5
22E
330
1F
100
AcDbEntity
  8
0
  6
Continuous
 62
     8
370
    15
100
AcDbLine
 10
243.7311342946
 20
503.660885168
 30
0.0
 11
244.969776555
 21
503.7351190278
 31
0.0
  0
SPLINE
  5
22F
330
1F
100
AcDbEntity
  8
0
  6
Continuous
 62
     8
370
    15
100
AcDbSpline
210
0.0
220
0.0
230
1.0
 70
     8
 71
     3
 72
    27
 73
    23
 74
     0
 42
0.00000001
 43
0.00000001
 40
0.0
 40
0.0
 40
0.0
 40
0.0
 40
0.0141271597243028
 40
0.0651275175181513
 40
0.1196210551158986
 40
0.1741150052076696
 40
0.2284369531366723
 40
0.2827591690560232
 40
0.3370939936234091
 40
0.391430032598484
 40
0.4457453882018554
 40
0.5000616046502367
 40
0.5664221721587469
 40
0.6204773215180609
 40
0.6745316770741582
 40
0.7267178433796604
 40
0.7789021157704359
 40
0.8326654662344622
 40
0.8863958826513241
 40
0.9407372373547642
 40
0.99510956495089
 40
1.0
 40
1.0
 40
1.0
 40
1.0
 10
275.7470316282037
 20
804.23203997105
 30
0.0
 10
275.7579995647592
 20
804.2318351471943
 30
0.0
 10
275.808562770251
 20
804.2308908902094
 30
0.0
 10
275.5210087663006
 20
804.2380192825665
 30
0.0
 10
274.8275724114428
 20
804.2391124950364
 30
0.0
 10
273.6676383791294
 20
804.2158789149321
 30
0.0
 10
272.1323390997756
 20
804.1850261138246
 30
0.0
 10
270.2806123933261
 20
804.1589462279885
 30
0.0
 10
268.1524322703699
 20
804.1365399741643
 30
0.0
 10
265.8198966551769
 20
804.119577666737
 30
0.0
 10
263.3418956305604
 20
804.1091734866288
 30
0.0
 10
260.6063171854631
 20
804.1052438853633
 30
0.0
 10
257.8701694986114
 20
804.1099457724456
 30
0.0
 10
255.2477841107713
 20
804.1228429871505
 30
0.0
 10
252.9887677468855
 20
804.1405323902078
 30
0.0
 10
250.9720700747254
 20
804.1636062414332
 30
0.0
 10
249.2157081781414
 20
804.188307568681
 30
0.0
 10
247.762022101908
 20
804.2224503273547
 30
0.0
 10
246.6447573883697
 20
804.2476446983314
 30
0.0
 10
246.0098934162384
 20
804.2398748717901
 30
0.0
 10
245.7484961658401
 20
804.2299607669498
 30
0.0
 10
245.8132411175767
 20
804.2317162892836
 30
0.0
 10
245.8185839495185
 20
804.2318611571156
 30
0.0
  0
LINE
  5
230
330
1F
100
AcDbEntity
  8
0
  6
Continuous
 62
     8
370
    15
100
AcDbLine
 10
280.7938723853
 20
494.6634150276
 30
0.0
 11
285.7938732049
 21
494.6634150276
 31
0.0
  0
LINE
  5
231
330
1F
100
AcDbEntity
  8
0
  6
Continuous
 62
     8
370
    15
100
AcDbLine
 10
285.7938732049
 20
647.4167048165
 30
0.0
 11
273.2938730186
 21
647.4167048165
 31
0.0
  0
LINE
  5
232
330
1F
100
AcDbEntity
  8
0
  6
Continuous
 62
     8
370
    15
100
AcDbLine
 10
248.2938726461
 20
647.4167048165
 30
0.0
 11
235.7938724598
 21
647.4167048165
 31
0.0
  0
LINE
  5
233
330
1F
100
AcDbEntity
  8
0
  6
Continuous
 62
     8
370
    15
100
AcDbLine
 10
235.7938724598
 20
655.2598714063
 30
0.0
 11
248.2938726461
 21
655.2598714063
 31
0.0
  0
LINE
  5
234
330
1F
100
AcDbEntity
  8
0
  6
Continuous
 62
     8
370
    15
100
AcDbLine
 10
273.2938730186
 20
655.2598714063
 30
0.0
 11
285.7938732049
 21
655.2598714063
 31
0.0
  0
SPLINE
  5
235
330
1F
100
AcDbEntity
  8
0
  6
Continuous
 62
     7
370
    15
100
AcDbSpline
210
0.0
220
0.0
230
1.0
 70
     8
 71
     3
 72
     9
 73
     5
 74
     0
 42
0.00000001
 43
0.00000001
 40
0.0
 40
0.0
 40
0.0
 40
0.0
 40
0.4999395634326873
 40
1.0
 40
1.0
 40
1.0
 40
1.0
 10
911.1942230685191
 20
138.9774987852077
 30
0.0
 10
910.9398398727585
 20
137.9621976203553
 30
0.0
 10
910.4310119776145
 20
135.9313498157103
 30
0.0
 10
910.942808785284
 20
133.9012378368172
 30
0.0
 10
911.1987381203609
 20
132.8860591543715
 30
0.0
  0
LINE
  5
236
330
1F
100
AcDbEntity
  8
0
  6
Continuous
 62
     7
370
    15
100
AcDbLine
 10
924.785721205
 20
138.9410980424
 30
0.0
 11
924.7855721934
 21
138.9410980424
 31
0.0
  0
LINE
  5
237
330
1F
100
AcDbEntity
  8
0
  6
Continuous
 62
     7
370
    15
100
AcDbLine
 10
921.7855810149
 20
138.9410980424
 30
0.0
 11
911.1854313834
 21
138.9410980424
 31
0.0
  0
LINE
  5
238
330
1F
100
AcDbEntity
  8
0
  6
Continuous
 62
     7
370
    15
100
AcDbLine
 10
911.1854313834
 20
132.9410984559
 30
0.0
 11
916.7355774863
 21
132.9410984559
 31
0.0
  0
ARC
  5
239
330
1F
100
AcDbEntity
  8
0
  6
Continuous
 62
     7
370
    15
100
AcDbCircle
 10
928.0855780347
 20
109.9355447664
 30
0.0
 40
2.0
100
AcDbArc
 50
330.0356155143
 51
0.0
  0
LINE
  5
23A
330
1F
100
AcDbEntity
  8
0
  6
Continuous
 62
     7
370
    15
100
AcDbLine
 10
924.7855721934
 20
108.9410987129
 30
0.0
 11
925.1855789645
 21
108.9410987129
 31
0.0
  0
ARC
  5
23B
330
1F
100
AcDbEntity
  8
0
  6
Continuous
 62
     7
370
    15
100
AcDbCircle
 10
928.0855780347
 20
147.9466517654
 30
0.0
 40
2.0
100
AcDbArc
 50
0.0
 51
29.9594801506
  0
LINE
  5
23C
330
1F
100
AcDbEntity
  8
0
  6
Continuous
 62
     7
370
    15
100
AcDbLine
 10
925.1855789645
 20
148.9410978189
 30
0.0
 11
924.7855721934
 21
148.9410978189
 31
0.0
  0
ARC
  5
23D
330
1F
100
AcDbEntity
  8
0
  6
Continuous
 62
     7
370
    15
100
AcDbCircle
 10
917.7540400051
 20
128.9410982659
 30
0.0
 40
64.03153802959939
100
AcDbArc
 50
342.1867882218
 51
17.7801468858
  0
LINE
  5
23E
330
1F
100
AcDbEntity
  8
0
  6
Continuous
 62
     7
370
    15
100
AcDbLine
 10
968.785571955
 20
139.4410981243
 30
0.0
 11
949.7855781539
 21
139.4410981243
 31
0.0
  0
LINE
  5
23F
330
1F
100
AcDbEntity
  8
0
  6
Continuous
 62
     7
370
    15
100
AcDbLine
 10
949.7855781539
 20
118.4410984075
 30
0.0
 11
968.785571955
 21
118.4410984075
 31
0.0
  0
LINE
  5
240
330
1F
100
AcDbEntity
  8
0
  6
Continuous
 62
     7
370
    15
100
AcDbLine
 10
921.7855810149
 20
58.9410979679
 30
0.0
 11
924.7855721934
 21
58.9410979679
 31
0.0
  0
LINE
  5
241
330
1F
100
AcDbEntity
  8
0
  6
Continuous
 62
     7
370
    15
100
AcDbLine
 10
921.7855810149
 20
132.9410984559
 30
0.0
 11
916.7355774863
 21
132.9410984559
 31
0.0
  0
LINE
  5
242
330
1F
100
AcDbEntity
  8
0
  6
Continuous
 62
     7
370
    15
100
AcDbLine
 10
916.7355774863
 20
124.9410980759
 30
0.0
 11
921.7855810149
 21
124.9410980759
 31
0.0
  0
LINE
  5
243
330
1F
100
AcDbEntity
  8
0
  6
Continuous
 62
     7
370
    15
100
AcDbLine
 10
515.3355776294
 20
148.3410988381
 30
0.0
 11
511.3355844243
 21
144.3410981824
 31
0.0
  0
LINE
  5
244
330
1F
100
AcDbEntity
  8
0
  6
Continuous
 62
     7
370
    15
100
AcDbLine
 10
511.3355844243
 20
113.5410983493
 30
0.0
 11
515.3355776294
 21
109.5410976937
 31
0.0
  0
LINE
  5
245
330
1F
100
AcDbEntity
  8
0
  6
Continuous
 62
     7
370
    15
100
AcDbLine
 10
515.3355776294
 20
109.5410976937
 30
0.0
 11
518.8355772717
 21
109.5410976937
 31
0.0
  0
LINE
  5
246
330
1F
100
AcDbEntity
  8
0
  6
Continuous
 62
     7
370
    15
100
AcDbLine
 10
518.8355772717
 20
148.3410988381
 30
0.0
 11
515.3355776294
 21
148.3410988381
 31
0.0
  0
LINE
  5
247
330
1F
100
AcDbEntity
  8
0
  6
Continuous
 62
     7
370
    15
100
AcDbLine
 10
518.8355772717
 20
113.0410973361
 30
0.0
 11
520.8355813249
 21
115.0410985952
 31
0.0
  0
LINE
  5
248
330
1F
100
AcDbEntity
  8
0
  6
Continuous
 62
     7
370
    15
100
AcDbLine
 10
520.8355813249
 20
142.8410979366
 30
0.0
 11
518.8355772717
 21
144.8410991957
 31
0.0
  0
LINE
  5
249
330
1F
100
AcDbEntity
  8
0
  6
Continuous
 62
     7
370
    15
100
AcDbLine
 10
521.7855750545
 20
136.9410986459
 30
0.0
 11
520.8355813249
 21
136.9410986459
 31
0.0
  0
LINE
  5
24A
330
1F
100
AcDbEntity
  8
0
  6
Continuous
 62
     7
370
    15
100
AcDbLine
 10
520.8355813249
 20
120.9410978859
 30
0.0
 11
521.7855750545
 21
120.9410978859
 31
0.0
  0
LINE
  5
24B
330
1F
100
AcDbEntity
  8
0
  6
Continuous
 62
     7
370
    15
100
AcDbLine
 10
531.7855804189
 20
158.9410975953
 30
0.0
 11
531.7855804189
 21
153.9410986384
 31
0.0
  0
LINE
  5
24C
330
1F
100
AcDbEntity
  8
0
  6
Continuous
 62
     7
370
    15
100
AcDbLine
 10
911.7855756505
 20
153.9410986384
 30
0.0
 11
911.7855756505
 21
158.9410975953
 31
0.0
  0
LINE
  5
24D
330
1F
100
AcDbEntity
  8
0
  6
Continuous
 62
     7
370
    15
100
AcDbLine
 10
531.7855804189
 20
103.9410978934
 30
0.0
 11
531.7855804189
 21
98.9410989364
 31
0.0
  0
LINE
  5
24E
330
1F
100
AcDbEntity
  8
0
  6
Continuous
 62
     7
370
    15
100
AcDbLine
 10
911.7855756505
 20
98.9410989364
 30
0.0
 11
911.7855756505
 21
103.9410978934
 31
0.0
  0
LWPOLYLINE
  5
24F
330
1F
100
AcDbEntity
  8
0
  6
Continuous
 62
     7
370
    15
100
AcDbPolyline
 90
       12
 70
   128
 43
0.0
 10
911.1854313834
 20
132.9799490427
 10
911.1854313834
 20
133.0109429924
 10
911.1854313834
 20
133.389146105
 10
911.1854015811
 20
134.0550627006
 10
911.1854760869
 20
134.9336151412
 10
911.1854164823
 20
135.9257540112
 10
911.1854760869
 20
136.9196223473
 10
911.1854015811
 20
137.8031699365
 10
911.1854313834
 20
138.4767834475
 10
911.1854313834
 20
138.8645172497
 10
911.1854313834
 20
138.9407189941
 10
911.1854313834
 20
138.9407189941
  0
SPLINE
  5
250
330
1F
100
AcDbEntity
  8
0
  6
Continuous
 62
     7
370
    15
100
AcDbSpline
210
0.0
220
0.0
230
1.0
 70
    24
 71
     3
 72
    10
 73
     6
 74
     0
 42
0.00000001
 43
0.00000001
 40
0.0
 40
0.0
 40
0.0
 40
0.0
 40
0.0482134718960426
 40
0.6336073366378592
 40
1.0
 40
1.0
 40
1.0
 40
1.0
 10
924.7857212050395
 20
138.4213036304216
 30
0.0
 10
924.7857212050395
 20
138.4400453770421
 30
0.0
 10
924.7857212050395
 20
138.6863439258329
 30
0.0
 10
924.7857212050395
 20
138.8718858170544
 30
0.0
 10
924.7857212050395
 20
138.921586564126
 30
0.0
 10
924.7857212050395
 20
138.940718994091
 30
0.0
  0
LINE
  5
251
330
1F
100
AcDbEntity
  8
0
  6
Continuous
 62
     7
370
    15
100
AcDbLine
 10
925.1855789645
 20
118.6910979828
 30
0.0
 11
925.1855789645
 21
118.9396484202
 31
0.0
  0
SPLINE
  5
252
330
1F
100
AcDbEntity
  8
0
  6
Continuous
 62
     7
370
    15
100
AcDbSpline
210
0.0
220
0.0
230
1.0
 70
     8
 71
     3
 72
    10
 73
     6
 74
     0
 42
0.00000001
 43
0.00000001
 40
0.0
 40
0.0
 40
0.0
 40
0.0
 40
0.3305304340684587
 40
0.6599044952245454
 40
1.0
 40
1.0
 40
1.0
 40
1.0
 10
928.0855833514171
 20
115.441097915719
 30
0.0
 10
928.2028239115912
 20
115.4522030055516
 30
0.0
 10
928.4368948615161
 20
115.4743743336503
 30
0.0
 10
928.7590486432165
 20
115.6247905011038
 30
0.0
 10
928.9141020648474
 20
115.7818951933111
 30
0.0
 10
928.9928703530269
 20
115.8617055421572
 30
0.0
  0
LINE
  5
253
330
1F
100
AcDbEntity
  8
0
  6
Continuous
 62
     7
370
    15
100
AcDbLine
 10
928.0855833514
 20
115.4410979157
 30
0.0
 11
925.1855789645
 21
115.4410979157
 31
0.0
  0
LINE
  5
254
330
1F
100
AcDbEntity
  8
0
  6
Continuous
 62
     7
370
    15
100
AcDbLine
 10
925.1855789645
 20
115.4410979157
 30
0.0
 11
925.1855789645
 21
118.6910979828
 31
0.0
  0
SPLINE
  5
255
330
1F
100
AcDbEntity
  8
0
  6
Continuous
 62
     7
370
    15
100
AcDbSpline
210
0.0
220
0.0
230
1.0
 70
    24
 71
     3
 72
    13
 73
     9
 74
     0
 42
0.00000001
 43
0.00000001
 40
0.0
 40
0.0
 40
0.0
 40
0.0
 40
0.5225578489322007
 40
0.6626908106454454
 40
0.8037031464632759
 40
0.8959963430882153
 40
0.9750299999859373
 40
1.0
 40
1.0
 40
1.0
 40
1.0
 10
929.8103629572826
 20
108.9410987129312
 30
0.0
 10
929.7842207360186
 20
108.9410987129312
 30
0.0
 10
929.7510680241477
 20
108.9410987129312
 30
0.0
 10
929.2856555820235
 20
108.9410987129312
 30
0.0
 10
928.9523167423732
 20
108.9410987129312
 30
0.0
 10
928.5662614600138
 20
108.9410987129312
 30
0.0
 10
928.2786926233067
 20
108.9410987129312
 30
0.0
 10
928.1229703545986
 20
108.9410987129312
 30
0.0
 10
928.0855833514171
 20
108.9410987129312
 30
0.0
  0
SPLINE
  5
256
330
1F
100
AcDbEntity
  8
0
  6
Continuous
 62
     7
370
    15
100
AcDbSpline
210
0.0
220
0.0
230
1.0
 70
     8
 71
     3
 72
    18
 73
    14
 74
     0
 42
0.00000001
 43
0.00000001
 40
0.0
 40
0.0
 40
0.0
 40
0.0
 40
0.0344336903070499
 40
0.0724914898468626
 40
0.1306346467259137
 40
0.2236187466056474
 40
0.4104357918185376
 40
0.5001958143645441
 40
0.7376509180047488
 40
0.8568708291168691
 40
0.9094916711534538
 40
0.962570251763497
 40
1.0
 40
1.0
 40
1.0
 40
1.0
 10
928.0855833514171
 20
108.9410987129312
 30
0.0
 10
928.1891748570735
 20
108.9494073098643
 30
0.0
 10
928.4072607640308
 20
108.9668989747091
 30
0.0
 10
928.7625718437779
 20
109.12676298569
 30
0.0
 10
929.1706344003935
 20
109.4780938173273
 30
0.0
 10
929.6234999519475
 20
110.2794364963717
 30
0.0
 10
929.7918118048141
 20
111.241330627401
 30
0.0
 10
929.8436678584706
 20
112.5730550232552
 30
0.0
 10
929.7446585903584
 20
113.7420286558118
 30
0.0
 10
929.288994821159
 20
114.7541074016779
 30
0.0
 10
928.8462088720798
 20
115.1992206206153
 30
0.0
 10
928.4706330065092
 20
115.4069157049918
 30
0.0
 10
928.1982340335068
 20
115.4310975188797
 30
0.0
 10
928.0855833514171
 20
115.441097915719
 30
0.0
  0
LINE
  5
257
330
1F
100
AcDbEntity
  8
0
  6
Continuous
 62
     7
370
    15
100
AcDbLine
 10
930.0855725034
 20
112.688321658
 30
0.0
 11
930.0855725034
 21
115.3668128332
 31
0.0
  0
LINE
  5
258
330
1F
100
AcDbEntity
  8
0
  6
Continuous
 62
     7
370
    15
100
AcDbLine
 10
930.0855725034
 20
109.935544469
 30
0.0
 11
930.0855725034
 21
112.688321658
 31
0.0
  0
LINE
  5
259
330
1F
100
AcDbEntity
  8
0
  6
Continuous
 62
     7
370
    15
100
AcDbLine
 10
928.0855833514
 20
108.9410987129
 30
0.0
 11
925.1855789645
 21
108.9410987129
 31
0.0
  0
LINE
  5
25A
330
1F
100
AcDbEntity
  8
0
  6
Continuous
 62
     7
370
    15
100
AcDbLine
 10
925.1855789645
 20
108.9410987129
 30
0.0
 11
925.1855789645
 21
112.1910978487
 31
0.0
  0
LINE
  5
25B
330
1F
100
AcDbEntity
  8
0
  6
Continuous
 62
     7
370
    15
100
AcDbLine
 10
925.1855789645
 20
112.1910978487
 30
0.0
 11
925.1855789645
 21
115.4410979157
 31
0.0
  0
SPLINE
  5
25C
330
1F
100
AcDbEntity
  8
0
  6
Continuous
 62
     7
370
    15
100
AcDbSpline
210
0.0
220
0.0
230
1.0
 70
     8
 71
     3
 72
    10
 73
     6
 74
     0
 42
0.00000001
 43
0.00000001
 40
0.0
 40
0.0
 40
0.0
 40
0.0
 40
0.2412501599557448
 40
0.6862188635970613
 40
1.0
 40
1.0
 40
1.0
 40
1.0
 10
929.0017514450984
 20
142.0168439304333
 30
0.0
 10
928.9472320742087
 20
142.0748287587054
 30
0.0
 10
928.7921556143929
 20
142.2397624647392
 30
0.0
 10
928.4688713488783
 20
142.4056849028058
 30
0.0
 10
928.1977186146906
 20
142.4307379314524
 30
0.0
 10
928.0855833514171
 20
142.4410986160736
 30
0.0
  0
SPLINE
  5
25D
330
1F
100
AcDbEntity
  8
0
  6
Continuous
 62
     7
370
    15
100
AcDbSpline
210
0.0
220
0.0
230
1.0
 70
     8
 71
     3
 72
    18
 73
    14
 74
     0
 42
0.00000001
 43
0.00000001
 40
0.0
 40
0.0
 40
0.0
 40
0.0
 40
0.0391145029213464
 40
0.0780921289248163
 40
0.1389200528439948
 40
0.2382977478170708
 40
0.4914348530410286
 40
0.7614779215931999
 40
0.8314861906300745
 40
0.9019335595887542
 40
0.9480415057696555
 40
0.9875254317974846
 40
1.0
 40
1.0
 40
1.0
 40
1.0
 10
928.0855833514171
 20
142.4410986160736
 30
0.0
 10
928.2033033875218
 20
142.4518302525702
 30
0.0
 10
928.4383315113612
 20
142.4732559713772
 30
0.0
 10
928.8080176454376
 20
142.6564437942492
 30
0.0
 10
929.2209696056335
 20
143.0394834884919
 30
0.0
 10
929.7320346730401
 20
144.0374295737228
 30
0.0
 10
929.878478988857
 20
145.6662507546829
 30
0.0
 10
929.7568115724177
 20
147.2309319871359
 30
0.0
 10
929.2862336989318
 20
148.2210887855263
 30
0.0
 10
928.9522201125673
 20
148.6201228697071
 30
0.0
 10
928.566278768737
 20
148.8585260295212
 30
0.0
 10
928.2786919448915
 20
148.9353148325068
 30
0.0
 10
928.1229701560922
 20
148.9399782033261
 30
0.0
 10
928.0855833514171
 20
148.9410978188615
 30
0.0
  0
SPLINE
  5
25E
330
1F
100
AcDbEntity
  8
0
  6
Continuous
 62
     7
370
    15
100
AcDbSpline
210
0.0
220
0.0
230
1.0
 70
    24
 71
     3
 72
    13
 73
     9
 74
     0
 42
0.00000001
 43
0.00000001
 40
0.0
 40
0.0
 40
0.0
 40
0.0
 40
0.0781767983062877
 40
0.1560801418989007
 40
0.2776546349687996
 40
0.4762772458856797
 40
0.9822133111418537
 40
1.0
 40
1.0
 40
1.0
 40
1.0
 10
928.0855833514171
 20
148.9410978188615
 30
0.0
 10
928.2033174952776
 20
148.9410978188615
 30
0.0
 10
928.4383739606001
 20
148.9410978188614
 30
0.0
 10
928.807809991696
 20
148.9410978188615
 30
0.0
 10
929.2226012804236
 20
148.9410978188614
 30
0.0
 10
929.7146527545403
 20
148.9410978188614
 30
0.0
 10
929.9160351951017
 20
148.9410978188616
 30
0.0
 10
929.8139203904965
 20
148.9410978188615
 30
0.0
 10
929.8104523642497
 20
148.9410978188615
 30
0.0
  0
LINE
  5
25F
330
1F
100
AcDbEntity
  8
0
  6
Continuous
 62
     7
370
    15
100
AcDbLine
 10
930.0855725034
 20
142.5261041527
 30
0.0
 11
930.0855725034
 21
147.9466520628
 31
0.0
  0
LINE
  5
260
330
1F
100
AcDbEntity
  8
0
  6
Continuous
 62
     7
370
    15
100
AcDbLine
 10
925.1855789645
 20
145.6910986831
 30
0.0
 11
925.1855789645
 21
148.9410978189
 31
0.0
  0
LINE
  5
261
330
1F
100
AcDbEntity
  8
0
  6
Continuous
 62
     7
370
    15
100
AcDbLine
 10
928.0855833514
 20
148.9410978189
 30
0.0
 11
925.1855789645
 21
148.9410978189
 31
0.0
  0
LINE
  5
262
330
1F
100
AcDbEntity
  8
0
  6
Continuous
 62
     7
370
    15
100
AcDbLine
 10
928.0855833514
 20
142.4410986161
 30
0.0
 11
925.1855789645
 21
142.4410986161
 31
0.0
  0
LINE
  5
263
330
1F
100
AcDbEntity
  8
0
  6
Continuous
 62
     7
370
    15
100
AcDbLine
 10
925.1855789645
 20
142.4410986161
 30
0.0
 11
925.1855789645
 21
145.6910986831
 31
0.0
  0
LINE
  5
264
330
1F
100
AcDbEntity
  8
0
  6
Continuous
 62
     7
370
    15
100
AcDbLine
 10
925.1855789645
 20
138.9058940491
 30
0.0
 11
925.1855789645
 21
139.191098549
 31
0.0
  0
LINE
  5
265
330
1F
100
AcDbEntity
  8
0
  6
Continuous
 62
     7
370
    15
100
AcDbLine
 10
925.1855789645
 20
139.191098549
 30
0.0
 11
925.1855789645
 21
142.4410986161
 31
0.0
  0
SPLINE
  5
266
330
1F
100
AcDbEntity
  8
0
  6
Continuous
 62
     7
370
    15
100
AcDbSpline
210
0.0
220
0.0
230
1.0
 70
     8
 71
     3
 72
    11
 73
     7
 74
     0
 42
0.00000001
 43
0.00000001
 40
0.0
 40
0.0
 40
0.0
 40
0.0
 40
0.334091817324204
 40
0.623690943296087
 40
0.9185120143013433
 40
1.0
 40
1.0
 40
1.0
 40
1.0
 10
977.9239921791988
 20
139.920145311008
 30
0.0
 10
977.7113438419143
 20
139.8645013692905
 30
0.0
 10
977.3143666183071
 20
139.7606238700558
 30
0.0
 10
976.1530664466487
 20
139.7439942237714
 30
0.0
 10
975.081005743446
 20
139.7540700992313
 30
0.0
 10
974.4296366495781
 20
139.7582208187445
 30
0.0
 10
974.2885856850581
 20
139.7591196378569
 30
0.0
  0
SPLINE
  5
267
330
1F
100
AcDbEntity
  8
0
  6
Continuous
 62
     7
370
    15
100
AcDbSpline
210
0.0
220
0.0
230
1.0
 70
     8
 71
     3
 72
    11
 73
     7
 74
     0
 42
0.00000001
 43
0.00000001
 40
0.0
 40
0.0
 40
0.0
 40
0.0
 40
0.0091298336169649
 40
0.499990754562035
 40
0.9908516755071051
 40
1.0
 40
1.0
 40
1.0
 40
1.0
 10
974.2885856850581
 20
139.7591196378569
 30
0.0
 10
974.2838177846191
 20
139.7594706111482
 30
0.0
 10
974.0227061107151
 20
139.7786914872461
 30
0.0
 10
973.4968498975771
 20
139.7970536952509
 30
0.0
 10
972.9710133066066
 20
139.778653233442
 30
0.0
 10
972.7098767256456
 20
139.7594706091112
 30
0.0
 10
972.7050988896327
 20
139.7591196378569
 30
0.0
  0
SPLINE
  5
268
330
1F
100
AcDbEntity
  8
0
  6
Continuous
 62
     7
370
    15
100
AcDbSpline
210
0.0
220
0.0
230
1.0
 70
     8
 71
     3
 72
    12
 73
     8
 74
     0
 42
0.00000001
 43
0.00000001
 40
0.0
 40
0.0
 40
0.0
 40
0.0
 40
0.1136356325130907
 40
0.3008421492837707
 40
0.4919209396022228
 40
0.6964442722245849
 40
1.0
 40
1.0
 40
1.0
 40
1.0
 10
972.7050988896327
 20
139.7591196378569
 30
0.0
 10
972.4283441268801
 20
139.757180288783
 30
0.0
 10
971.6956558335196
 20
139.7520460018457
 30
0.0
 10
970.6246759862298
 20
139.7430324915784
 30
0.0
 10
969.6575746590047
 20
139.7761198783246
 30
0.0
 10
968.9159443026645
 20
139.901933281633
 30
0.0
 10
968.8343319064687
 20
140.1517856312164
 30
0.0
 10
968.785571955009
 20
140.3010618319611
 30
0.0
  0
ARC
  5
269
330
1F
100
AcDbEntity
  8
0
  6
Continuous
 62
     7
370
    15
100
AcDbCircle
 10
969.5288479051
 20
140.2814457846
 30
0.0
 40
0.7435347519455923
100
AcDbArc
 50
88.5638369108
 51
178.4882385905
  0
SPLINE
  5
26A
330
1F
100
AcDbEntity
  8
0
  6
Continuous
 62
     7
370
    15
100
AcDbSpline
210
0.0
220
0.0
230
1.0
 70
     8
 71
     3
 72
    16
 73
    12
 74
     0
 42
0.00000001
 43
0.00000001
 40
0.0
 40
0.0
 40
0.0
 40
0.0
 40
0.1632156734272336
 40
0.2700785095797673
 40
0.3688076596364145
 40
0.4654143507126439
 40
0.5626671746568699
 40
0.6630038744234671
 40
0.7707095983568217
 40
0.8765165469711892
 40
0.9999999999999999
 40
0.9999999999999999
 40
0.9999999999999999
 40
0.9999999999999999
 10
969.5474832280116
 20
141.0247469698887
 30
0.0
 10
969.5861324573946
 20
140.8382376361557
 30
0.0
 10
969.6500866478774
 20
140.5296143169634
 30
0.0
 10
970.2740219300558
 20
140.3163351971533
 30
0.0
 10
971.0882634061915
 20
140.2260914437144
 30
0.0
 10
972.1255513203466
 20
140.1974276856786
 30
0.0
 10
973.310274293951
 20
140.1922784680921
 30
0.0
 10
974.5635258615995
 20
140.1941121252765
 30
0.0
 10
975.7234658999207
 20
140.2171252695693
 30
0.0
 10
976.7022018728209
 20
140.296232034626
 30
0.0
 10
977.0309857250368
 20
140.4517839430928
 30
0.0
 10
977.2080509884793
 20
140.5355558177333
 30
0.0
  0
ARC
  5
26B
330
1F
100
AcDbEntity
  8
0
  6
Continuous
 62
     7
370
    15
100
AcDbCircle
 10
977.1531777898
 20
139.7475664707
 30
0.0
 40
0.7898976382875369
100
AcDbArc
 50
12.6199207417
 51
86.0165256574
  0
LINE
  5
26C
330
1F
100
AcDbEntity
  8
0
  6
Continuous
 62
     7
370
    15
100
AcDbLine
 10
968.785571955
 20
140.301061832
 30
0.0
 11
968.785571955
 21
135.001038239
 31
0.0
  0
SPLINE
  5
26D
330
1F
100
AcDbEntity
  8
0
  6
Continuous
 62
     7
370
    15
100
AcDbSpline
210
0.0
220
0.0
230
1.0
 70
     8
 71
     3
 72
    12
 73
     8
 74
     0
 42
0.00000001
 43
0.00000001
 40
0.0
 40
0.0
 40
0.0
 40
0.0
 40
0.2917318387615756
 40
0.5225571883354541
 40
0.7611463925760105
 40
0.9714529593939162
 40
1.0
 40
1.0
 40
1.0
 40
1.0
 10
968.785571955009
 20
135.0010382389526
 30
0.0
 10
968.8307458056133
 20
135.6537200809746
 30
0.0
 10
968.9116623091334
 20
136.822819722935
 30
0.0
 10
969.7196703350206
 20
138.2876781760223
 30
0.0
 10
970.931129937307
 20
139.2742677789756
 30
0.0
 10
972.0500875224474
 20
139.6575816955198
 30
0.0
 10
972.6351714745938
 20
139.7482796949312
 30
0.0
 10
972.7050988896327
 20
139.7591196378569
 30
0.0
  0
SPLINE
  5
26E
330
1F
100
AcDbEntity
  8
0
  6
Continuous
 62
     7
370
    15
100
AcDbSpline
210
0.0
220
0.0
230
1.0
 70
     8
 71
     3
 72
    12
 73
     8
 74
     0
 42
0.00000001
 43
0.00000001
 40
0.0
 40
0.0
 40
0.0
 40
0.0
 40
0.1136356806295625
 40
0.3008421668530816
 40
0.4919209599645969
 40
0.6964439119826236
 40
0.9999999999999999
 40
0.9999999999999999
 40
0.9999999999999999
 40
0.9999999999999999
 10
972.7050988896328
 20
118.1230768939357
 30
0.0
 10
972.4283441611122
 20
118.1755920964887
 30
0.0
 10
971.6956562258292
 20
118.3146222606171
 30
0.0
 10
970.6246757125446
 20
118.8287598480441
 30
0.0
 10
969.6575756370391
 20
119.7191514613323
 30
0.0
 10
968.9159430868817
 20
121.062725342967
 30
0.0
 10
968.834331489206
 20
122.2010541752303
 30
0.0
 10
968.785571955009
 20
122.88115829284
 30
0.0
  0
SPLINE
  5
26F
330
1F
100
AcDbEntity
  8
0
  6
Continuous
 62
     7
370
    15
100
AcDbSpline
210
0.0
220
0.0
230
1.0
 70
     8
 71
     3
 72
    12
 73
     8
 74
     0
 42
0.00000001
 43
0.00000001
 40
0.0
 40
0.0
 40
0.0
 40
0.0
 40
0.2917319822372236
 40
0.5225572952007431
 40
0.7611461975439175
 40
0.9714529258724888
 40
0.9999999999999999
 40
0.9999999999999999
 40
0.9999999999999999
 40
0.9999999999999999
 10
968.785571955009
 20
117.5811346998315
 30
0.0
 10
968.8307458186367
 20
117.7251346251554
 30
0.0
 10
968.911662322237
 20
117.9830707311296
 30
0.0
 10
969.7196693968091
 20
118.1181879976626
 30
0.0
 10
970.9311317076606
 20
118.1402741265066
 30
0.0
 10
972.0500877313913
 20
118.1269186896203
 30
0.0
 10
972.6351714745564
 20
118.1234870347983
 30
0.0
 10
972.7050988896328
 20
118.1230768939357
 30
0.0
  0
LINE
  5
270
330
1F
100
AcDbEntity
  8
0
  6
Continuous
 62
     7
370
    15
100
AcDbLine
 10
968.785571955
 20
122.8811582928
 30
0.0
 11
968.785571955
 21
117.5811346998
 31
0.0
  0
LWPOLYLINE
  5
271
330
1F
100
AcDbEntity
  8
0
  6
Continuous
 62
     7
370
    15
100
AcDbPolyline
 90
        9
 70
   128
 43
0.0
 10
968.785571955
 20
122.8811582928
 10
968.8002197965
 20
122.9328406421
 10
968.8435672744
 20
122.982536946
 10
968.913975261
 20
123.0283375276
 10
969.008731745
 20
123.0684817215
 10
969.124185942
 20
123.1014272576
 10
969.2559122069
 20
123.1259080028
 10
969.3988441451
 20
123.1409833213
 10
969.547483228
 20
123.1460734649
  0
SPLINE
  5
272
330
1F
100
AcDbEntity
  8
0
  6
Continuous
 62
     7
370
    15
100
AcDbSpline
210
0.0
220
0.0
230
1.0
 70
     8
 71
     3
 72
    16
 73
    12
 74
     0
 42
0.00000001
 43
0.00000001
 40
0.0
 40
0.0
 40
0.0
 40
0.0
 40
0.1632157828259385
 40
0.2700786426428323
 40
0.3688076546798691
 40
0.465414555530645
 40
0.5626673169969755
 40
0.6630040676454637
 40
0.7707095954953649
 40
0.8765169154548541
 40
1.0
 40
1.0
 40
1.0
 40
1.0
 10
969.5474832280116
 20
123.1460734648507
 30
0.0
 10
969.5861325455866
 20
122.5291277715141
 30
0.0
 10
969.6500868706462
 20
121.5082469929782
 30
0.0
 10
970.274020840948
 20
120.3014587066074
 30
0.0
 10
971.0882657969964
 20
119.5150680285771
 30
0.0
 10
972.1255489954348
 20
119.0154084288917
 30
0.0
 10
973.3102757296786
 20
118.8105824850581
 30
0.0
 10
974.5635235009729
 20
118.9226515791485
 30
0.0
 10
975.7234698428463
 20
119.3880651278791
 30
0.0
 10
976.7021982815304
 20
120.2201700767446
 30
0.0
 10
977.0309848128213
 20
120.9937773247056
 30
0.0
 10
977.2080509884792
 20
121.4103992475073
 30
0.0
  0
ARC
  5
273
330
1F
100
AcDbEntity
  8
0
  6
Continuous
 62
     7
370
    15
100
AcDbCircle
 10
977.0384456545
 20
120.3306387453
 30
0.0
 40
1.092999868017946
100
AcDbArc
 50
35.8846994742
 51
81.0731030308
  0
SPLINE
  5
274
330
1F
100
AcDbEntity
  8
0
  6
Continuous
 62
     7
370
    15
100
AcDbSpline
210
0.0
220
0.0
230
1.0
 70
     8
 71
     3
 72
    11
 73
     7
 74
     0
 42
0.00000001
 43
0.00000001
 40
0.0
 40
0.0
 40
0.0
 40
0.0
 40
0.3340922237528796
 40
0.6236913802336564
 40
0.918511848809832
 40
1.0
 40
1.0
 40
1.0
 40
1.0
 10
977.9239921791989
 20
120.9713071962695
 30
0.0
 10
977.7113438162635
 20
120.5021030394619
 30
0.0
 10
977.3143667495907
 20
119.6261814604337
 30
0.0
 10
976.1530688218734
 20
118.6825319517372
 30
0.0
 10
975.0810032671261
 20
118.2554135495836
 30
0.0
 10
974.4296365788825
 20
118.1466329128672
 30
0.0
 10
974.2885856850581
 20
118.1230768939357
 30
0.0
  0
SPLINE
  5
275
330
1F
100
AcDbEntity
  8
0
  6
Continuous
 62
     7
370
    15
100
AcDbSpline
210
0.0
220
0.0
230
1.0
 70
     8
 71
     3
 72
    11
 73
     7
 74
     0
 42
0.00000001
 43
0.00000001
 40
0.0
 40
0.0
 40
0.0
 40
0.0
 40
0.009148324492895
 40
0.5000092454379651
 40
0.9908701663830352
 40
1.0
 40
1.0
 40
1.0
 40
1.0
 10
972.7050988896327
 20
118.1230768939357
 30
0.0
 10
972.7098767256456
 20
118.1227259226814
 30
0.0
 10
972.9710133066072
 20
118.1035432983507
 30
0.0
 10
973.4968498975765
 20
118.0851428365417
 30
0.0
 10
974.0227061107156
 20
118.1035050445465
 30
0.0
 10
974.2838177846191
 20
118.1227259206444
 30
0.0
 10
974.2885856850581
 20
118.1230768939357
 30
0.0
  0
ARC
  5
276
330
1F
100
AcDbEntity
  8
0
  6
Continuous
 62
     7
370
    15
100
AcDbCircle
 10
977.0384456545
 20
137.5515577865
 30
0.0
 40
1.092999868017914
100
AcDbArc
 50
278.9268969692
 51
324.1153005258
  0
SPLINE
  5
277
330
1F
100
AcDbEntity
  8
0
  6
Continuous
 62
     7
370
    15
100
AcDbSpline
210
0.0
220
0.0
230
1.0
 70
     8
 71
     3
 72
    16
 73
    12
 74
     0
 42
0.00000001
 43
0.00000001
 40
0.0
 40
0.0
 40
0.0
 40
0.0
 40
0.0982179463949457
 40
0.1976635456526895
 40
0.294362849884367
 40
0.3914059361994023
 40
0.4911090399875693
 40
0.5996267846194531
 40
0.7226911515016431
 40
0.843178522719284
 40
1.0
 40
1.0
 40
1.0
 40
1.0
 10
977.2080509884792
 20
136.4717972842853
 30
0.0
 10
977.0741518295127
 20
136.8047117162676
 30
0.0
 10
976.8046798695232
 20
137.4747017683908
 30
0.0
 10
976.0366330059358
 20
138.2686070311225
 30
0.0
 10
975.0322706895531
 20
138.8119596066358
 30
0.0
 10
973.8625983570247
 20
139.060726495652
 30
0.0
 10
972.6062825570575
 20
138.9965453920728
 30
0.0
 10
971.347204784569
 20
138.5583164749366
 30
0.0
 10
970.3241705590983
 20
137.6906842940598
 30
0.0
 10
969.6468142126735
 20
136.3758208895793
 30
0.0
 10
969.5833646922389
 20
135.3284333009218
 30
0.0
 10
969.5474832280116
 20
134.736123066942
 30
0.0
  0
LWPOLYLINE
  5
278
330
1F
100
AcDbEntity
  8
0
  6
Continuous
 62
     7
370
    15
100
AcDbPolyline
 90
        9
 70
   128
 43
0.0
 10
969.547483228
 20
134.7361230669
 10
969.3988441451
 20
134.7412132105
 10
969.2559122069
 20
134.756288529
 10
969.124185942
 20
134.7807692742
 10
969.008731745
 20
134.8137148103
 10
968.913975261
 20
134.8538590042
 10
968.8435672744
 20
134.8996595858
 10
968.8002197965
 20
134.9493558897
 10
968.785571955
 20
135.001038239
  0
SPLINE
  5
279
330
1F
100
AcDbEntity
  8
0
  6
Continuous
 62
     7
370
    15
100
AcDbSpline
210
0.0
220
0.0
230
1.0
 70
     8
 71
     3
 72
    11
 73
     7
 74
     0
 42
0.00000001
 43
0.00000001
 40
0.0
 40
0.0
 40
0.0
 40
0.0
 40
0.1990421250522728
 40
0.4636326403712385
 40
0.7350869755496005
 40
1.0
 40
1.0
 40
1.0
 40
1.0
 10
974.2885856850583
 20
139.7591196378569
 30
0.0
 10
974.6316463215803
 20
139.6904098448686
 30
0.0
 10
975.430744043615
 20
139.5303628059105
 30
0.0
 10
976.524499530581
 20
138.939980803898
 30
0.0
 10
977.4382439484415
 20
138.0437509234358
 30
0.0
 10
977.7633979159571
 20
137.2854271321553
 30
0.0
 10
977.9239921791988
 20
136.9108893355231
 30
0.0
  0
SPLINE
  5
27A
330
1F
100
AcDbEntity
  8
0
  6
Continuous
 62
     7
370
    15
100
AcDbSpline
210
0.0
220
0.0
230
1.0
 70
     8
 71
     3
 72
    11
 73
     7
 74
     0
 42
0.00000001
 43
0.00000001
 40
0.0
 40
0.0
 40
0.0
 40
0.0
 40
0.1990422061820682
 40
0.4636329246606589
 40
0.7350870962311044
 40
1.0
 40
1.0
 40
1.0
 40
1.0
 10
974.2885856850581
 20
118.1230768939357
 30
0.0
 10
974.6316463647919
 20
118.1257098871693
 30
0.0
 10
975.4307443517565
 20
118.1318429700814
 30
0.0
 10
976.5244985812704
 20
118.1366841054987
 30
0.0
 10
977.4382441400709
 20
118.1027023128195
 30
0.0
 10
977.7633979713058
 20
118.0085521819726
 30
0.0
 10
977.9239921791988
 20
117.9620512207847
 30
0.0
  0
ARC
  5
27B
330
1F
100
AcDbEntity
  8
0
  6
Continuous
 62
     7
370
    15
100
AcDbCircle
 10
977.1531777898
 20
118.1346300611
 30
0.0
 40
0.789897638287563
100
AcDbArc
 50
273.9834743426
 51
347.3800792584
  0
SPLINE
  5
27C
330
1F
100
AcDbEntity
  8
0
  6
Continuous
 62
     7
370
    15
100
AcDbSpline
210
0.0
220
0.0
230
1.0
 70
     8
 71
     3
 72
    16
 73
    12
 74
     0
 42
0.00000001
 43
0.00000001
 40
0.0
 40
0.0
 40
0.0
 40
0.0
 40
0.0982181612537662
 40
0.1976634951535788
 40
0.2943629572596207
 40
0.3914060115790897
 40
0.4911090917950228
 40
0.5996268171355833
 40
0.7226908073332007
 40
0.8431783130980836
 40
0.9999999999999999
 40
0.9999999999999999
 40
0.9999999999999999
 40
0.9999999999999999
 10
977.2080509884792
 20
117.3466407140593
 30
0.0
 10
977.0741522949802
 20
117.4154954582975
 30
0.0
 10
976.8046819300736
 20
117.5540652424423
 30
0.0
 10
976.036630335063
 20
117.6464692539616
 30
0.0
 10
975.0322722678691
 20
117.6830316138284
 30
0.0
 10
973.8625981176239
 20
117.6897738354754
 30
0.0
 10
972.6062823752792
 20
117.6884855432683
 30
0.0
 10
971.3472070423164
 20
117.671622168961
 30
0.0
 10
970.3241680773554
 20
117.58565907718
 30
0.0
 10
969.6468146979144
 20
117.354981403581
 30
0.0
 10
969.5833648697139
 20
117.0371736644067
 30
0.0
 10
969.5474832280116
 20
116.8574495619039
 30
0.0
  0
ARC
  5
27D
330
1F
100
AcDbEntity
  8
0
  6
Continuous
 62
     7
370
    15
100
AcDbCircle
 10
969.5288479051
 20
117.6007507472
 30
0.0
 40
0.743534751945591
100
AcDbArc
 50
181.5117614095
 51
271.4361630892
  0
SPLINE
  5
27E
330
1F
100
AcDbEntity
  8
0
  6
Continuous
 62
     7
370
    15
100
AcDbSpline
210
0.0
220
0.0
230
1.0
 70
     8
 71
     3
 72
    14
 73
    10
 74
     0
 42
0.00000001
 43
0.00000001
 40
0.0
 40
0.0
 40
0.0
 40
0.0
 40
0.0621969610219594
 40
0.215764555131408
 40
0.3692821023717273
 40
0.5269932706822654
 40
0.6847104768401263
 40
0.8423235842926899
 40
1.0
 40
1.0
 40
1.0
 40
1.0
 10
977.2080509884793
 20
121.4103992475073
 30
0.0
 10
977.2946451523394
 20
121.6950810943466
 30
0.0
 10
977.5950448975241
 20
122.6826575133229
 30
0.0
 10
977.9877312891684
 20
124.4937973390546
 30
0.0
 10
978.2874499185634
 20
126.8877870506249
 30
0.0
 10
978.3606436198205
 20
129.3709289744474
 30
0.0
 10
978.2055348419896
 20
131.8579499534532
 30
0.0
 10
977.83423546927
 20
134.268780272764
 30
0.0
 10
977.4168070877854
 20
135.7373599864306
 30
0.0
 10
977.2080509884792
 20
136.4717972842853
 30
0.0
  0
LINE
  5
27F
330
1F
100
AcDbEntity
  8
0
  6
Continuous
 62
     7
370
    15
100
AcDbLine
 10
969.547483228
 20
134.7361230669
 30
0.0
 11
969.547483228
 21
123.1460734649
 31
0.0
  0
LINE
  5
280
330
1F
100
AcDbEntity
  8
0
  6
Continuous
 62
     7
370
    15
100
AcDbLine
 10
977.9239921792
 20
139.920145311
 30
0.0
 11
977.9239921792
 21
136.9108893355
 31
0.0
  0
LINE
  5
281
330
1F
100
AcDbEntity
  8
0
  6
Continuous
 62
     7
370
    15
100
AcDbLine
 10
977.9239921792
 20
120.9713071963
 30
0.0
 11
977.9239921792
 21
117.9620512208
 31
0.0
  0
SPLINE
  5
282
330
1F
100
AcDbEntity
  8
0
  6
Continuous
 62
     7
370
    15
100
AcDbSpline
210
0.0
220
0.0
230
1.0
 70
     8
 71
     3
 72
    14
 73
    10
 74
     0
 42
0.00000001
 43
0.00000001
 40
0.0
 40
0.0
 40
0.0
 40
0.0
 40
0.0621967599939145
 40
0.2157645693335241
 40
0.3692818806310841
 40
0.5269933343132196
 40
0.6847103099654783
 40
0.8423235186082477
 40
1.0
 40
1.0
 40
1.0
 40
1.0
 10
977.2080509884792
 20
140.5355558177333
 30
0.0
 10
977.2946452042303
 20
140.6050844656028
 30
0.0
 10
977.5950461201322
 20
140.8462838265565
 30
0.0
 10
977.9877302463691
 20
141.4815469749654
 30
0.0
 10
978.2874504595954
 20
142.5946284879825
 30
0.0
 10
978.3606436277083
 20
144.0502421682204
 30
0.0
 10
978.2055345477312
 20
145.7972050980277
 30
0.0
 10
977.8342355433048
 20
147.7704058012434
 30
0.0
 10
977.4168070967839
 20
149.2074949901422
 30
0.0
 10
977.2080509884792
 20
149.9261837830643
 30
0.0
  0
LINE
  5
283
330
1F
100
AcDbEntity
  8
0
  6
Continuous
 62
     7
370
    15
100
AcDbLine
 10
969.547483228
 20
148.251025044
 30
0.0
 11
969.547483228
 21
141.0247469699
 31
0.0
  0
SPLINE
  5
284
330
1F
100
AcDbEntity
  8
0
  6
Continuous
 62
     7
370
    15
100
AcDbSpline
210
0.0
220
0.0
230
1.0
 70
     8
 71
     3
 72
    16
 73
    12
 74
     0
 42
0.00000001
 43
0.00000001
 40
0.0
 40
0.0
 40
0.0
 40
0.0
 40
0.0982181825145157
 40
0.197663511917933
 40
0.2943629921057582
 40
0.3914059937951438
 40
0.4911090637593414
 40
0.5996267847378175
 40
0.722690935712681
 40
0.8431783828149256
 40
1.0
 40
1.0
 40
1.0
 40
1.0
 10
977.2080509884792
 20
149.9261837830643
 30
0.0
 10
977.0741523258813
 20
150.2724665974323
 30
0.0
 10
976.8046820586396
 20
150.9693587150877
 30
0.0
 10
976.0366301207175
 20
151.866943720689
 30
0.0
 10
975.0322728155961
 20
152.5079278642018
 30
0.0
 10
973.862597710687
 20
152.8113922873184
 30
0.0
 10
972.6062824884076
 20
152.7326494323314
 30
0.0
 10
971.3472059736721
 20
152.2030509004295
 30
0.0
 10
970.3241691602518
 20
151.2070915158612
 30
0.0
 10
969.6468144479762
 20
149.7981617764997
 30
0.0
 10
969.5833647798498
 20
148.8098993524618
 30
0.0
 10
969.5474832280116
 20
148.2510250439744
 30
0.0
  0
SPLINE
  5
285
330
1F
100
AcDbEntity
  8
0
  6
Continuous
 62
     7
370
    15
100
AcDbSpline
210
0.0
220
0.0
230
1.0
 70
     8
 71
     3
 72
    14
 73
    10
 74
     0
 42
0.00000001
 43
0.00000001
 40
0.0
 40
0.0
 40
0.0
 40
0.0
 40
0.062196943084285
 40
0.2157645200305921
 40
0.3692822590828279
 40
0.5269933953410263
 40
0.6847106540656319
 40
0.8423235682725272
 40
1.0
 40
1.0
 40
1.0
 40
1.0
 10
977.2080509884792
 20
107.9560127487283
 30
0.0
 10
977.2946451519315
 20
108.2414766557939
 30
0.0
 10
977.5950449334682
 20
109.2317662076551
 30
0.0
 10
977.987731612509
 20
110.8549567569521
 30
0.0
 10
978.2874497196018
 20
112.7271314006207
 30
0.0
 10
978.3606435931946
 20
114.3679424577774
 30
0.0
 10
978.205535143435
 20
115.7222464621156
 30
0.0
 10
977.8342350559767
 20
116.7553009738047
 30
0.0
 10
977.4168070423648
 20
117.149500995742
 30
0.0
 10
977.2080509884792
 20
117.3466407140593
 30
0.0
  0
SPLINE
  5
286
330
1F
100
AcDbEntity
  8
0
  6
Continuous
 62
     7
370
    15
100
AcDbSpline
210
0.0
220
0.0
230
1.0
 70
     8
 71
     3
 72
    16
 73
    12
 74
     0
 42
0.00000001
 43
0.00000001
 40
0.0
 40
0.0
 40
0.0
 40
0.0
 40
0.1632159154733609
 40
0.2700785493221903
 40
0.368807801826261
 40
0.465414547548418
 40
0.562667294596742
 40
0.6630040278015648
 40
0.7707095454270602
 40
0.8765167844448076
 40
1.0
 40
1.0
 40
1.0
 40
1.0
 10
969.5474832280116
 20
109.6311714878182
 30
0.0
 10
969.5861320278556
 20
109.0483624135612
 30
0.0
 10
969.6500854221348
 20
108.0839697631837
 30
0.0
 10
970.2740231504179
 20
106.7924061198106
 30
0.0
 10
971.0882632128578
 20
105.9020393975413
 30
0.0
 10
972.1255502757144
 20
105.3076357730674
 30
0.0
 10
973.3102754944824
 20
105.0573730224954
 30
0.0
 10
974.5635236763787
 20
105.1952853680449
 30
0.0
 10
975.7234693348904
 20
105.7526335841731
 30
0.0
 10
976.7021991898968
 20
106.7111464381404
 30
0.0
 10
977.0309850338101
 20
107.5202656735231
 30
0.0
 10
977.2080509884792
 20
107.9560127487283
 30
0.0
  0
LINE
  5
287
330
1F
100
AcDbEntity
  8
0
  6
Continuous
 62
     7
370
    15
100
AcDbLine
 10
969.547483228
 20
116.8574495619
 30
0.0
 11
969.547483228
 21
109.6311714878
 31
0.0
  0
SPLINE
  5
288
330
1F
100
AcDbEntity
  8
0
  6
Continuous
 62
     7
370
    15
100
AcDbSpline
210
0.0
220
0.0
230
1.0
 70
     8
 71
     3
 72
    14
 73
    10
 74
     0
 42
0.00000001
 43
0.00000001
 40
0.0
 40
0.0
 40
0.0
 40
0.0
 40
0.1575843361675384
 40
0.3151114939705762
 40
0.4729864218867932
 40
0.6308559563766561
 40
0.784361516205899
 40
0.9379121533048436
 40
1.0
 40
1.0
 40
1.0
 40
1.0
 10
977.9239921791988
 20
136.9108893355231
 30
0.0
 10
978.1354557146043
 20
136.1328447099565
 30
0.0
 10
978.5583060573633
 20
134.5770377668261
 30
0.0
 10
978.9335384594649
 20
132.0263317001059
 30
0.0
 10
979.0905542666657
 20
129.3957655086475
 30
0.0
 10
979.0163915125016
 20
126.769278273683
 30
0.0
 10
978.7134215372835
 20
124.2363279184004
 30
0.0
 10
978.3160595856417
 20
122.3191620070481
 30
0.0
 10
978.0116418485063
 20
121.2726304547143
 30
0.0
 10
977.9239921791988
 20
120.9713071962695
 30
0.0
  0
SPLINE
  5
289
330
1F
100
AcDbEntity
  8
0
  6
Continuous
 62
     7
370
    15
100
AcDbSpline
210
0.0
220
0.0
230
1.0
 70
     8
 71
     3
 72
    14
 73
    10
 74
     0
 42
0.00000001
 43
0.00000001
 40
0.0
 40
0.0
 40
0.0
 40
0.0
 40
0.1575843664349227
 40
0.3151116422173079
 40
0.4729864199847891
 40
0.6308560620459952
 40
0.7843617095011837
 40
0.9379123405157708
 40
1.0
 40
1.0
 40
1.0
 40
1.0
 10
977.9239921791988
 20
149.8583127191167
 30
0.0
 10
978.1354557367272
 20
149.0969895888196
 30
0.0
 10
978.5583062414405
 20
147.5746191451434
 30
0.0
 10
978.9335381657916
 20
145.4874165644318
 30
0.0
 10
979.0905543558657
 20
143.6395357974395
 30
0.0
 10
979.0163915211996
 20
142.1000051266863
 30
0.0
 10
978.713421490673
 20
140.9220036251492
 30
0.0
 10
978.3160603620736
 20
140.2493588296237
 30
0.0
 10
978.0116418778834
 20
139.9937433915715
 30
0.0
 10
977.9239921791989
 20
139.920145311008
 30
0.0
  0
LINE
  5
28A
330
1F
100
AcDbEntity
  8
0
  6
Continuous
 62
     7
370
    15
100
AcDbLine
 10
977.9239921792
 20
150.601537936
 30
0.0
 11
977.9239921792
 21
149.8583127191
 31
0.0
  0
SPLINE
  5
28B
330
1F
100
AcDbEntity
  8
0
  6
Continuous
 62
     7
370
    15
100
AcDbSpline
210
0.0
220
0.0
230
1.0
 70
     8
 71
     3
 72
    10
 73
     6
 74
     0
 42
0.00000001
 43
0.00000001
 40
0.0
 40
0.0
 40
0.0
 40
0.0
 40
0.0785415084767805
 40
0.7372111018731484
 40
1.0
 40
1.0
 40
1.0
 40
1.0
 10
978.7224261982876
 20
148.491179608355
 30
0.0
 10
978.711005890718
 20
148.5324683510789
 30
0.0
 10
978.6038119025908
 20
148.9200152687375
 30
0.0
 10
978.3145397296261
 20
149.66403938694
 30
0.0
 10
978.010656132474
 20
150.3935035228592
 30
0.0
 10
977.9239921791988
 20
150.6015379359822
 30
0.0
  0
SPLINE
  5
28C
330
1F
100
AcDbEntity
  8
0
  6
Continuous
 62
     7
370
    15
100
AcDbSpline
210
0.0
220
0.0
230
1.0
 70
     8
 71
     3
 72
     9
 73
     5
 74
     0
 42
0.00000001
 43
0.00000001
 40
0.0
 40
0.0
 40
0.0
 40
0.0
 40
0.6612108023193115
 40
1.0
 40
1.0
 40
1.0
 40
1.0
 10
977.9239921791989
 20
107.2806585958104
 30
0.0
 10
978.1419413696683
 20
107.8050639784213
 30
0.0
 10
978.4715627093454
 20
108.5981626101609
 30
0.0
 10
978.644095726724
 20
109.1650042979446
 30
0.0
 10
978.7025480492549
 20
109.3570441385608
 30
0.0
  0
LINE
  5
28D
330
1F
100
AcDbEntity
  8
0
  6
Continuous
 62
     7
370
    15
100
AcDbLine
 10
977.9239921792
 20
108.0238838127
 30
0.0
 11
977.9239921792
 21
107.2806585958
 31
0.0
  0
SPLINE
  5
28E
330
1F
100
AcDbEntity
  8
0
  6
Continuous
 62
     7
370
    15
100
AcDbSpline
210
0.0
220
0.0
230
1.0
 70
     8
 71
     3
 72
    14
 73
    10
 74
     0
 42
0.00000001
 43
0.00000001
 40
0.0
 40
0.0
 40
0.0
 40
0.0
 40
0.1575841092795393
 40
0.3151115265377705
 40
0.4729864005548705
 40
0.6308558362993028
 40
0.7843615727680058
 40
0.9379121563361495
 40
1.0
 40
1.0
 40
1.0
 40
1.0
 10
977.9239921791988
 20
117.9620512207847
 30
0.0
 10
978.1354558207186
 20
117.7531679402591
 30
0.0
 10
978.5583070281862
 20
117.3354765264767
 30
0.0
 10
978.9335379610586
 20
116.2420067340506
 30
0.0
 10
979.0905544240297
 20
114.8096196290734
 30
0.0
 10
979.016391211379
 20
113.0739740554599
 30
0.0
 10
978.7134219461357
 20
111.0934433653891
 30
0.0
 10
978.3160594947204
 20
109.3754181193689
 30
0.0
 10
978.0116418427085
 20
108.3260297006742
 30
0.0
 10
977.9239921791989
 20
108.0238838126759
 30
0.0
  0
LINE
  5
28F
330
1F
100
AcDbEntity
  8
0
  6
Continuous
 62
     7
370
    15
100
AcDbLine
 10
968.785571955
 20
122.8811582928
 30
0.0
 11
968.785571955
 21
135.001038239
 31
0.0
  0
ARC
  5
290
330
1F
100
AcDbEntity
  8
0
  6
Continuous
 62
     7
370
    15
100
AcDbCircle
 10
977.5045624324
 20
108.6382531029
 30
0.0
 40
0.7438890624188478
100
AcDbArc
 50
246.5095429528
 51
304.321342764
  0
ARC
  5
291
330
1F
100
AcDbEntity
  8
0
  6
Continuous
 62
     7
370
    15
100
AcDbCircle
 10
977.5045624324
 20
149.2439434289
 30
0.0
 40
0.7438890624188478
100
AcDbArc
 50
55.678657236
 51
113.4904570472
  0
LWPOLYLINE
  5
292
330
1F
100
AcDbEntity
  8
0
  6
Continuous
 62
     7
370
    15
100
AcDbPolyline
 90
        9
 70
   128
 43
0.0
 10
968.785571955
 20
110.0245137146
 10
968.8002197965
 20
109.9477764597
 10
968.8435672744
 20
109.8739877721
 10
968.913975261
 20
109.8059844604
 10
969.008731745
 20
109.7463779529
 10
969.124185942
 20
109.697461166
 10
969.2559122069
 20
109.6611135086
 10
969.3988441451
 20
109.6387301018
 10
969.547483228
 20
109.6311714878
  0
LINE
  5
293
330
1F
100
AcDbEntity
  8
0
  6
Continuous
 62
     7
370
    15
100
AcDbLine
 10
968.785571955
 20
110.0245137146
 30
0.0
 11
968.785571955
 21
117.5811346998
 31
0.0
  0
LWPOLYLINE
  5
294
330
1F
100
AcDbEntity
  8
0
  6
Continuous
 62
     7
370
    15
100
AcDbPolyline
 90
        9
 70
   128
 43
0.0
 10
969.547483228
 20
148.251025044
 10
969.3988441451
 20
148.24346643
 10
969.2559122069
 20
148.2210830232
 10
969.124185942
 20
148.1847353658
 10
969.008731745
 20
148.1358185788
 10
968.913975261
 20
148.0762120714
 10
968.8435672744
 20
148.0082087597
 10
968.8002197965
 20
147.9344200721
 10
968.785571955
 20
147.8576828172
  0
LINE
  5
295
330
1F
100
AcDbEntity
  8
0
  6
Continuous
 62
     7
370
    15
100
AcDbLine
 10
968.785571955
 20
140.301061832
 30
0.0
 11
968.785571955
 21
147.8576828172
 31
0.0
  0
LINE
  5
296
330
1F
100
AcDbEntity
  8
0
  6
Continuous
 62
     7
370
    15
100
AcDbLine
 10
949.7855781539
 20
122.8054571343
 30
0.0
 11
949.7855781539
 21
118.4410984075
 31
0.0
  0
LINE
  5
297
330
1F
100
AcDbEntity
  8
0
  6
Continuous
 62
     7
370
    15
100
AcDbLine
 10
949.7855781539
 20
139.4410981243
 30
0.0
 11
949.7855781539
 21
135.0630526809
 31
0.0
  0
SPLINE
  5
298
330
1F
100
AcDbEntity
  8
0
  6
Continuous
 62
     7
370
    15
100
AcDbSpline
210
0.0
220
0.0
230
1.0
 70
     8
 71
     3
 72
    11
 73
     7
 74
     0
 42
0.00000001
 43
0.00000001
 40
0.0
 40
0.0
 40
0.0
 40
0.0
 40
0.3340921822380208
 40
0.6236911435656123
 40
0.9185118483819183
 40
1.0
 40
1.0
 40
1.0
 40
1.0
 10
977.9239921791988
 20
108.0238838126759
 30
0.0
 10
977.7113439621339
 20
107.4944400684865
 30
0.0
 10
977.3143672690852
 20
106.5060620344506
 30
0.0
 10
976.1530674998045
 20
105.345978177513
 30
0.0
 10
975.0810037716424
 20
104.8032971742475
 30
0.0
 10
974.4296365963762
 20
104.6634980889229
 30
0.0
 10
974.2885856850581
 20
104.633225165854
 30
0.0
  0
SPLINE
  5
299
330
1F
100
AcDbEntity
  8
0
  6
Continuous
 62
     7
370
    15
100
AcDbSpline
210
0.0
220
0.0
230
1.0
 70
     8
 71
     3
 72
    11
 73
     7
 74
     0
 42
0.00000001
 43
0.00000001
 40
0.0
 40
0.0
 40
0.0
 40
0.0
 40
0.0091296210903941
 40
0.4999907543383361
 40
0.990851887586278
 40
1.0
 40
1.0
 40
1.0
 40
1.0
 10
974.2885856850581
 20
104.633225165854
 30
0.0
 10
974.283817783564
 20
104.6324360161728
 30
0.0
 10
974.0226999736301
 20
104.5892176240323
 30
0.0
 10
973.4968499095138
 20
104.5480156873192
 30
0.0
 10
972.9710194192456
 20
104.5893036412391
 30
0.0
 10
972.709876726699
 20
104.6324360207337
 30
0.0
 10
972.7050988896327
 20
104.633225165854
 30
0.0
  0
SPLINE
  5
29A
330
1F
100
AcDbEntity
  8
0
  6
Continuous
 62
     7
370
    15
100
AcDbSpline
210
0.0
220
0.0
230
1.0
 70
     8
 71
     3
 72
    12
 73
     8
 74
     0
 42
0.00000001
 43
0.00000001
 40
0.0
 40
0.0
 40
0.0
 40
0.0
 40
0.1136357776362674
 40
0.3008422432580906
 40
0.4919211779212126
 40
0.6964441131810715
 40
0.9999999999999999
 40
0.9999999999999999
 40
0.9999999999999999
 40
0.9999999999999999
 10
972.7050988896327
 20
104.633225165854
 30
0.0
 10
972.4283442194153
 20
104.7006493458554
 30
0.0
 10
971.6956568778731
 20
104.8791498320876
 30
0.0
 10
970.6246749759605
 20
105.5292836984824
 30
0.0
 10
969.6575761750399
 20
106.6064975068503
 30
0.0
 10
968.9159431216889
 20
108.1560931301166
 30
0.0
 10
968.8343314950869
 20
109.3257140436702
 30
0.0
 10
968.785571955009
 20
110.0245137145619
 30
0.0
  0
SPLINE
  5
29B
330
1F
100
AcDbEntity
  8
0
  6
Continuous
 62
     7
370
    15
100
AcDbSpline
210
0.0
220
0.0
230
1.0
 70
     8
 71
     3
 72
    12
 73
     8
 74
     0
 42
0.00000001
 43
0.00000001
 40
0.0
 40
0.0
 40
0.0
 40
0.0
 40
0.2917318117462069
 40
0.5225572884776069
 40
0.7611461711448859
 40
0.9714529246513934
 40
0.9999999999999999
 40
0.9999999999999999
 40
0.9999999999999999
 40
0.9999999999999999
 10
968.785571955009
 20
147.8576828172307
 30
0.0
 10
968.830745981652
 20
148.5275647239613
 30
0.0
 10
968.9116628234967
 20
149.7274738826029
 30
0.0
 10
969.7196688765031
 20
151.419000193347
 30
0.0
 10
970.931131946006
 20
152.6271727873614
 30
0.0
 10
972.0500876859841
 20
153.1185196443827
 30
0.0
 10
972.6351714739405
 20
153.2350446548989
 30
0.0
 10
972.7050988896327
 20
153.2489713659386
 30
0.0
  0
SPLINE
  5
29C
330
1F
100
AcDbEntity
  8
0
  6
Continuous
 62
     7
370
    15
100
AcDbSpline
210
0.0
220
0.0
230
1.0
 70
     8
 71
     3
 72
    11
 73
     7
 74
     0
 42
0.00000001
 43
0.00000001
 40
0.0
 40
0.0
 40
0.0
 40
0.0
 40
0.0091296210903941
 40
0.4999907543383361
 40
0.990851887586278
 40
1.0
 40
1.0
 40
1.0
 40
1.0
 10
974.2885856850581
 20
153.2489713659386
 30
0.0
 10
974.283817783564
 20
153.2497605156198
 30
0.0
 10
974.0226999736301
 20
153.2929789077603
 30
0.0
 10
973.4968499095138
 20
153.3341808444734
 30
0.0
 10
972.9710194192456
 20
153.2928928905535
 30
0.0
 10
972.709876726699
 20
153.2497605110589
 30
0.0
 10
972.7050988896327
 20
153.2489713659386
 30
0.0
  0
SPLINE
  5
29D
330
1F
100
AcDbEntity
  8
0
  6
Continuous
 62
     7
370
    15
100
AcDbSpline
210
0.0
220
0.0
230
1.0
 70
     8
 71
     3
 72
    11
 73
     7
 74
     0
 42
0.00000001
 43
0.00000001
 40
0.0
 40
0.0
 40
0.0
 40
0.0
 40
0.199042135647422
 40
0.4636329451551787
 40
0.7350874260487358
 40
1.0
 40
1.0
 40
1.0
 40
1.0
 10
974.2885856850581
 20
153.2489713659386
 30
0.0
 10
974.6316463975353
 20
153.1606587454348
 30
0.0
 10
975.4307447792697
 20
152.954950339999
 30
0.0
 10
976.5244990939887
 20
152.2139150886131
 30
0.0
 10
977.4382430993687
 20
151.1303167247544
 30
0.0
 10
977.7633977569675
 20
150.2788523698202
 30
0.0
 10
977.9239921791988
 20
149.8583127191167
 30
0.0
  0
SPLINE
  5
29E
330
1F
100
AcDbEntity
  8
0
  6
Continuous
 62
     7
370
    15
100
AcDbSpline
210
0.0
220
0.0
230
1.0
 70
     8
 71
     3
 72
    12
 73
     8
 74
     0
 42
0.00000001
 43
0.00000001
 40
0.0
 40
0.0
 40
0.0
 40
0.0
 40
0.2917317955505303
 40
0.522557212868567
 40
0.7611461895984393
 40
0.971452987966242
 40
0.9999999999999999
 40
0.9999999999999999
 40
0.9999999999999999
 40
0.9999999999999999
 10
968.785571955009
 20
108.7155156215529
 30
0.0
 10
968.8307459495558
 20
108.2423987770843
 30
0.0
 10
968.9116627266932
 20
107.3949401751169
 30
0.0
 10
969.7196691488592
 20
106.0985703823946
 30
0.0
 10
970.9311323266214
 20
105.1395199631067
 30
0.0
 10
972.0500863339838
 20
104.7395489999662
 30
0.0
 10
972.6351714633141
 20
104.6445760201417
 30
0.0
 10
972.7050988896327
 20
104.633225165854
 30
0.0
  0
LINE
  5
29F
330
1F
100
AcDbEntity
  8
0
  6
Continuous
 62
     7
370
    15
100
AcDbLine
 10
968.785571955
 20
110.0245137146
 30
0.0
 11
968.785571955
 21
108.7155156216
 31
0.0
  0
SPLINE
  5
2A0
330
1F
100
AcDbEntity
  8
0
  6
Continuous
 62
     7
370
    15
100
AcDbSpline
210
0.0
220
0.0
230
1.0
 70
     8
 71
     3
 72
    12
 73
     8
 74
     0
 42
0.00000001
 43
0.00000001
 40
0.0
 40
0.0
 40
0.0
 40
0.0
 40
0.11363576559384
 40
0.3008422377268713
 40
0.4919212657986686
 40
0.6964439694484572
 40
1.0
 40
1.0
 40
1.0
 40
1.0
 10
972.7050988896328
 20
153.2489713659386
 30
0.0
 10
972.4283442194144
 20
153.1940379273179
 30
0.0
 10
971.6956568136955
 20
153.0486057342549
 30
0.0
 10
970.6246746181206
 20
152.523228119372
 30
0.0
 10
969.6575770290715
 20
151.6740957888705
 30
0.0
 10
968.9159423956684
 20
150.4874088007822
 30
0.0
 10
968.834331243283
 20
149.6606406730572
 30
0.0
 10
968.785571955009
 20
149.1666809102397
 30
0.0
  0
LINE
  5
2A1
330
1F
100
AcDbEntity
  8
0
  6
Continuous
 62
     7
370
    15
100
AcDbLine
 10
968.785571955
 20
149.1666809102
 30
0.0
 11
968.785571955
 21
147.8576828172
 31
0.0
  0
SPLINE
  5
2A2
330
1F
100
AcDbEntity
  8
0
  6
Continuous
 62
     7
370
    15
100
AcDbSpline
210
0.0
220
0.0
230
1.0
 70
     8
 71
     3
 72
    11
 73
     7
 74
     0
 42
0.00000001
 43
0.00000001
 40
0.0
 40
0.0
 40
0.0
 40
0.0
 40
0.1990420501483557
 40
0.4636330763910596
 40
0.7350866204168816
 40
1.0
 40
1.0
 40
1.0
 40
1.0
 10
974.2885856850581
 20
104.633225165854
 30
0.0
 10
974.6316465503737
 20
104.7052187600157
 30
0.0
 10
975.4307458575655
 20
104.8729150408608
 30
0.0
 10
976.5244959400457
 20
105.4693291063412
 30
0.0
 10
977.4382462086439
 20
106.323189012263
 30
0.0
 10
977.7633984317099
 20
106.9641070691909
 30
0.0
 10
977.9239921791988
 20
107.2806585958104
 30
0.0
  0
SPLINE
  5
2A3
330
1F
100
AcDbEntity
  8
0
  6
Continuous
 62
     7
370
    15
100
AcDbSpline
210
0.0
220
0.0
230
1.0
 70
     8
 71
     3
 72
    11
 73
     7
 74
     0
 42
0.00000001
 43
0.00000001
 40
0.0
 40
0.0
 40
0.0
 40
0.0
 40
0.3340924351088149
 40
0.6236911309547905
 40
0.918511843620822
 40
1.0
 40
1.0
 40
1.0
 40
1.0
 10
977.9239921791988
 20
150.6015379359822
 30
0.0
 10
977.7113442110357
 20
151.0013546465169
 30
0.0
 10
977.3143682911357
 20
151.7477413053074
 30
0.0
 10
976.1530667068905
 20
152.6706550873236
 30
0.0
 10
975.0810037728714
 20
153.1103385326058
 30
0.0
 10
974.4296365994836
 20
153.2242946350415
 30
0.0
 10
974.2885856850581
 20
153.2489713659386
 30
0.0
  0
LINE
  5
2A4
330
1F
100
AcDbEntity
  8
0
  6
Continuous
 62
     7
370
    15
100
AcDbLine
 10
924.7855721934
 20
147.4705096712
 30
0.0
 11
921.7855810149
 21
147.4705096712
 31
0.0
  0
LINE
  5
2A5
330
1F
100
AcDbEntity
  8
0
  6
Continuous
 62
     7
370
    15
100
AcDbLine
 10
921.7855810149
 20
147.4705096712
 30
0.0
 11
921.7855810149
 21
132.9410984559
 31
0.0
  0
LINE
  5
2A6
330
1F
100
AcDbEntity
  8
0
  6
Continuous
 62
     7
370
    15
100
AcDbLine
 10
921.7855810149
 20
124.9410980759
 30
0.0
 11
921.7855810149
 21
58.9410979679
 31
0.0
  0
LINE
  5
2A7
330
1F
100
AcDbEntity
  8
0
  6
Continuous
 62
     7
370
    15
100
AcDbLine
 10
924.7855721934
 20
147.4705096712
 30
0.0
 11
924.7855721934
 21
138.4288473433
 31
0.0
  0
LINE
  5
2A8
330
1F
100
AcDbEntity
  8
0
  6
Continuous
 62
     7
370
    15
100
AcDbLine
 10
924.7855721934
 20
119.4488471752
 30
0.0
 11
924.7855721934
 21
58.9410979679
 31
0.0
  0
LINE
  5
2A9
330
1F
100
AcDbEntity
  8
0
  6
Continuous
 62
     7
370
    15
100
AcDbLine
 10
921.7855810149
 20
148.9410978189
 30
0.0
 11
924.7855721934
 21
148.9410978189
 31
0.0
  0
LINE
  5
2AA
330
1F
100
AcDbEntity
  8
0
  6
Continuous
 62
     7
370
    15
100
AcDbLine
 10
921.7855810149
 20
147.4705096712
 30
0.0
 11
921.7855810149
 21
148.9410978189
 31
0.0
  0
LINE
  5
2AB
330
1F
100
AcDbEntity
  8
0
  6
Continuous
 62
     7
370
    15
100
AcDbLine
 10
924.7855721934
 20
148.9410978189
 30
0.0
 11
924.7855721934
 21
147.4705096712
 31
0.0
  0
SPLINE
  5
2AC
330
1F
100
AcDbEntity
  8
0
  6
Continuous
 62
     7
370
    15
100
AcDbSpline
210
0.0
220
0.0
230
1.0
 70
     8
 71
     3
 72
    94
 73
    90
 74
     0
 42
0.00000001
 43
0.00000001
 40
-0.0312500000000006
 40
-0.0312500000000006
 40
0.0
 40
0.0
 40
0.0312499999999991
 40
0.0312499999999991
 40
0.0468749999999986
 40
0.0468749999999986
 40
0.062499999999998
 40
0.062499999999998
 40
0.093749999999997
 40
0.093749999999997
 40
0.1249999999999959
 40
0.1249999999999959
 40
0.1406249999999958
 40
0.1406249999999958
 40
0.1562499999999956
 40
0.1562499999999956
 40
0.1874999999999961
 40
0.1874999999999961
 40
0.2031249999999968
 40
0.2031249999999968
 40
0.2187499999999976
 40
0.2187499999999976
 40
0.2499999999999991
 40
0.2499999999999991
 40
0.2656249999999993
 40
0.2656249999999993
 40
0.2812499999999995
 40
0.2812499999999995
 40
0.2968749999999997
 40
0.2968749999999997
 40
0.3124999999999999
 40
0.3124999999999999
 40
0.3437500000000004
 40
0.3437500000000004
 40
0.3593750000000007
 40
0.3593750000000007
 40
0.3750000000000009
 40
0.3750000000000009
 40
0.4062500000000006
 40
0.4062500000000006
 40
0.4218750000000005
 40
0.4218750000000005
 40
0.4375000000000004
 40
0.4375000000000004
 40
0.4687500000000002
 40
0.4687500000000002
 40
0.5
 40
0.5
 40
0.5312499999999998
 40
0.5312499999999998
 40
0.5468749999999997
 40
0.5468749999999997
 40
0.5624999999999996
 40
0.5624999999999996
 40
0.5937499999999998
 40
0.5937499999999998
 40
0.625
 40
0.625
 40
0.6562500000000003
 40
0.6562500000000003
 40
0.6718750000000004
 40
0.6718750000000004
 40
0.6875000000000006
 40
0.6875000000000006
 40
0.7187500000000008
 40
0.7187500000000008
 40
0.750000000000001
 40
0.750000000000001
 40
0.7656250000000006
 40
0.7656250000000006
 40
0.7812500000000001
 40
0.7812500000000001
 40
0.8124999999999993
 40
0.8124999999999993
 40
0.8281249999999989
 40
0.8281249999999989
 40
0.8437499999999984
 40
0.8437499999999984
 40
0.8749999999999984
 40
0.8749999999999984
 40
0.9062499999999986
 40
0.9062499999999986
 40
0.9218749999999988
 40
0.9218749999999988
 40
0.937499999999999
 40
0.937499999999999
 40
0.9687499999999994
 40
0.9687499999999994
 40
1.0
 40
1.0
 40
1.031249999999999
 40
1.031249999999999
 10
923.3732256444496
 20
129.7942590384459
 30
0.0
 10
923.3732153678715
 20
128.088094258662
 30
0.0
 10
923.4558896376037
 20
127.2447520521367
 30
0.0
 10
923.7013106907086
 20
125.9940416052651
 30
0.0
 10
923.8040832516303
 20
125.5787644257479
 30
0.0
 10
924.0471795236688
 20
124.768222307792
 30
0.0
 10
924.1876631312114
 20
124.3710361096099
 30
0.0
 10
924.6645323377626
 20
123.2031394512876
 30
0.0
 10
925.0572704581677
 20
122.4539720168794
 30
0.0
 10
925.9931343265604
 20
121.0302773142801
 30
0.0
 10
926.5222894509715
 20
120.3745414579254
 30
0.0
 10
927.4057733969305
 20
119.4731953492391
 30
0.0
 10
927.7153378012125
 20
119.1865581859555
 30
0.0
 10
928.3650954643759
 20
118.6413554253093
 30
0.0
 10
928.7061199156959
 20
118.3825208677577
 30
0.0
 10
929.7531358423283
 20
117.6657238595312
 30
0.0
 10
930.4883041040148
 20
117.258035510435
 30
0.0
 10
931.6536966568486
 20
116.7648058623388
 30
0.0
 10
932.0546498315585
 20
116.6204618074044
 30
0.0
 10
932.8716101653444
 20
116.3759675518699
 30
0.0
 10
933.2832819036543
 20
116.275846827324
 30
0.0
 10
934.526605374302
 20
116.0330838084754
 30
0.0
 10
935.3669194699426
 20
115.9504956123683
 30
0.0
 10
936.6450265358426
 20
115.948878961078
 30
0.0
 10
937.0712329511003
 20
115.9691502698398
 30
0.0
 10
937.9128907936537
 20
116.0492893838902
 30
0.0
 10
938.3300222230566
 20
116.1093663084055
 30
0.0
 10
939.1570122157
 20
116.2688741062703
 30
0.0
 10
939.566992661086
 20
116.3676454674549
 30
0.0
 10
940.3790498866689
 20
116.6079554329592
 30
0.0
 10
940.7834943028627
 20
116.7518024919
 30
0.0
 10
941.9590907259
 20
117.2453257835921
 30
0.0
 10
942.6962332909214
 20
117.6530009273282
 30
0.0
 10
943.7420091881575
 20
118.3657126066909
 30
0.0
 10
944.0801361033938
 20
118.6209523103506
 30
0.0
 10
944.7348864306324
 20
119.167738135119
 30
0.0
 10
945.0476264255859
 20
119.456171011012
 30
0.0
 10
945.936464254032
 20
120.3597925145334
 30
0.0
 10
946.4665105570757
 20
121.015353245275
 30
0.0
 10
947.1678242662317
 20
122.0784031975587
 30
0.0
 10
947.3860770594586
 20
122.4472650098673
 30
0.0
 10
947.7812472693448
 20
123.196679263302
 30
0.0
 10
947.959570056614
 20
123.5789441814648
 30
0.0
 10
948.4383073602021
 20
124.7478018371057
 30
0.0
 10
948.6833459999393
 20
125.5585784509044
 30
0.0
 10
949.0138845018616
 20
127.2324538059375
 30
0.0
 10
949.0973235023117
 20
128.077854261983
 30
0.0
 10
949.0985410110093
 20
129.78578756763
 30
0.0
 10
949.016261206489
 20
130.6259817335236
 30
0.0
 10
948.7748118368199
 20
131.8659346443137
 30
0.0
 10
948.6743792518669
 20
132.2758569914817
 30
0.0
 10
948.4324557591142
 20
133.0887137828314
 30
0.0
 10
948.290264242259
 20
133.4932155186872
 30
0.0
 10
947.8108386494222
 20
134.6713829153327
 30
0.0
 10
947.4196089071336
 20
135.4171342602242
 30
0.0
 10
946.4943121427834
 20
136.8294648837389
 30
0.0
 10
945.9550619413394
 20
137.5006962202456
 30
0.0
 10
944.7742507990935
 20
138.706652252179
 30
0.0
 10
944.1297064154843
 20
139.2486335242259
 30
0.0
 10
943.0806149989131
 20
139.9689085816152
 30
0.0
 10
942.7157360017461
 20
140.1943551779909
 30
0.0
 10
941.9735562975144
 20
140.6029429745156
 30
0.0
 10
941.5949282797196
 20
140.7882613515925
 30
0.0
 10
940.433547602044
 20
141.2800348562919
 30
0.0
 10
939.6228322598984
 20
141.5206145407441
 30
0.0
 10
937.9481470786646
 20
141.8492071227539
 30
0.0
 10
937.1072563042134
 20
141.9310002993739
 30
0.0
 10
935.8407572262137
 20
141.9336408515845
 30
0.0
 10
935.417719368681
 20
141.9142567768142
 30
0.0
 10
934.5698800317315
 20
141.8344805214881
 30
0.0
 10
934.1471669253111
 20
141.7738425690524
 30
0.0
 10
932.902289852928
 20
141.534185152069
 30
0.0
 10
932.0946328296982
 20
141.2996311682733
 30
0.0
 10
930.9239948404185
 20
140.8105793609446
 30
0.0
 10
930.5385006306533
 20
140.6236844139463
 30
0.0
 10
929.7904325540021
 20
140.2152209897417
 30
0.0
 10
929.4292794461753
 20
139.9935233370779
 30
0.0
 10
928.3816331526858
 20
139.2798695819301
 30
0.0
 10
927.7315331158835
 20
138.7385660681778
 30
0.0
 10
926.5316671679776
 20
137.5199106491468
 30
0.0
 10
926.0004882404819
 20
136.8607783329269
 30
0.0
 10
925.3037384996136
 20
135.8042910621812
 30
0.0
 10
925.0882209289298
 20
135.440524830313
 30
0.0
 10
924.6916158476839
 20
134.6891152670933
 30
0.0
 10
924.5099737315837
 20
134.2999340946794
 30
0.0
 10
924.0277520198424
 20
133.1206983835226
 30
0.0
 10
923.7853641482747
 20
132.3125970469607
 30
0.0
 10
923.4581238218757
 20
130.6526866342704
 30
0.0
 10
923.3732256444496
 20
129.7942590384459
 30
0.0
 10
923.3732153678715
 20
128.088094258662
 30
0.0
  0
SPLINE
  5
2AD
330
1F
100
AcDbEntity
  8
0
  6
Continuous
 62
     7
370
    15
100
AcDbSpline
210
0.0
220
0.0
230
1.0
 70
     8
 71
     3
 72
   101
 73
    97
 74
     0
 42
0.00000001
 43
0.00000001
 40
-0.0156250000000012
 40
-0.0156250000000012
 40
0.0
 40
0.0
 40
0.0312499999999989
 40
0.0312499999999989
 40
0.0624999999999979
 40
0.0624999999999979
 40
0.0781249999999973
 40
0.0781249999999973
 40
0.0937499999999968
 40
0.0937499999999968
 40
0.1249999999999952
 40
0.1249999999999952
 40
0.1562499999999936
 40
0.1562499999999936
 40
0.1718749999999928
 40
0.1718749999999928
 40
0.187499999999992
 40
0.187499999999992
 40
0.2187499999999905
 40
0.2187499999999905
 40
0.2343749999999892
 40
0.2343749999999892
 40
0.249999999999988
 40
0.249999999999988
 40
0.2812499999999855
 40
0.2812499999999855
 40
0.3124999999999831
 40
0.3124999999999831
 40
0.3281249999999822
 40
0.3281249999999822
 40
0.3437499999999814
 40
0.3437499999999814
 40
0.3749999999999805
 40
0.3749999999999805
 40
0.3906249999999803
 40
0.3906249999999803
 40
0.4062499999999802
 40
0.4062499999999802
 40
0.4374999999999805
 40
0.4374999999999805
 40
0.4531249999999808
 40
0.4531249999999808
 40
0.4687499999999811
 40
0.4687499999999811
 40
0.4999999999999816
 40
0.4999999999999816
 40
0.5312499999999821
 40
0.5312499999999821
 40
0.5468749999999825
 40
0.5468749999999825
 40
0.5624999999999827
 40
0.5624999999999827
 40
0.5781249999999829
 40
0.5781249999999829
 40
0.5937499999999831
 40
0.5937499999999831
 40
0.6249999999999837
 40
0.6249999999999837
 40
0.6406249999999843
 40
0.6406249999999843
 40
0.6562499999999849
 40
0.6562499999999849
 40
0.6874999999999852
 40
0.6874999999999852
 40
0.7031249999999855
 40
0.7031249999999855
 40
0.7187499999999858
 40
0.7187499999999858
 40
0.734374999999986
 40
0.734374999999986
 40
0.7499999999999862
 40
0.7499999999999862
 40
0.7812499999999866
 40
0.7812499999999866
 40
0.7968749999999869
 40
0.7968749999999869
 40
0.8124999999999871
 40
0.8124999999999871
 40
0.8437499999999882
 40
0.8437499999999882
 40
0.8593749999999891
 40
0.8593749999999891
 40
0.87499999999999
 40
0.87499999999999
 40
0.9062499999999926
 40
0.9062499999999926
 40
0.9218749999999938
 40
0.9218749999999938
 40
0.937499999999995
 40
0.9531249999999962
 40
0.9531249999999962
 40
0.9687499999999976
 40
0.9687499999999976
 40
0.9843749999999988
 40
0.9843749999999988
 40
1.0
 40
1.0
 40
1.031249999999999
 40
1.031249999999999
 10
921.3776473661713
 20
128.4474127830226
 30
0.0
 10
921.3776562786393
 20
129.9287404387931
 30
0.0
 10
921.4757078503594
 20
130.9168886626147
 30
0.0
 10
921.8538184217209
 20
132.8327353961241
 30
0.0
 10
922.1337873581951
 20
133.7653627912047
 30
0.0
 10
922.6908238146175
 20
135.1261623706934
 30
0.0
 10
922.9006899541009
 20
135.5753075522851
 30
0.0
 10
923.3590092323706
 20
136.442590211887
 30
0.0
 10
923.6080435327173
 20
136.8624289195986
 30
0.0
 10
924.4131545071634
 20
138.0816603709085
 30
0.0
 10
925.0272853276866
 20
138.8424074437453
 30
0.0
 10
926.4132896424502
 20
140.2475573274036
 30
0.0
 10
927.1642358343714
 20
140.871583413263
 30
0.0
 10
928.3745205889943
 20
141.6939416303177
 30
0.0
 10
928.7917821270594
 20
141.9493074730173
 30
0.0
 10
929.6560279358939
 20
142.4197436551805
 30
0.0
 10
930.10116494634
 20
142.6346979783242
 30
0.0
 10
931.4527512363074
 20
143.1982665795888
 30
0.0
 10
932.3846952178017
 20
143.4705027310633
 30
0.0
 10
933.821577622844
 20
143.7482557754252
 30
0.0
 10
934.3095004096647
 20
143.8185592113542
 30
0.0
 10
935.2883966213618
 20
143.9111479179672
 30
0.0
 10
935.7768219755915
 20
143.9336687847294
 30
0.0
 10
937.2390721988755
 20
143.9308963535402
 30
0.0
 10
938.2099189164412
 20
143.8363761264274
 30
0.0
 10
940.1433896274445
 20
143.4562053459091
 30
0.0
 10
941.0788870797857
 20
143.1774532994167
 30
0.0
 10
942.4203138750872
 20
142.6112740250663
 30
0.0
 10
942.8577624975535
 20
142.3981765375785
 30
0.0
 10
943.7151952652391
 20
141.9280262773678
 30
0.0
 10
944.1368441157042
 20
141.6684858617932
 30
0.0
 10
945.3495257248734
 20
140.8386054357443
 30
0.0
 10
946.0944648667409
 20
140.2138251444007
 30
0.0
 10
947.1180285573868
 20
139.1709667560143
 30
0.0
 10
947.4433746649266
 20
138.8055062482903
 30
0.0
 10
948.0616597706294
 20
138.0380873671978
 30
0.0
 10
948.3500939611218
 20
137.6416533936646
 30
0.0
 10
949.1524440751815
 20
136.4193105731366
 30
0.0
 10
949.6047970269883
 20
135.5586898467961
 30
0.0
 10
950.1590998838569
 20
134.1989435278824
 30
0.0
 10
950.323515456747
 20
133.7320171836811
 30
0.0
 10
950.6033074451108
 20
132.793568975366
 30
0.0
 10
950.7194906109903
 20
132.3203119036642
 30
0.0
 10
950.998849275712
 20
130.8887729111423
 30
0.0
 10
951.0940477203376
 20
129.9187800986299
 30
0.0
 10
951.0929591659849
 20
127.9468267957675
 30
0.0
 10
950.9967192033115
 20
126.9707371819909
 30
0.0
 10
950.7103542736702
 20
125.5212742928342
 30
0.0
 10
950.5915605717336
 20
125.0445093183121
 30
0.0
 10
950.310195144815
 20
124.1106621195201
 30
0.0
 10
950.1475039896578
 20
123.6523678878059
 30
0.0
 10
949.7787379999627
 20
122.7527897685976
 30
0.0
 10
949.5726663607111
 20
122.311504629551
 30
0.0
 10
949.1159736512245
 20
121.4464016668385
 30
0.0
 10
948.8637610551465
 20
121.0206349284732
 30
0.0
 10
948.0534784290518
 20
119.7939167298476
 30
0.0
 10
947.4409726854749
 20
119.0375587163698
 30
0.0
 10
946.413803890167
 20
117.9951436613122
 30
0.0
 10
946.0522597078839
 20
117.6623266170136
 30
0.0
 10
945.2958668806948
 20
117.0319810612871
 30
0.0
 10
944.9052478403174
 20
116.7378050391763
 30
0.0
 10
943.6971289114977
 20
115.9165647381321
 30
0.0
 10
942.8453481317125
 20
115.4475069414904
 30
0.0
 10
941.4877444027372
 20
114.8787605480572
 30
0.0
 10
941.020930553957
 20
114.7126298216837
 30
0.0
 10
940.0836546790122
 20
114.4343582734864
 30
0.0
 10
939.6104576152633
 20
114.3198341503001
 30
0.0
 10
938.6558639488841
 20
114.1350042415255
 30
0.0
 10
938.1743437616079
 20
114.0653723002862
 30
0.0
 10
937.2027187497885
 20
113.972419256337
 30
0.0
 10
936.7106750219325
 20
113.9488873736384
 30
0.0
 10
935.2349913322066
 20
113.9505274092156
 30
0.0
 10
934.2648404738128
 20
114.0460076624221
 30
0.0
 10
932.829507069495
 20
114.3268973853123
 30
0.0
 10
932.3542930646292
 20
114.4428731191299
 30
0.0
 10
931.4112030071095
 20
114.7256600103591
 30
0.0
 10
930.948322610268
 20
114.8921895461671
 30
0.0
 10
929.6021660572733
 20
115.4601591396167
 30
0.0
 10
928.7525246931469
 20
115.9290491876469
 30
0.0
 10
927.5426882346651
 20
116.7547008750631
 30
0.0
 10
927.1485741876751
 20
117.0529553922091
 30
0.0
 10
926.3973864105678
 20
117.6816263125428
 30
0.0
 10
926.0395282032057
 20
118.0122085238595
 30
0.0
 10
925.0182124145101
 20
119.0518279622299
 30
0.0
 10
924.4065249442375
 20
119.8082907665124
 30
0.0
 10
923.5952463038694
 20
121.0403241067784
 30
0.0
 10
923.3457007905643
 20
121.4631875769285
 30
0.0
 10
922.8918890446663
 20
122.3252253937627
 30
0.0
 10
922.4815906899541
 20
123.2058295744419
 30
0.0
 10
922.1568069356488
 20
124.1229214912151
 30
0.0
 10
921.87579613778
 20
125.0586907682936
 30
0.0
 10
921.7569681345922
 20
125.5381450973994
 30
0.0
 10
921.5677713359695
 20
126.500930457205
 30
0.0
 10
921.4968363768335
 20
126.9851083957608
 30
0.0
 10
921.4017754658598
 20
127.9589738432279
 30
0.0
 10
921.3776473661713
 20
128.4474127830226
 30
0.0
 10
921.3776562786393
 20
129.9287404387931
 30
0.0
  0
ARC
  5
2AE
330
1F
100
AcDbEntity
  8
0
  6
Continuous
 62
     7
370
    15
100
AcDbCircle
 10
916.7355780347
 20
128.9410982659
 30
0.0
 40
4.0
100
AcDbArc
 50
90.0
 51
270.0
  0
LINE
  5
2AF
330
1F
100
AcDbEntity
  8
0
  6
Continuous
 62
     7
370
    15
100
AcDbLine
 10
511.3355844243
 20
113.5410983493
 30
0.0
 11
511.3355844243
 21
144.3410981824
 31
0.0
  0
LINE
  5
2B0
330
1F
100
AcDbEntity
  8
0
  6
Continuous
 62
     7
370
    15
100
AcDbLine
 10
515.3355776294
 20
148.3410988381
 30
0.0
 11
515.3355776294
 21
109.5410976937
 31
0.0
  0
LINE
  5
2B1
330
1F
100
AcDbEntity
  8
0
  6
Continuous
 62
     7
370
    15
100
AcDbLine
 10
518.8355772717
 20
109.5410976937
 30
0.0
 11
518.8355772717
 21
148.3410988381
 31
0.0
  0
LINE
  5
2B2
330
1F
100
AcDbEntity
  8
0
  6
Continuous
 62
     7
370
    15
100
AcDbLine
 10
520.8355813249
 20
128.9410982659
 30
0.0
 11
520.8355813249
 21
115.0410985952
 31
0.0
  0
LINE
  5
2B3
330
1F
100
AcDbEntity
  8
0
  6
Continuous
 62
     7
370
    15
100
AcDbLine
 10
520.8355813249
 20
142.8410979366
 30
0.0
 11
520.8355813249
 21
128.9410982659
 31
0.0
  0
LINE
  5
2B4
330
1F
100
AcDbEntity
  8
0
  6
Continuous
 62
     7
370
    15
100
AcDbLine
 10
531.7855804189
 20
158.9410975953
 30
0.0
 11
911.7855756505
 21
158.9410975953
 31
0.0
  0
LINE
  5
2B5
330
1F
100
AcDbEntity
  8
0
  6
Continuous
 62
     7
370
    15
100
AcDbLine
 10
531.7855804189
 20
98.9410989364
 30
0.0
 11
911.7855756505
 21
98.9410989364
 31
0.0
  0
LINE
  5
2B6
330
1F
100
AcDbEntity
  8
0
  6
Continuous
 62
     7
370
    15
100
AcDbLine
 10
753.7855795546
 20
103.9410978934
 30
0.0
 11
689.7855765148
 21
103.9410978934
 31
0.0
  0
LINE
  5
2B7
330
1F
100
AcDbEntity
  8
0
  6
Continuous
 62
     7
370
    15
100
AcDbLine
 10
753.7855795546
 20
153.9410986384
 30
0.0
 11
689.7855765148
 21
153.9410986384
 31
0.0
  0
LINE
  5
2B8
330
1F
100
AcDbEntity
  8
0
  6
Continuous
 62
     7
370
    15
100
AcDbLine
 10
753.7855795546
 20
103.9410978934
 30
0.0
 11
753.7855795546
 21
153.9410986384
 31
0.0
  0
LINE
  5
2B9
330
1F
100
AcDbEntity
  8
0
  6
Continuous
 62
     7
370
    15
100
AcDbLine
 10
689.7855765148
 20
103.9410978934
 30
0.0
 11
689.7855765148
 21
153.9410986384
 31
0.0
  0
LINE
  5
2BA
330
1F
100
AcDbEntity
  8
0
  6
Continuous
 62
     7
370
    15
100
AcDbLine
 10
760.2092242761
 20
153.9410986384
 30
0.0
 11
760.2092242761
 21
103.9410978934
 31
0.0
  0
LINE
  5
2BB
330
1F
100
AcDbEntity
  8
0
  6
Continuous
 62
     7
370
    15
100
AcDbLine
 10
760.2092242761
 20
103.9410978934
 30
0.0
 11
753.7855795546
 21
103.9410978934
 31
0.0
  0
LINE
  5
2BC
330
1F
100
AcDbEntity
  8
0
  6
Continuous
 62
     7
370
    15
100
AcDbLine
 10
753.7855795546
 20
153.9410986384
 30
0.0
 11
760.2092242761
 21
153.9410986384
 31
0.0
  0
LINE
  5
2BD
330
1F
100
AcDbEntity
  8
0
  6
Continuous
 62
     7
370
    15
100
AcDbLine
 10
683.3619317933
 20
103.9410978934
 30
0.0
 11
683.3619317933
 21
153.9410986384
 31
0.0
  0
LINE
  5
2BE
330
1F
100
AcDbEntity
  8
0
  6
Continuous
 62
     7
370
    15
100
AcDbLine
 10
689.7855765148
 20
103.9410978934
 30
0.0
 11
683.3619317933
 21
103.9410978934
 31
0.0
  0
LINE
  5
2BF
330
1F
100
AcDbEntity
  8
0
  6
Continuous
 62
     7
370
    15
100
AcDbLine
 10
683.3619317933
 20
153.9410986384
 30
0.0
 11
689.7855765148
 21
153.9410986384
 31
0.0
  0
LINE
  5
2C0
330
1F
100
AcDbEntity
  8
0
  6
Continuous
 62
     7
370
    15
100
AcDbLine
 10
530.6086420043
 20
153.9410986384
 30
0.0
 11
530.6086420043
 21
103.9410978934
 31
0.0
  0
LINE
  5
2C1
330
1F
100
AcDbEntity
  8
0
  6
Continuous
 62
     7
370
    15
100
AcDbLine
 10
683.3619317933
 20
103.9410978934
 30
0.0
 11
530.6086420043
 21
103.9410978934
 31
0.0
  0
LINE
  5
2C2
330
1F
100
AcDbEntity
  8
0
  6
Continuous
 62
     7
370
    15
100
AcDbLine
 10
683.3619317933
 20
153.9410986384
 30
0.0
 11
530.6086420043
 21
153.9410986384
 31
0.0
  0
LINE
  5
2C3
330
1F
100
AcDbEntity
  8
0
  6
Continuous
 62
     7
370
    15
100
AcDbLine
 10
912.9625140651
 20
103.9410978934
 30
0.0
 11
760.2092242761
 21
103.9410978934
 31
0.0
  0
LINE
  5
2C4
330
1F
100
AcDbEntity
  8
0
  6
Continuous
 62
     7
370
    15
100
AcDbLine
 10
912.9625140651
 20
153.9410986384
 30
0.0
 11
760.2092242761
 21
153.9410986384
 31
0.0
  0
LINE
  5
2C5
330
1F
100
AcDbEntity
  8
0
  6
Continuous
 62
     7
370
    15
100
AcDbLine
 10
522.7654754146
 20
103.9410978934
 30
0.0
 11
522.7654754146
 21
153.9410986384
 31
0.0
  0
LINE
  5
2C6
330
1F
100
AcDbEntity
  8
0
  6
Continuous
 62
     7
370
    15
100
AcDbLine
 10
530.6086420043
 20
103.9410978934
 30
0.0
 11
522.7654754146
 21
103.9410978934
 31
0.0
  0
LINE
  5
2C7
330
1F
100
AcDbEntity
  8
0
  6
Continuous
 62
     7
370
    15
100
AcDbLine
 10
522.7654754146
 20
153.9410986384
 30
0.0
 11
530.6086420043
 21
153.9410986384
 31
0.0
  0
LINE
  5
2C8
330
1F
100
AcDbEntity
  8
0
  6
Continuous
 62
     7
370
    15
100
AcDbLine
 10
920.8056806548
 20
103.9410978934
 30
0.0
 11
912.9625140651
 21
103.9410978934
 31
0.0
  0
LINE
  5
2C9
330
1F
100
AcDbEntity
  8
0
  6
Continuous
 62
     7
370
    15
100
AcDbLine
 10
912.9625140651
 20
153.9410986384
 30
0.0
 11
920.8056806548
 21
153.9410986384
 31
0.0
  0
LINE
  5
2CA
330
1F
100
AcDbEntity
  8
0
  6
Continuous
 62
     7
370
    15
100
AcDbLine
 10
921.7855810149
 20
148.9410978189
 30
0.0
 11
921.7855810149
 21
153.9410986384
 31
0.0
  0
LINE
  5
2CB
330
1F
100
AcDbEntity
  8
0
  6
Continuous
 62
     7
370
    15
100
AcDbLine
 10
921.7855810149
 20
103.9410978934
 30
0.0
 11
920.8056806548
 21
103.9410978934
 31
0.0
  0
LINE
  5
2CC
330
1F
100
AcDbEntity
  8
0
  6
Continuous
 62
     7
370
    15
100
AcDbLine
 10
921.7855810149
 20
153.9410986384
 30
0.0
 11
920.8056806548
 21
153.9410986384
 31
0.0
  0
LINE
  5
2CD
330
1F
100
AcDbEntity
  8
0
  6
Continuous
 62
     7
370
    15
100
AcDbLine
 10
521.7855750545
 20
103.9410978934
 30
0.0
 11
521.7855750545
 21
153.9410986384
 31
0.0
  0
LINE
  5
2CE
330
1F
100
AcDbEntity
  8
0
  6
Continuous
 62
     7
370
    15
100
AcDbLine
 10
522.7654754146
 20
103.9410978934
 30
0.0
 11
521.7855750545
 21
103.9410978934
 31
0.0
  0
LINE
  5
2CF
330
1F
100
AcDbEntity
  8
0
  6
Continuous
 62
     7
370
    15
100
AcDbLine
 10
522.7654754146
 20
153.9410986384
 30
0.0
 11
521.7855750545
 21
153.9410986384
 31
0.0
  0
LINE
  5
2D0
330
1F
100
AcDbEntity
  8
0
  6
Continuous
 62
     8
370
    15
100
AcDbLine
 10
912.9625140651
 20
103.9410978934
 30
0.0
 11
912.9625140651
 21
127.6129266858
 31
0.0
  0
LINE
  5
2D1
330
1F
100
AcDbEntity
  8
0
  6
Continuous
 62
     8
370
    15
100
AcDbLine
 10
912.9625140651
 20
130.269269846
 30
0.0
 11
912.9625140651
 21
132.9410984559
 31
0.0
  0
LINE
  5
2D2
330
1F
100
AcDbEntity
  8
0
  6
Continuous
 62
     8
370
    15
100
AcDbLine
 10
912.9625140651
 20
138.9410980424
 30
0.0
 11
912.9625140651
 21
153.9410986384
 31
0.0
  0
LINE
  5
2D3
330
1F
100
AcDbEntity
  8
0
  6
Continuous
 62
     8
370
    15
100
AcDbLine
 10
920.8056806548
 20
153.9410986384
 30
0.0
 11
920.8056806548
 21
138.9410980424
 31
0.0
  0
LINE
  5
2D4
330
1F
100
AcDbEntity
  8
0
  6
Continuous
 62
     8
370
    15
100
AcDbLine
 10
920.8056806548
 20
124.9410980759
 30
0.0
 11
920.8056806548
 21
103.9410978934
 31
0.0
  0
ENDSEC
  0
SECTION
  2
OBJECTS
  0
DICTIONARY
  5
C
330
0
100
AcDbDictionary
281
     1
  3
ACAD_GROUP
350
D
  3
ACAD_LAYOUT
350
1A
  3
ACAD_MLINESTYLE
350
17
  3
ACAD_PLOTSETTINGS
350
19
  3
ACAD_PLOTSTYLENAME
350
E
  0
DICTIONARY
  5
D
102
{ACAD_REACTORS
330
C
102
}
330
C
100
AcDbDictionary
281
     1
  0
DICTIONARY
  5
1A
102
{ACAD_REACTORS
330
C
102
}
330
C
100
AcDbDictionary
281
     1
  3
Layout1
350
1E
  3
Layout2
350
26
  3
Model
350
22
  0
DICTIONARY
  5
17
102
{ACAD_REACTORS
330
C
102
}
330
C
100
AcDbDictionary
281
     1
  3
Standard
350
18
  0
DICTIONARY
  5
19
102
{ACAD_REACTORS
330
C
102
}
330
C
100
AcDbDictionary
281
     1
  0
ACDBDICTIONARYWDFLT
  5
E
102
{ACAD_REACTORS
330
C
102
}
330
C
100
AcDbDictionary
281
     1
  3
Normal
350
F
100
AcDbDictionaryWithDefault
340
F
  0
LAYOUT
  5
1E
102
{ACAD_REACTORS
330
1A
102
}
330
1A
100
AcDbPlotSettings
  1

  2
none_device
  4

  6

 40
0.0
 41
0.0
 42
0.0
 43
0.0
 44
0.0
 45
0.0
 46
0.0
 47
0.0
 48
0.0
 49
0.0
140
0.0
141
0.0
142
1.0
143
1.0
 70
   688
 72
     0
 73
     0
 74
     5
  7

 75
    16
147
1.0
148
0.0
149
0.0
100
AcDbLayout
  1
Layout1
 70
     1
 71
     1
 10
0.0
 20
0.0
 11
420.0
 21
297.0
 12
0.0
 22
0.0
 32
0.0
 14
1.0000000000E+20
 24
1.0000000000E+20
 34
1.0000000000E+20
 15
-1.0000000000E+20
 25
-1.0000000000E+20
 35
-1.0000000000E+20
146
0.0
 13
0.0
 23
0.0
 33
0.0
 16
1.0
 26
0.0
 36
0.0
 17
0.0
 27
1.0
 37
0.0
 76
     0
330
1B
  0
LAYOUT
  5
26
102
{ACAD_REACTORS
330
1A
102
}
330
1A
100
AcDbPlotSettings
  1

  2
none_device
  4

  6

 40
0.0
 41
0.0
 42
0.0
 43
0.0
 44
0.0
 45
0.0
 46
0.0
 47
0.0
 48
0.0
 49
0.0
140
0.0
141
0.0
142
1.0
143
1.0
 70
   688
 72
     0
 73
     0
 74
     5
  7

 75
    16
147
1.0
148
0.0
149
0.0
100
AcDbLayout
  1
Layout2
 70
     1
 71
     2
 10
0.0
 20
0.0
 11
0.0
 21
0.0
 12
0.0
 22
0.0
 32
0.0
 14
0.0
 24
0.0
 34
0.0
 15
0.0
 25
0.0
 35
0.0
146
0.0
 13
0.0
 23
0.0
 33
0.0
 16
1.0
 26
0.0
 36
0.0
 17
0.0
 27
1.0
 37
0.0
 76
     0
330
23
  0
LAYOUT
  5
22
102
{ACAD_REACTORS
330
1A
102
}
330
1A
100
AcDbPlotSettings
  1

  2
none_device
  4

  6

 40
0.0
 41
0.0
 42
0.0
 43
0.0
 44
0.0
 45
0.0
 46
0.0
 47
0.0
 48
0.0
 49
0.0
140
0.0
141
0.0
142
1.0
143
1.0
 70
  1712
 72
     0
 73
     0
 74
     0
  7

 75
     0
147
1.0
148
0.0
149
0.0
100
AcDbLayout
  1
Model
 70
     1
 71
     0
 10
0.0
 20
0.0
 11
1189.0
 21
841.0
 12
0.0
 22
0.0
 32
0.0
 14
0.0
 24
0.0
 34
0.0
 15
1189.0
 25
841.0
 35
0.0
146
0.0
 13
0.0
 23
0.0
 33
0.0
 16
1.0
 26
0.0
 36
0.0
 17
0.0
 27
1.0
 37
0.0
 76
     0
330
1F
331
29
  0
MLINESTYLE
  5
18
102
{ACAD_REACTORS
330
17
102
}
330
17
100
AcDbMlineStyle
  2
Standard
 70
     0
  3

 62
   256
 51
90.0
 52
90.0
 71
     2
 49
0.5
 62
   256
  6
BYLAYER
 49
-0.5
 62
   256
  6
BYLAYER
  0
ACDBPLACEHOLDER
  5
F
102
{ACAD_REACTORS
330
E
102
}
330
E
  0
ENDSEC
  0
EOF
