  0
SECTION
  2
HEADER
  9
$ACADVER
  1
AC1015
  9
$ACADMAINTVER
 70
     6
  9
$DWGCODEPAGE
  3
ANSI_1252
  9
$INSBASE
 10
0.0
 20
0.0
 30
0.0
  9
$EXTMIN
 10
0.0
 20
0.0
 30
0.0
  9
$EXTMAX
 10
1000.0
 20
1000.0
 30
0.0
  9
$LIMMIN
 10
0.0
 20
0.0
  9
$LIMMAX
 10
0.0
 20
0.0
  9
$ORTHOMODE
 70
     0
  9
$REGENMODE
 70
     1
  9
$FILLMODE
 70
     1
  9
$QTEXTMODE
 70
     0
  9
$MIRRTEXT
 70
     1
  9
$LTSCALE
 40
1.0
  9
$ATTMODE
 70
     1
  9
$TEXTSIZE
 40
3.5
  9
$TRACEWID
 40
1.0
  9
$TEXTSTYLE
  7
Standard
  9
$CLAYER
  8
0
  9
$CELTYPE
  6
ByLayer
  9
$CECOLOR
 62
   256
  9
$CELTSCALE
 40
1.0
  9
$DISPSILH
 70
     0
  9
$DIMSCALE
 40
1.0
  9
$DIMASZ
 40
6.0
  9
$DIMEXO
 40
1.0
  9
$DIMDLI
 40
3.75
  9
$DIMRND
 40
0.0
  9
$DIMDLE
 40
0.0
  9
$DIMEXE
 40
1.0
  9
$DIMTP
 40
0.0
  9
$DIMTM
 40
0.0
  9
$DIMTXT
 40
3.5
  9
$DIMCEN
 40
2.5
  9
$DIMTSZ
 40
0.0
  9
$DIMTOL
 70
     0
  9
$DIMLIM
 70
     0
  9
$DIMTIH
 70
     1
  9
$DIMTOH
 70
     1
  9
$DIMSE1
 70
     0
  9
$DIMSE2
 70
     0
  9
$DIMTAD
 70
     1
  9
$DIMZIN
 70
     0
  9
$DIMBLK
  1

  9
$DIMASO
 70
     1
  9
$DIMSHO
 70
     1
  9
$DIMPOST
  1

  9
$DIMAPOST
  1

  9
$DIMALT
 70
     0
  9
$DIMALTD
 70
     3
  9
$DIMALTF
 40
0.0393700787
  9
$DIMLFAC
 40
1.0
  9
$DIMTOFL
 70
     1
  9
$DIMTVP
 40
0.0
  9
$DIMTIX
 70
     0
  9
$DIMSOXD
 70
     0
  9
$DIMSAH
 70
     0
  9
$DIMBLK1
  1

  9
$DIMBLK2
  1

  9
$DIMSTYLE
  2
ISO-25
  9
$DIMCLRD
 70
     0
  9
$DIMCLRE
 70
     0
  9
$DIMCLRT
 70
     0
  9
$DIMTFAC
 40
1.0
  9
$DIMGAP
 40
1.524
  9
$DIMJUST
 70
     0
  9
$DIMSD1
 70
     0
  9
$DIMSD2
 70
     0
  9
$DIMTOLJ
 70
     0
  9
$DIMTZIN
 70
     0
  9
$DIMALTZ
 70
     0
  9
$DIMALTTZ
 70
     0
  9
$DIMUPT
 70
     0
  9
$DIMDEC
 70
     2
  9
$DIMTDEC
 70
     2
  9
$DIMALTU
 70
     2
  9
$DIMALTTD
 70
     3
  9
$DIMTXSTY
  7
Standard
  9
$DIMAUNIT
 70
     0
  9
$DIMADEC
 70
     0
  9
$DIMALTRND
 40
0.0
  9
$DIMAZIN
 70
     0
  9
$DIMDSEP
 70
    44
  9
$DIMATFIT
 70
     3
  9
$DIMFRAC
 70
     0
  9
$DIMLDRBLK
  1

  9
$DIMLUNIT
 70
     2
  9
$DIMLWD
 70
    -2
  9
$DIMLWE
 70
    -2
  9
$DIMTMOVE
 70
     0
  9
$LUNITS
 70
     2
  9
$LUPREC
 70
     2
  9
$SKETCHINC
 40
1.0
  9
$FILLETRAD
 40
10.0
  9
$AUNITS
 70
     0
  9
$AUPREC
 70
     0
  9
$MENU
  1
.
  9
$ELEVATION
 40
0.0
  9
$PELEVATION
 40
0.0
  9
$THICKNESS
 40
0.0
  9
$LIMCHECK
 70
     0
  9
$CHAMFERA
 40
10.0
  9
$CHAMFERB
 40
10.0
  9
$CHAMFERC
 40
20.0
  9
$CHAMFERD
 40
0.0
  9
$SKPOLY
 70
     0
  9
$TDCREATE
 40
2455288.46787787
  9
$TDUCREATE
 40
2455288.384544537
  9
$TDUPDATE
 40
2455288.467877882
  9
$TDUUPDATE
 40
2455288.384544549
  9
$TDINDWG
 40
0.0000000116
  9
$TDUSRTIMER
 40
0.0000000116
  9
$USRTIMER
 70
     1
  9
$ANGBASE
 50
0.0
  9
$ANGDIR
 70
     0
  9
$PDMODE
 70
     0
  9
$PDSIZE
 40
-1.0
  9
$PLINEWID
 40
0.0
  9
$SPLFRAME
 70
     0
  9
$SPLINETYPE
 70
     6
  9
$SPLINESEGS
 70
     8
  9
$HANDSEED
  5
37C
  9
$SURFTAB1
 70
     6
  9
$SURFTAB2
 70
     6
  9
$SURFTYPE
 70
     6
  9
$SURFU
 70
     6
  9
$SURFV
 70
     6
  9
$UCSBASE
  2

  9
$UCSNAME
  2

  9
$UCSORG
 10
0.0
 20
0.0
 30
0.0
  9
$UCSXDIR
 10
1.0
 20
0.0
 30
0.0
  9
$UCSYDIR
 10
0.0
 20
1.0
 30
0.0
  9
$UCSORTHOREF
  2

  9
$UCSORTHOVIEW
 70
     0
  9
$UCSORGTOP
 10
0.0
 20
0.0
 30
0.0
  9
$UCSORGBOTTOM
 10
0.0
 20
0.0
 30
0.0
  9
$UCSORGLEFT
 10
0.0
 20
0.0
 30
0.0
  9
$UCSORGRIGHT
 10
0.0
 20
0.0
 30
0.0
  9
$UCSORGFRONT
 10
0.0
 20
0.0
 30
0.0
  9
$UCSORGBACK
 10
0.0
 20
0.0
 30
0.0
  9
$PUCSBASE
  2

  9
$PUCSNAME
  2

  9
$PUCSORG
 10
0.0
 20
0.0
 30
0.0
  9
$PUCSXDIR
 10
1.0
 20
0.0
 30
0.0
  9
$PUCSYDIR
 10
0.0
 20
1.0
 30
0.0
  9
$PUCSORTHOREF
  2

  9
$PUCSORTHOVIEW
 70
     0
  9
$PUCSORGTOP
 10
0.0
 20
0.0
 30
0.0
  9
$PUCSORGBOTTOM
 10
0.0
 20
0.0
 30
0.0
  9
$PUCSORGLEFT
 10
0.0
 20
0.0
 30
0.0
  9
$PUCSORGRIGHT
 10
0.0
 20
0.0
 30
0.0
  9
$PUCSORGFRONT
 10
0.0
 20
0.0
 30
0.0
  9
$PUCSORGBACK
 10
0.0
 20
0.0
 30
0.0
  9
$USERI1
 70
     0
  9
$USERI2
 70
     0
  9
$USERI3
 70
     0
  9
$USERI4
 70
     0
  9
$USERI5
 70
     0
  9
$USERR1
 40
0.0
  9
$USERR2
 40
0.0
  9
$USERR3
 40
0.0
  9
$USERR4
 40
0.0
  9
$USERR5
 40
0.0
  9
$WORLDVIEW
 70
     1
  9
$SHADEDGE
 70
     3
  9
$SHADEDIF
 70
    70
  9
$TILEMODE
 70
     1
  9
$MAXACTVP
 70
    64
  9
$PINSBASE
 10
0.0
 20
0.0
 30
0.0
  9
$PLIMCHECK
 70
     0
  9
$PEXTMIN
 10
1.0000000000E+20
 20
1.0000000000E+20
 30
1.0000000000E+20
  9
$PEXTMAX
 10
-1.0000000000E+20
 20
-1.0000000000E+20
 30
-1.0000000000E+20
  9
$PLIMMIN
 10
0.0
 20
0.0
  9
$PLIMMAX
 10
420.0
 20
297.0
  9
$UNITMODE
 70
     0
  9
$VISRETAIN
 70
     1
  9
$PLINEGEN
 70
     0
  9
$PSLTSCALE
 70
     1
  9
$TREEDEPTH
 70
  3020
  9
$CMLSTYLE
  2
Standard
  9
$CMLJUST
 70
     0
  9
$CMLSCALE
 40
20.0
  9
$PROXYGRAPHICS
 70
     1
  9
$MEASUREMENT
 70
     1
  9
$CELWEIGHT
370
    -1
  9
$ENDCAPS
280
     0
  9
$JOINSTYLE
280
     0
  9
$LWDISPLAY
290
     1
  9
$INSUNITS
 70
     4
  9
$HYPERLINKBASE
  1

  9
$STYLESHEET
  1

  9
$XEDIT
290
     1
  9
$CEPSNTYPE
380
     0
  9
$PSTYLEMODE
290
     1
  9
$FINGERPRINTGUID
  2
{230874E9-537B-4F8A-8B3F-72DD49D80A36}
  9
$VERSIONGUID
  2
{FAEB1C32-E019-11D5-929B-00C0DF256EC4}
  9
$EXTNAMES
290
     1
  9
$PSVPSCALE
 40
0.0
  9
$OLESTARTUP
290
     0
  0
ENDSEC
  0
SECTION
  2
CLASSES
  0
CLASS
  1
ACDBDICTIONARYWDFLT
  2
AcDbDictionaryWithDefault
  3
ObjectDBX Classes
 90
        0
280
     0
281
     0
  0
CLASS
  1
ACDBPLACEHOLDER
  2
AcDbPlaceHolder
  3
ObjectDBX Classes
 90
        0
280
     0
281
     0
  0
CLASS
  1
LAYOUT
  2
AcDbLayout
  3
ObjectDBX Classes
 90
        0
280
     0
281
     0
  0
ENDSEC
  0
SECTION
  2
TABLES
  0
TABLE
  2
VPORT
  5
8
330
0
100
AcDbSymbolTable
 70
     1
  0
VPORT
  5
29
330
8
100
AcDbSymbolTableRecord
100
AcDbViewportTableRecord
  2
*Active
 70
     0
 10
0.0
 20
0.0
 11
1.0
 21
1.0
 12
500.0
 22
500.0
 13
0.0
 23
0.0
 14
10.0
 24
10.0
 15
10.0
 25
10.0
 16
0.0
 26
0.0
 36
1.0
 17
0.0
 27
0.0
 37
0.0
 40
1000.0
 41
1.0
 42
50.0
 43
0.0
 44
0.0
 50
0.0
 51
0.0
 71
     0
 72
  2000
 73
     1
 74
     3
 75
     0
 76
     0
 77
     0
 78
     0
281
     0
 65
     1
110
0.0
120
0.0
130
0.0
111
1.0
121
0.0
131
0.0
112
0.0
122
1.0
132
0.0
 79
     0
146
0.0
  0
ENDTAB
  0
TABLE
  2
LTYPE
  5
5
330
0
100
AcDbSymbolTable
 70
     6
  0
LTYPE
  5
14
330
5
100
AcDbSymbolTableRecord
100
AcDbLinetypeTableRecord
  2
ByBlock
 70
     0
  3

 72
    65
 73
     0
 40
0.0
  0
LTYPE
  5
15
330
5
100
AcDbSymbolTableRecord
100
AcDbLinetypeTableRecord
  2
ByLayer
 70
     0
  3

 72
    65
 73
     0
 40
0.0
  0
LTYPE
  5
16
330
5
100
AcDbSymbolTableRecord
100
AcDbLinetypeTableRecord
  2
Continuous
 70
     0
  3
Solid line
 72
    65
 73
     0
 40
0.0
  0
LTYPE
  5
2A
330
5
100
AcDbSymbolTableRecord
100
AcDbLinetypeTableRecord
  2
HIDDEN
 70
     0
  3
Hidden __ __ __ __ __ __ __ __ __ __ __ __ __ __
 72
    65
 73
     2
 40
1.905
 49
1.27
 74
     0
 49
-0.635
 74
     0
  0
LTYPE
  5
2B
330
5
100
AcDbSymbolTableRecord
100
AcDbLinetypeTableRecord
  2
PHANTOM
 70
     0
  3
Phantom ______  __  __  ______  __  __  ______
 72
    65
 73
     6
 40
12.7
 49
6.35
 74
     0
 49
-1.27
 74
     0
 49
1.27
 74
     0
 49
-1.27
 74
     0
 49
1.27
 74
     0
 49
-1.27
 74
     0
  0
LTYPE
  5
2C
330
5
100
AcDbSymbolTableRecord
100
AcDbLinetypeTableRecord
  2
CENTER
 70
     0
  3
Center ____ _ ____ _ ____ _ ____ _ ____ _ ____
 72
    65
 73
     4
 40
10.16
 49
6.35
 74
     0
 49
-1.27
 74
     0
 49
1.27
 74
     0
 49
-1.27
 74
     0
  0
LTYPE
  5
2D
330
5
100
AcDbSymbolTableRecord
100
AcDbLinetypeTableRecord
  2
CENTERX2
 70
     0
  3
Center (2x) ________  __  ________  __  _____
 72
    65
 73
     4
 40
20.32
 49
12.7
 74
     0
 49
-2.54
 74
     0
 49
2.54
 74
     0
 49
-2.54
 74
     0
  0
LTYPE
  5
2E
330
5
100
AcDbSymbolTableRecord
100
AcDbLinetypeTableRecord
  2
DOT2
 70
     0
  3
Dot (.5x) ........................................
 72
    65
 73
     2
 40
0.635
 49
0.0
 74
     0
 49
-0.635
 74
     0
  0
ENDTAB
  0
TABLE
  2
LAYER
  5
2
330
0
100
AcDbSymbolTable
 70
     2
  0
LAYER
  5
10
330
2
100
AcDbSymbolTableRecord
100
AcDbLayerTableRecord
  2
0
 70
     0
 62
     7
  6
Continuous
370
    -3
390
F
  0
LAYER
  5
2F
330
2
100
AcDbSymbolTableRecord
100
AcDbLayerTableRecord
  2
FORMAT
 70
     0
 62
     7
  6
Continuous
370
    -3
390
F
  0
ENDTAB
  0
TABLE
  2
STYLE
  5
3
330
0
100
AcDbSymbolTable
 70
     1
  0
STYLE
  5
11
330
3
100
AcDbSymbolTableRecord
100
AcDbTextStyleTableRecord
  2
Standard
 70
     0
 40
0.0
 41
1.0
 50
0.0
 71
     0
 42
2.5
  3
txt
  4

  0
ENDTAB
  0
TABLE
  2
VIEW
  5
6
330
0
100
AcDbSymbolTable
 70
     0
  0
ENDTAB
  0
TABLE
  2
UCS
  5
7
330
0
100
AcDbSymbolTable
 70
     0
  0
ENDTAB
  0
TABLE
  2
APPID
  5
9
330
0
100
AcDbSymbolTable
 70
     1
  0
APPID
  5
12
330
9
100
AcDbSymbolTableRecord
100
AcDbRegAppTableRecord
  2
ACAD
 70
     0
  0
ENDTAB
  0
TABLE
  2
DIMSTYLE
  5
A
330
0
100
AcDbSymbolTable
 70
     1
100
AcDbDimStyleTable
  0
DIMSTYLE
105
27
330
A
100
AcDbSymbolTableRecord
100
AcDbDimStyleTableRecord
  2
ISO-25
 70
     0
 41
2.5
 42
0.625
 43
3.75
 44
1.25
 73
     0
 74
     0
 77
     1
 78
     8
140
2.5
141
2.5
143
0.0393700787
147
0.625
171
     3
172
     1
271
     2
272
     2
274
     3
278
    44
283
     0
284
     8
340
11
  0
ENDTAB
  0
TABLE
  2
BLOCK_RECORD
  5
1
330
0
100
AcDbSymbolTable
 70
     1
  0
BLOCK_RECORD
  5
1F
330
1
100
AcDbSymbolTableRecord
100
AcDbBlockTableRecord
  2
*Model_Space
340
22
  0
BLOCK_RECORD
  5
1B
330
1
100
AcDbSymbolTableRecord
100
AcDbBlockTableRecord
  2
*Paper_Space
340
1E
  0
BLOCK_RECORD
  5
23
330
1
100
AcDbSymbolTableRecord
100
AcDbBlockTableRecord
  2
*Paper_Space0
340
26
  0
ENDTAB
  0
ENDSEC
  0
SECTION
  2
BLOCKS
  0
BLOCK
  5
20
330
1F
100
AcDbEntity
  8
0
100
AcDbBlockBegin
  2
*Model_Space
 70
     0
 71
     0
 10
0.0
 20
0.0
 30
0.0
  3
*Model_Space
  1

  0
ENDBLK
  5
21
330
1F
100
AcDbEntity
  8
0
100
AcDbBlockEnd
  0
BLOCK
  5
1C
330
1B
100
AcDbEntity
 67
     1
  8
0
100
AcDbBlockBegin
  2
*Paper_Space
 70
     0
 71
     0
 10
0.0
 20
0.0
 30
0.0
  3
*Paper_Space
  1

  0
ENDBLK
  5
1D
330
1B
100
AcDbEntity
 67
     1
  8
0
100
AcDbBlockEnd
  0
BLOCK
  5
24
330
23
100
AcDbEntity
  8
0
100
AcDbBlockBegin
  2
*Paper_Space0
 70
     0
 71
     0
 10
0.0
 20
0.0
 30
0.0
  3
*Paper_Space0
  1

  0
ENDBLK
  5
25
330
23
100
AcDbEntity
  8
0
100
AcDbBlockEnd
  0
ENDSEC
  0
SECTION
  2
ENTITIES
  0
LINE
  5
30
330
1F
100
AcDbEntity
  8
0
  6
Continuous
 62
     7
370
    15
100
AcDbLine
 10
726.7090904621
 20
730.4368198984
 30
0.0
 11
726.7090904621
 21
790.9868241423
 31
0.0
  0
LINE
  5
31
330
1F
100
AcDbEntity
  8
0
  6
Continuous
 62
     7
370
    15
100
AcDbLine
 10
686.7090913561
 20
790.9868241423
 30
0.0
 11
686.7090913561
 21
730.4368198984
 31
0.0
  0
LINE
  5
32
330
1F
100
AcDbEntity
  8
0
  6
Continuous
 62
     7
370
    15
100
AcDbLine
 10
726.1090914813
 20
309.5368177765
 30
0.0
 11
726.1090914813
 21
313.0368174189
 31
0.0
  0
LINE
  5
33
330
1F
100
AcDbEntity
  8
0
  6
Continuous
 62
     7
370
    15
100
AcDbLine
 10
687.3090903369
 20
313.0368174189
 30
0.0
 11
687.3090903369
 21
309.5368177765
 31
0.0
  0
LINE
  5
34
330
1F
100
AcDbEntity
  8
0
  6
Continuous
 62
     7
370
    15
100
AcDbLine
 10
687.3090903369
 20
309.5368177765
 30
0.0
 11
691.3090909925
 21
305.5368245714
 31
0.0
  0
LINE
  5
35
330
1F
100
AcDbEntity
  8
0
  6
Continuous
 62
     7
370
    15
100
AcDbLine
 10
722.1090908256
 20
305.5368245714
 30
0.0
 11
726.1090914813
 21
309.5368177765
 31
0.0
  0
LINE
  5
36
330
1F
100
AcDbEntity
  8
0
  6
Continuous
 62
     7
370
    15
100
AcDbLine
 10
722.6090918389
 20
313.0368174189
 30
0.0
 11
720.6090905798
 21
315.036821472
 31
0.0
  0
LINE
  5
37
330
1F
100
AcDbEntity
  8
0
  6
Continuous
 62
     7
370
    15
100
AcDbLine
 10
692.8090912384
 20
315.036821472
 30
0.0
 11
690.8090899793
 21
313.0368174189
 31
0.0
  0
LINE
  5
38
330
1F
100
AcDbEntity
  8
0
  6
Continuous
 62
     7
370
    15
100
AcDbLine
 10
694.2090907228
 20
665.4368222826
 30
0.0
 11
694.2090907228
 21
664.913359391
 31
0.0
  0
LINE
  5
39
330
1F
100
AcDbEntity
  8
0
  6
Continuous
 62
     7
370
    15
100
AcDbLine
 10
719.2090910954
 20
664.913359391
 30
0.0
 11
719.2090910954
 21
665.4368222826
 31
0.0
  0
LINE
  5
3A
330
1F
100
AcDbEntity
  8
0
  6
Continuous
 62
     7
370
    15
100
AcDbLine
 10
719.2090910954
 20
366.536814081
 30
0.0
 11
719.2090910954
 21
367.0602769726
 31
0.0
  0
LINE
  5
3B
330
1F
100
AcDbEntity
  8
0
  6
Continuous
 62
     7
370
    15
100
AcDbLine
 10
694.2090907228
 20
367.0602769726
 30
0.0
 11
694.2090907228
 21
366.536814081
 31
0.0
  0
LINE
  5
3C
330
1F
100
AcDbEntity
  8
0
  6
Continuous
 62
     7
370
    15
100
AcDbLine
 10
714.7090912891
 20
665.4368222826
 30
0.0
 11
714.7090912891
 21
665.7733352059
 31
0.0
  0
LINE
  5
3D
330
1F
100
AcDbEntity
  8
0
  6
Continuous
 62
     7
370
    15
100
AcDbLine
 10
714.7090912891
 20
720.9868163937
 30
0.0
 11
714.7090912891
 21
730.4368198984
 31
0.0
  0
LINE
  5
3E
330
1F
100
AcDbEntity
  8
0
  6
Continuous
 62
     7
370
    15
100
AcDbLine
 10
698.7090905291
 20
730.4368198984
 30
0.0
 11
698.7090905291
 21
720.9868163937
 31
0.0
  0
LINE
  5
3F
330
1F
100
AcDbEntity
  8
0
  6
Continuous
 62
     7
370
    15
100
AcDbLine
 10
698.7090905291
 20
665.7733352059
 30
0.0
 11
698.7090905291
 21
665.4368222826
 31
0.0
  0
LINE
  5
40
330
1F
100
AcDbEntity
  8
0
  6
Continuous
 62
     7
370
    15
100
AcDbLine
 10
698.7090905291
 20
366.536814081
 30
0.0
 11
698.7090905291
 21
366.2003011578
 31
0.0
  0
LINE
  5
41
330
1F
100
AcDbEntity
  8
0
  6
Continuous
 62
     7
370
    15
100
AcDbLine
 10
698.7090905291
 20
315.9868152016
 30
0.0
 11
698.7090905291
 21
315.036821472
 31
0.0
  0
LINE
  5
42
330
1F
100
AcDbEntity
  8
0
  6
Continuous
 62
     7
370
    15
100
AcDbLine
 10
714.7090912891
 20
315.036821472
 30
0.0
 11
714.7090912891
 21
315.9868152016
 31
0.0
  0
LINE
  5
43
330
1F
100
AcDbEntity
  8
0
  6
Continuous
 62
     7
370
    15
100
AcDbLine
 10
714.7090912891
 20
366.2003011578
 30
0.0
 11
714.7090912891
 21
366.536814081
 31
0.0
  0
LWPOLYLINE
  5
44
330
1F
100
AcDbEntity
  8
0
  6
Continuous
 62
     7
370
    15
100
AcDbPolyline
 90
        3
 70
   128
 43
0.0
 10
660.848085126
 20
786.3510132902
 10
660.9233173636
 20
785.9962464445
 10
660.9251762834
 20
785.9902561777
  0
ARC
  5
45
330
1F
100
AcDbEntity
  8
0
  6
Continuous
 62
     7
370
    15
100
AcDbCircle
 10
734.9541363329
 20
786.5868181818
 30
0.0
 40
2.0
100
AcDbArc
 50
215.7931066419
 51
270.0
  0
ARC
  5
46
330
1F
100
AcDbEntity
  8
0
  6
Continuous
 62
     7
370
    15
100
AcDbCircle
 10
750.5840454853
 20
786.5868181818
 30
0.0
 40
2.000000000000052
100
AcDbArc
 50
270.0
 51
323.2270058138
  0
LWPOLYLINE
  5
47
330
1F
100
AcDbEntity
  8
0
  6
Continuous
 62
     7
370
    15
100
AcDbPolyline
 90
        3
 70
   128
 43
0.0
 10
752.4717490283
 20
785.9260917776
 10
752.5662410167
 20
786.3205553168
 10
752.5788921026
 20
786.7302776449
  0
LINE
  5
48
330
1F
100
AcDbEntity
  8
0
  6
Continuous
 62
     7
370
    15
100
AcDbLine
 10
734.2690902856
 20
790.9868241423
 30
0.0
 11
734.2690902856
 21
790.5868173712
 31
0.0
  0
LINE
  5
49
330
1F
100
AcDbEntity
  8
0
  6
Continuous
 62
     7
370
    15
100
AcDbLine
 10
751.2690912095
 20
790.5868173712
 30
0.0
 11
751.2690912095
 21
790.9868241423
 31
0.0
  0
ARC
  5
4A
330
1F
100
AcDbEntity
  8
0
  6
Continuous
 62
     7
370
    15
100
AcDbCircle
 10
662.8341363329
 20
786.5868181818
 30
0.0
 40
2.00000000000007
100
AcDbArc
 50
197.354016184
 51
270.0
  0
ARC
  5
4B
330
1F
100
AcDbEntity
  8
0
  6
Continuous
 62
     7
370
    15
100
AcDbCircle
 10
678.4640454853
 20
786.5868181818
 30
0.0
 40
2.000000000000069
100
AcDbArc
 50
270.0
 51
319.8344135512
  0
LINE
  5
4C
330
1F
100
AcDbEntity
  8
0
  6
Continuous
 62
     7
370
    15
100
AcDbLine
 10
680.3484040407
 20
785.9166146391
 30
0.0
 11
680.3735739646
 21
785.9921039217
 31
0.0
  0
LINE
  5
4D
330
1F
100
AcDbEntity
  8
0
  6
Continuous
 62
     7
370
    15
100
AcDbLine
 10
662.1490906087
 20
790.9868241423
 30
0.0
 11
662.1490906087
 21
790.5868173712
 31
0.0
  0
LINE
  5
4E
330
1F
100
AcDbEntity
  8
0
  6
Continuous
 62
     7
370
    15
100
AcDbLine
 10
679.1490915326
 20
790.5868173712
 30
0.0
 11
679.1490915326
 21
790.9868241423
 31
0.0
  0
LINE
  5
4F
330
1F
100
AcDbEntity
  8
0
  6
Continuous
 62
     7
370
    15
100
AcDbLine
 10
725.9590908048
 20
906.6868306273
 30
0.0
 11
725.9590908048
 21
910.1868153685
 31
0.0
  0
LINE
  5
50
330
1F
100
AcDbEntity
  8
0
  6
Continuous
 62
     7
370
    15
100
AcDbLine
 10
687.4590910134
 20
910.1868153685
 30
0.0
 11
687.4590910134
 21
906.6868306273
 31
0.0
  0
LINE
  5
51
330
1F
100
AcDbEntity
  8
0
  6
Continuous
 62
     7
370
    15
100
AcDbLine
 10
725.9590908048
 20
910.1868153685
 30
0.0
 11
723.0590901432
 21
913.0868197554
 31
0.0
  0
LINE
  5
52
330
1F
100
AcDbEntity
  8
0
  6
Continuous
 62
     7
370
    15
100
AcDbLine
 10
690.359091675
 20
913.0868197554
 30
0.0
 11
687.4590910134
 21
910.1868153685
 31
0.0
  0
LINE
  5
53
330
1F
100
AcDbEntity
  8
0
  6
Continuous
 62
     7
370
    15
100
AcDbLine
 10
719.2090910954
 20
904.9868167513
 30
0.0
 11
719.2090910954
 21
905.6868136995
 31
0.0
  0
LINE
  5
54
330
1F
100
AcDbEntity
  8
0
  6
Continuous
 62
     7
370
    15
100
AcDbLine
 10
694.2090907228
 20
905.6868136995
 30
0.0
 11
694.2090907228
 21
904.9868167513
 31
0.0
  0
LINE
  5
55
330
1F
100
AcDbEntity
  8
0
  6
Continuous
 62
     7
370
    15
100
AcDbLine
 10
694.2240906042
 20
906.0868204706
 30
0.0
 11
694.2240906042
 21
905.6868136995
 31
0.0
  0
LINE
  5
56
330
1F
100
AcDbEntity
  8
0
  6
Continuous
 62
     7
370
    15
100
AcDbLine
 10
719.194091214
 20
905.6868136995
 30
0.0
 11
719.194091214
 21
906.0868204706
 31
0.0
  0
LINE
  5
57
330
1F
100
AcDbEntity
  8
0
  6
Continuous
 62
     7
370
    15
100
AcDbLine
 10
718.5590912682
 20
906.0868204706
 30
0.0
 11
718.5590912682
 21
906.6868306273
 31
0.0
  0
LINE
  5
58
330
1F
100
AcDbEntity
  8
0
  6
Continuous
 62
     7
370
    15
100
AcDbLine
 10
694.85909055
 20
906.6868306273
 30
0.0
 11
694.85909055
 21
906.0868204706
 31
0.0
  0
LINE
  5
59
330
1F
100
AcDbEntity
  8
0
  6
Continuous
 62
     7
370
    15
100
AcDbLine
 10
577.496845564
 20
862.0868207091
 30
0.0
 11
577.2090892402
 21
861.5868271464
 31
0.0
  0
LINE
  5
5A
330
1F
100
AcDbEntity
  8
0
  6
Continuous
 62
     7
370
    15
100
AcDbLine
 10
577.2090892402
 20
846.5868116491
 30
0.0
 11
577.496845564
 21
846.0868180865
 31
0.0
  0
LINE
  5
5B
330
1F
100
AcDbEntity
  8
0
  6
Continuous
 62
     7
370
    15
100
AcDbLine
 10
835.9213362542
 20
846.0868180865
 30
0.0
 11
836.209092578
 21
846.5868116492
 31
0.0
  0
LINE
  5
5C
330
1F
100
AcDbEntity
  8
0
  6
Continuous
 62
     7
370
    15
100
AcDbLine
 10
836.209092578
 20
861.5868271464
 30
0.0
 11
835.9213362542
 21
862.0868207091
 31
0.0
  0
LINE
  5
5D
330
1F
100
AcDbEntity
  8
0
  6
Continuous
 62
     7
370
    15
100
AcDbLine
 10
584.9213416782
 20
846.0868180865
 30
0.0
 11
585.2090905515
 21
846.5868116491
 31
0.0
  0
LINE
  5
5E
330
1F
100
AcDbEntity
  8
0
  6
Continuous
 62
     7
370
    15
100
AcDbLine
 10
585.2090905515
 20
861.5868271464
 30
0.0
 11
584.9213416782
 21
862.0868207091
 31
0.0
  0
LINE
  5
5F
330
1F
100
AcDbEntity
  8
0
  6
Continuous
 62
     7
370
    15
100
AcDbLine
 10
828.49684014
 20
862.0868207091
 30
0.0
 11
828.2090912667
 21
861.5868271464
 31
0.0
  0
LINE
  5
60
330
1F
100
AcDbEntity
  8
0
  6
Continuous
 62
     7
370
    15
100
AcDbLine
 10
828.2090912667
 20
846.5868116492
 30
0.0
 11
828.49684014
 21
846.0868180865
 31
0.0
  0
LINE
  5
61
330
1F
100
AcDbEntity
  8
0
  6
Continuous
 62
     7
370
    15
100
AcDbLine
 10
575.4090885726
 20
859.0868295305
 30
0.0
 11
574.9090950099
 21
858.5868061655
 31
0.0
  0
LINE
  5
62
330
1F
100
AcDbEntity
  8
0
  6
Continuous
 62
     7
370
    15
100
AcDbLine
 10
574.9090950099
 20
849.58683263
 30
0.0
 11
575.4090885726
 21
849.086809265
 31
0.0
  0
LINE
  5
63
330
1F
100
AcDbEntity
  8
0
  6
Continuous
 62
     7
370
    15
100
AcDbLine
 10
577.2090892402
 20
859.0868295305
 30
0.0
 11
575.4090885726
 21
859.0868295305
 31
0.0
  0
LINE
  5
64
330
1F
100
AcDbEntity
  8
0
  6
Continuous
 62
     7
370
    15
100
AcDbLine
 10
575.4090885726
 20
849.086809265
 30
0.0
 11
577.2090892402
 21
849.086809265
 31
0.0
  0
LINE
  5
65
330
1F
100
AcDbEntity
  8
0
  6
Continuous
 62
     7
370
    15
100
AcDbLine
 10
838.0090932456
 20
849.086809265
 30
0.0
 11
838.5090868083
 21
849.58683263
 31
0.0
  0
LINE
  5
66
330
1F
100
AcDbEntity
  8
0
  6
Continuous
 62
     7
370
    15
100
AcDbLine
 10
838.5090868083
 20
858.5868061655
 30
0.0
 11
838.0090932456
 21
859.0868295305
 31
0.0
  0
LINE
  5
67
330
1F
100
AcDbEntity
  8
0
  6
Continuous
 62
     7
370
    15
100
AcDbLine
 10
836.209092578
 20
849.086809265
 30
0.0
 11
838.0090932456
 21
849.086809265
 31
0.0
  0
LINE
  5
68
330
1F
100
AcDbEntity
  8
0
  6
Continuous
 62
     7
370
    15
100
AcDbLine
 10
838.0090932456
 20
859.0868295305
 30
0.0
 11
836.209092578
 21
859.0868295305
 31
0.0
  0
ARC
  5
69
330
1F
100
AcDbEntity
  8
0
  6
Continuous
 62
     7
370
    15
100
AcDbCircle
 10
734.2146444086
 20
724.2868181818
 30
0.0
 40
2.00000000000007
100
AcDbArc
 50
34.3297726759
 51
90.0
  0
ARC
  5
6A
330
1F
100
AcDbEntity
  8
0
  6
Continuous
 62
     7
370
    15
100
AcDbCircle
 10
723.2035374096
 20
724.2868181818
 30
0.0
 40
2.000000000000018
100
AcDbArc
 50
90.0
 51
145.5529438572
  0
ARC
  5
6B
330
1F
100
AcDbEntity
  8
0
  6
Continuous
 62
     7
370
    15
100
AcDbCircle
 10
723.2035374096
 20
724.2868181818
 30
0.0
 40
2.000000000000018
100
AcDbArc
 50
160.5218639187
 51
184.1666471768
  0
LINE
  5
6C
330
1F
100
AcDbEntity
  8
0
  6
Continuous
 62
     7
370
    15
100
AcDbLine
 10
735.209090924
 20
720.9868163937
 30
0.0
 11
735.209090924
 21
721.3868231648
 31
0.0
  0
LINE
  5
6D
330
1F
100
AcDbEntity
  8
0
  6
Continuous
 62
     7
370
    15
100
AcDbLine
 10
722.2090906558
 20
721.3868231648
 30
0.0
 11
722.2090906558
 21
720.9868163937
 31
0.0
  0
LWPOLYLINE
  5
6E
330
1F
100
AcDbEntity
  8
0
  6
Continuous
 62
     7
370
    15
100
AcDbPolyline
 90
        3
 70
   128
 43
0.0
 10
677.263478106
 20
724.7727991217
 10
677.2211252806
 20
724.5514721745
 10
677.2035381851
 20
724.2868126505
  0
ARC
  5
6F
330
1F
100
AcDbEntity
  8
0
  6
Continuous
 62
     7
370
    15
100
AcDbCircle
 10
690.2146444086
 20
724.2868181818
 30
0.0
 40
2.0
100
AcDbArc
 50
13.8265922911
 51
90.0
  0
ARC
  5
70
330
1F
100
AcDbEntity
  8
0
  6
Continuous
 62
     7
370
    15
100
AcDbCircle
 10
679.2035374096
 20
724.2868181818
 30
0.0
 40
2.000000000000044
100
AcDbArc
 50
90.0
 51
165.9370840711
  0
LINE
  5
71
330
1F
100
AcDbEntity
  8
0
  6
Continuous
 62
     7
370
    15
100
AcDbLine
 10
691.2090911624
 20
720.9868163937
 30
0.0
 11
691.2090911624
 21
721.3868231648
 31
0.0
  0
LINE
  5
72
330
1F
100
AcDbEntity
  8
0
  6
Continuous
 62
     7
370
    15
100
AcDbLine
 10
678.2090908942
 20
721.3868231648
 30
0.0
 11
678.2090908942
 21
720.9868163937
 31
0.0
  0
LINE
  5
73
330
1F
100
AcDbEntity
  8
0
  6
Continuous
 62
     7
370
    15
100
AcDbLine
 10
686.7090913561
 20
730.4368198984
 30
0.0
 11
726.7090904621
 21
730.4368198984
 31
0.0
  0
LINE
  5
74
330
1F
100
AcDbEntity
  8
0
  6
Continuous
 62
     7
370
    15
100
AcDbLine
 10
726.1090914813
 20
313.0368174189
 30
0.0
 11
687.3090903369
 21
313.0368174189
 31
0.0
  0
LINE
  5
75
330
1F
100
AcDbEntity
  8
0
  6
Continuous
 62
     7
370
    15
100
AcDbLine
 10
687.3090903369
 20
309.5368177765
 30
0.0
 11
726.1090914813
 21
309.5368177765
 31
0.0
  0
LINE
  5
76
330
1F
100
AcDbEntity
  8
0
  6
Continuous
 62
     7
370
    15
100
AcDbLine
 10
722.1090908256
 20
305.5368245714
 30
0.0
 11
691.3090909925
 21
305.5368245714
 31
0.0
  0
LINE
  5
77
330
1F
100
AcDbEntity
  8
0
  6
Continuous
 62
     7
370
    15
100
AcDbLine
 10
692.8090912384
 20
315.036821472
 30
0.0
 11
720.6090905798
 21
315.036821472
 31
0.0
  0
SPLINE
  5
78
330
1F
100
AcDbEntity
  8
0
  6
Continuous
 62
     7
370
    15
100
AcDbSpline
210
0.0
220
0.0
230
1.0
 70
     8
 71
     3
 72
     8
 73
     4
 74
     0
 42
0.00000001
 43
0.00000001
 40
0.0
 40
0.0
 40
0.0
 40
0.0
 40
0.0000226150302116
 40
0.0000226150302116
 40
0.0000226150302116
 40
0.0000226150302116
 10
716.4135458713814
 20
643.4354407715795
 30
0.0
 10
716.4182972357278
 20
643.4354256359309
 30
0.0
 10
716.4230440473799
 20
643.4352619610627
 30
0.0
 10
716.4277807435683
 20
643.4349491176963
 30
0.0
  0
SPLINE
  5
79
330
1F
100
AcDbEntity
  8
0
  6
Continuous
 62
     7
370
    15
100
AcDbSpline
210
0.0
220
0.0
230
1.0
 70
    24
 71
     3
 72
    14
 73
    10
 74
     0
 42
0.00000001
 43
0.00000001
 40
0.139370050940242
 40
0.139370050940242
 40
0.139370050940242
 40
0.139370050940242
 40
0.2500000000000002
 40
0.3750000000000002
 40
0.5000000000000003
 40
0.5000000000000003
 40
0.6250000000000002
 40
0.7500000000000002
 40
0.8606299490597575
 40
0.8606299490597575
 40
0.8606299490597575
 40
0.8606299490597575
 10
697.0045240352081
 20
643.4368181818189
 30
0.0
 10
697.7207639375965
 20
643.4368181818189
 30
0.0
 10
699.5034323447567
 20
643.4368181818193
 30
0.0
 10
702.8580767627043
 20
643.4368181818188
 30
0.0
 10
705.4253687555936
 20
643.436818181819
 30
0.0
 10
707.9928130625891
 20
643.436818181819
 30
0.0
 10
710.5601050554783
 20
643.436818181819
 30
0.0
 10
713.9147494734259
 20
643.436818181819
 30
0.0
 10
715.697417880586
 20
643.436818181819
 30
0.0
 10
716.4136577829745
 20
643.436818181819
 30
0.0
  0
SPLINE
  5
7A
330
1F
100
AcDbEntity
  8
0
  6
Continuous
 62
     7
370
    15
100
AcDbSpline
210
0.0
220
0.0
230
1.0
 70
     8
 71
     3
 72
     8
 73
     4
 74
     0
 42
0.00000001
 43
0.00000001
 40
0.0
 40
0.0
 40
0.0
 40
0.0
 40
0.0000226150302117
 40
0.0000226150302117
 40
0.0000226150302117
 40
0.0000226150302117
 10
696.9904010746144
 20
643.4349491176962
 30
0.0
 10
696.9951377708027
 20
643.4352619610626
 30
0.0
 10
696.9998845824548
 20
643.4354256359308
 30
0.0
 10
697.0046359468012
 20
643.4354407715794
 30
0.0
  0
LINE
  5
7B
330
1F
100
AcDbEntity
  8
0
  6
Continuous
 62
     7
370
    15
100
AcDbLine
 10
696.9904008416
 20
662.2504324787
 30
0.0
 11
696.9904008416
 21
643.4368224018
 31
0.0
  0
SPLINE
  5
7C
330
1F
100
AcDbEntity
  8
0
  6
Continuous
 62
     7
370
    15
100
AcDbSpline
210
0.0
220
0.0
230
1.0
 70
     8
 71
     3
 72
    16
 73
    12
 74
     0
 42
0.00000001
 43
0.00000001
 40
0.0
 40
0.0
 40
0.0
 40
0.0
 40
0.1250000000000014
 40
0.1250000000000014
 40
0.2500000000000028
 40
0.2500000000000028
 40
0.5000000000000019
 40
0.5000000000000019
 40
0.7500000000000009
 40
0.7500000000000009
 40
1.0
 40
1.0
 40
1.0
 40
1.0
 10
694.4327258171606
 20
664.931752167939
 30
0.0
 10
694.4867008469311
 20
664.9362009071713
 30
0.0
 10
694.549562511769
 20
664.9142520075285
 30
0.0
 10
694.6920749938503
 20
664.8291167515143
 30
0.0
 10
694.7722836660355
 20
664.765275567039
 30
0.0
 10
695.0331887522717
 20
664.5258877948645
 30
0.0
 10
695.2314397396373
 20
664.3064475826615
 30
0.0
 10
695.670002797182
 20
663.7969068210534
 30
0.0
 10
695.910753820661
 20
663.5055466776945
 30
0.0
 10
696.4234985069511
 20
662.8952433796014
 30
0.0
 10
696.6978770998359
 20
662.5732410613332
 30
0.0
 10
696.9904010746143
 20
662.250438014024
 30
0.0
  0
SPLINE
  5
7D
330
1F
100
AcDbEntity
  8
0
  6
Continuous
 62
     7
370
    15
100
AcDbSpline
210
0.0
220
0.0
230
1.0
 70
     8
 71
     3
 72
    16
 73
    12
 74
     0
 42
0.00000001
 43
0.00000001
 40
0.0
 40
0.0
 40
0.0
 40
0.0
 40
0.1250000000000013
 40
0.1250000000000013
 40
0.2500000000000026
 40
0.2500000000000026
 40
0.5000000000000018
 40
0.5000000000000018
 40
0.7500000000000009
 40
0.7500000000000009
 40
1.0
 40
1.0
 40
1.0
 40
1.0
 10
718.9854560010218
 20
664.931752167939
 30
0.0
 10
718.9314809712513
 20
664.9362009071715
 30
0.0
 10
718.8686193064135
 20
664.9142520075286
 30
0.0
 10
718.7261068243321
 20
664.8291167515144
 30
0.0
 10
718.6458981521469
 20
664.765275567039
 30
0.0
 10
718.3849930659107
 20
664.5258877948646
 30
0.0
 10
718.1867420785451
 20
664.3064475826615
 30
0.0
 10
717.7481790210005
 20
663.7969068210534
 30
0.0
 10
717.5074279975215
 20
663.5055466776945
 30
0.0
 10
716.9946833112314
 20
662.8952433796017
 30
0.0
 10
716.7203047183535
 20
662.573241061317
 30
0.0
 10
716.4277807435682
 20
662.250438014024
 30
0.0
  0
LINE
  5
7E
330
1F
100
AcDbEntity
  8
0
  6
Continuous
 62
     7
370
    15
100
AcDbLine
 10
716.4277809766
 20
643.4368224018
 30
0.0
 11
716.4277809766
 21
662.2504324787
 31
0.0
  0
LINE
  5
7F
330
1F
100
AcDbEntity
  8
0
  6
Continuous
 62
     7
370
    15
100
AcDbLine
 10
694.2090907228
 20
665.4368222826
 30
0.0
 11
719.2090910954
 21
665.4368222826
 31
0.0
  0
SPLINE
  5
80
330
1F
100
AcDbEntity
  8
0
  6
Continuous
 62
     7
370
    15
100
AcDbSpline
210
0.0
220
0.0
230
1.0
 70
     8
 71
     3
 72
    16
 73
    12
 74
     0
 42
0.00000001
 43
0.00000001
 40
0.0
 40
0.0
 40
0.0
 40
0.0
 40
0.1250000000000013
 40
0.1250000000000013
 40
0.2500000000000026
 40
0.2500000000000026
 40
0.5000000000000017
 40
0.5000000000000017
 40
0.7500000000000009
 40
0.7500000000000009
 40
1.0
 40
1.0
 40
1.0
 40
1.0
 10
694.4327258171617
 20
367.041884195699
 30
0.0
 10
694.4867008469321
 20
367.0374354564665
 30
0.0
 10
694.5495625117699
 20
367.0593843561094
 30
0.0
 10
694.6920749938513
 20
367.1445196121236
 30
0.0
 10
694.7722836660366
 20
367.208360796599
 30
0.0
 10
695.0331887522727
 20
367.4477485687734
 30
0.0
 10
695.2314397396384
 20
367.6671887809766
 30
0.0
 10
695.670002797183
 20
368.1767295425847
 30
0.0
 10
695.910753820662
 20
368.4680896859436
 30
0.0
 10
696.4234985069521
 20
369.0783929840364
 30
0.0
 10
696.6978770998298
 20
369.400395302321
 30
0.0
 10
696.9904010746153
 20
369.7231983496141
 30
0.0
  0
LINE
  5
81
330
1F
100
AcDbEntity
  8
0
  6
Continuous
 62
     7
370
    15
100
AcDbLine
 10
696.9904008416
 20
388.5368139618
 30
0.0
 11
696.9904008416
 21
369.7232038849
 31
0.0
  0
SPLINE
  5
82
330
1F
100
AcDbEntity
  8
0
  6
Continuous
 62
     7
370
    15
100
AcDbSpline
210
0.0
220
0.0
230
1.0
 70
     8
 71
     3
 72
     8
 73
     4
 74
     0
 42
0.00000001
 43
0.00000001
 40
0.0
 40
0.0
 40
0.0
 40
0.0
 40
0.0000226150302116
 40
0.0000226150302116
 40
0.0000226150302116
 40
0.0000226150302116
 10
697.0046359468021
 20
388.5381955920587
 30
0.0
 10
696.9998845824557
 20
388.5382107277073
 30
0.0
 10
696.9951377708036
 20
388.5383744025754
 30
0.0
 10
696.9904010746153
 20
388.5386872459418
 30
0.0
  0
SPLINE
  5
83
330
1F
100
AcDbEntity
  8
0
  6
Continuous
 62
     7
370
    15
100
AcDbSpline
210
0.0
220
0.0
230
1.0
 70
    24
 71
     3
 72
    22
 73
    18
 74
     0
 42
0.00000001
 43
0.00000001
 40
0.0
 40
0.0
 40
0.0
 40
0.0
 40
0.1250000000000001
 40
0.1250000000000001
 40
0.25
 40
0.25
 40
0.375
 40
0.375
 40
0.5
 40
0.5
 40
0.6249999999999999
 40
0.6249999999999999
 40
0.75
 40
0.75
 40
0.875
 40
0.875
 40
1.0
 40
1.0
 40
1.0
 40
1.0
 10
716.4135476156159
 20
388.536818181819
 30
0.0
 10
715.8299580848171
 20
388.5368181818189
 30
0.0
 10
715.166197495127
 20
388.5368181818191
 30
0.0
 10
713.7108697173416
 20
388.5368181818191
 30
0.0
 10
712.9193615344677
 20
388.5368181818191
 30
0.0
 10
711.2474538974731
 20
388.536818181819
 30
0.0
 10
710.3671222296488
 20
388.5368181818189
 30
0.0
 10
708.5608543683472
 20
388.5368181818189
 30
0.0
 10
707.6349914087058
 20
388.536818181819
 30
0.0
 10
705.7831904094786
 20
388.5368181818189
 30
0.0
 10
704.857327449837
 20
388.5368181818189
 30
0.0
 10
703.0510595885355
 20
388.5368181818189
 30
0.0
 10
702.1707279207113
 20
388.5368181818189
 30
0.0
 10
700.4988202837166
 20
388.5368181818189
 30
0.0
 10
699.7073121008428
 20
388.5368181818189
 30
0.0
 10
698.2519843230574
 20
388.5368181818189
 30
0.0
 10
697.5882237333673
 20
388.5368181818189
 30
0.0
 10
697.0046342025685
 20
388.5368181818189
 30
0.0
  0
SPLINE
  5
84
330
1F
100
AcDbEntity
  8
0
  6
Continuous
 62
     7
370
    15
100
AcDbSpline
210
0.0
220
0.0
230
1.0
 70
     8
 71
     3
 72
     8
 73
     4
 74
     0
 42
0.00000001
 43
0.00000001
 40
0.0
 40
0.0
 40
0.0
 40
0.0
 40
0.0000226150302116
 40
0.0000226150302116
 40
0.0000226150302116
 40
0.0000226150302116
 10
716.4277807435692
 20
388.5386872459418
 30
0.0
 10
716.4230440473808
 20
388.5383744025753
 30
0.0
 10
716.4182972357287
 20
388.5382107277072
 30
0.0
 10
716.4135458713823
 20
388.5381955920586
 30
0.0
  0
LINE
  5
85
330
1F
100
AcDbEntity
  8
0
  6
Continuous
 62
     7
370
    15
100
AcDbLine
 10
716.4277809766
 20
369.7232038849
 30
0.0
 11
716.4277809766
 21
388.5368139618
 31
0.0
  0
SPLINE
  5
86
330
1F
100
AcDbEntity
  8
0
  6
Continuous
 62
     7
370
    15
100
AcDbSpline
210
0.0
220
0.0
230
1.0
 70
     8
 71
     3
 72
    16
 73
    12
 74
     0
 42
0.00000001
 43
0.00000001
 40
0.0
 40
0.0
 40
0.0
 40
0.0
 40
0.1250000000000014
 40
0.1250000000000014
 40
0.2500000000000028
 40
0.2500000000000028
 40
0.5000000000000019
 40
0.5000000000000019
 40
0.750000000000001
 40
0.750000000000001
 40
1.0
 40
1.0
 40
1.0
 40
1.0
 10
718.9854560010228
 20
367.0418841956991
 30
0.0
 10
718.9314809712523
 20
367.0374354564666
 30
0.0
 10
718.8686193064145
 20
367.0593843561095
 30
0.0
 10
718.7261068243332
 20
367.1445196121237
 30
0.0
 10
718.645898152148
 20
367.2083607965991
 30
0.0
 10
718.3849930659118
 20
367.4477485687734
 30
0.0
 10
718.1867420785461
 20
367.6671887809766
 30
0.0
 10
717.7481790210015
 20
368.1767295425846
 30
0.0
 10
717.5074279975225
 20
368.4680896859436
 30
0.0
 10
716.9946833112324
 20
369.0783929840366
 30
0.0
 10
716.720304718358
 20
369.4003953023287
 30
0.0
 10
716.4277807435692
 20
369.7231983496142
 30
0.0
  0
LINE
  5
87
330
1F
100
AcDbEntity
  8
0
  6
Continuous
 62
     7
370
    15
100
AcDbLine
 10
694.2090907228
 20
366.536814081
 30
0.0
 11
719.2090910954
 21
366.536814081
 31
0.0
  0
SPLINE
  5
88
330
1F
100
AcDbEntity
  8
0
  6
Continuous
 62
     7
370
    15
100
AcDbSpline
210
0.0
220
0.0
230
1.0
 70
     8
 71
     3
 72
    44
 73
    40
 74
     0
 42
0.00000001
 43
0.00000001
 40
0.0
 40
0.0
 40
0.0
 40
0.0
 40
0.0625000000000016
 40
0.0625000000000016
 40
0.1250000000000018
 40
0.1250000000000018
 40
0.1875000000000021
 40
0.1875000000000021
 40
0.2500000000000023
 40
0.2500000000000023
 40
0.2812500000000019
 40
0.2812500000000019
 40
0.3125000000000016
 40
0.3125000000000016
 40
0.3750000000000017
 40
0.3750000000000017
 40
0.4062500000000017
 40
0.4062500000000017
 40
0.4375000000000018
 40
0.4375000000000018
 40
0.5000000000000021
 40
0.5000000000000021
 40
0.5625000000000026
 40
0.5625000000000026
 40
0.6250000000000029
 40
0.6250000000000029
 40
0.6875000000000034
 40
0.6875000000000034
 40
0.7187500000000032
 40
0.7187500000000032
 40
0.750000000000003
 40
0.750000000000003
 40
0.8125000000000026
 40
0.8125000000000026
 40
0.8750000000000021
 40
0.8750000000000021
 40
0.9375000000000018
 40
0.9375000000000018
 40
1.0
 40
1.0
 40
1.0
 40
1.0
 10
697.0045240278822
 20
643.4368181818189
 30
0.0
 10
697.0765125123062
 20
642.8107500015767
 30
0.0
 10
697.1944765000372
 20
642.1879083534944
 30
0.0
 10
697.5150090772914
 20
640.9747894080056
 30
0.0
 10
697.7178677424066
 20
640.3838944171531
 30
0.0
 10
698.216950914765
 20
639.2363075223167
 30
0.0
 10
698.51677909767
 20
638.6750438567544
 30
0.0
 10
699.1991057871014
 20
637.6290939081656
 30
0.0
 10
699.5833815238108
 20
637.1421157930597
 30
0.0
 10
700.2255325680877
 20
636.4665294157433
 30
0.0
 10
700.4505806575262
 20
636.2505153376521
 30
0.0
 10
700.9236684301541
 20
635.837679967302
 30
0.0
 10
701.1727017497936
 20
635.640348074141
 30
0.0
 10
701.9376380349815
 20
635.0920859311885
 30
0.0
 10
702.4760588656036
 20
634.7794580612556
 30
0.0
 10
703.3285476598551
 20
634.3938206346816
 30
0.0
 10
703.6201698940957
 20
634.2791244114275
 30
0.0
 10
704.2190611104077
 20
634.078752517798
 30
0.0
 10
704.5239143429733
 20
633.9940403289446
 30
0.0
 10
705.4424709612164
 20
633.7897791907958
 30
0.0
 10
706.0649433158451
 20
633.7175159280365
 30
0.0
 10
707.3324900996881
 20
633.7159276456927
 30
0.0
 10
707.9545094488285
 20
633.786752198727
 30
0.0
 10
709.1763167946448
 20
634.0551340463415
 30
0.0
 10
709.782019089026
 20
634.2563664534034
 30
0.0
 10
710.924533003848
 20
634.7698604088333
 30
0.0
 10
711.4653940332091
 20
635.0825163906995
 30
0.0
 10
712.2334316602262
 20
635.6310924085662
 30
0.0
 10
712.4825423532263
 20
635.8278990900096
 30
0.0
 10
712.9561365859261
 20
636.2398775200329
 30
0.0
 10
713.1819833583322
 20
636.4559383718804
 30
0.0
 10
713.8276859426006
 20
637.1334113947605
 30
0.0
 10
714.2158819851948
 20
637.6239756654977
 30
0.0
 10
714.9068547668165
 20
638.6836241525516
 30
0.0
 10
715.2008393166093
 20
639.2357811631134
 30
0.0
 10
715.6984667937246
 20
640.3792744230458
 30
0.0
 10
715.9020305747696
 20
640.970643573483
 30
0.0
 10
716.2243731710585
 20
642.190259316023
 30
0.0
 10
716.3416693066162
 20
642.8107500014875
 30
0.0
 10
716.4136577903002
 20
643.436818181819
 30
0.0
  0
SPLINE
  5
89
330
1F
100
AcDbEntity
  8
0
  6
Continuous
 62
     7
370
    15
100
AcDbSpline
210
0.0
220
0.0
230
1.0
 70
     8
 71
     3
 72
    44
 73
    40
 74
     0
 42
0.00000001
 43
0.00000001
 40
0.0
 40
0.0
 40
0.0
 40
0.0
 40
0.0624999999999992
 40
0.0624999999999992
 40
0.1249999999999984
 40
0.1249999999999984
 40
0.1874999999999976
 40
0.1874999999999976
 40
0.2499999999999967
 40
0.2499999999999967
 40
0.2812499999999968
 40
0.2812499999999968
 40
0.3124999999999968
 40
0.3124999999999968
 40
0.374999999999997
 40
0.374999999999997
 40
0.4374999999999972
 40
0.4374999999999972
 40
0.4999999999999973
 40
0.4999999999999973
 40
0.5624999999999976
 40
0.5624999999999976
 40
0.5937499999999978
 40
0.5937499999999978
 40
0.624999999999998
 40
0.624999999999998
 40
0.6874999999999991
 40
0.6874999999999991
 40
0.7187499999999996
 40
0.7187499999999996
 40
0.75
 40
0.75
 40
0.8125
 40
0.8125
 40
0.875
 40
0.875
 40
0.9374999999999999
 40
0.9374999999999999
 40
1.0
 40
1.0
 40
1.0
 40
1.0
 10
716.413657790301
 20
388.5368181818191
 30
0.0
 10
716.341716930424
 20
389.1624721847289
 30
0.0
 10
716.2243731787992
 20
389.7833770117087
 30
0.0
 10
715.9020305848031
 20
391.0029927588168
 30
0.0
 10
715.6984668047033
 20
391.5943619114489
 30
0.0
 10
715.2008393291496
 20
392.7378551756276
 30
0.0
 10
714.9068547799676
 20
393.2900121882385
 30
0.0
 10
714.2158819992575
 20
394.3496606792569
 30
0.0
 10
713.8276859563999
 20
394.8402249526399
 30
0.0
 10
713.1819833717768
 20
395.5176979785323
 30
0.0
 10
712.9561365992007
 20
395.7337588313362
 30
0.0
 10
712.4825423660645
 20
396.1457372631835
 30
0.0
 10
712.2334316727677
 20
396.3425439455269
 30
0.0
 10
711.4653940444238
 20
396.8911199661039
 30
0.0
 10
710.9245330140272
 20
397.2037759494986
 30
0.0
 10
709.7820190968447
 20
397.7172699074522
 30
0.0
 10
709.1763168010023
 20
397.9185023155488
 30
0.0
 10
707.954509452094
 20
398.1868841645455
 30
0.0
 10
707.3324901013516
 20
398.2577087179477
 30
0.0
 10
706.0649433141806
 20
398.2561204355993
 30
0.0
 10
705.4424709579465
 20
398.1838571724684
 30
0.0
 10
704.5239143373738
 20
397.9795960332713
 30
0.0
 10
704.2190611039962
 20
397.8948838439655
 30
0.0
 10
703.6201698863581
 20
397.6945119493508
 30
0.0
 10
703.3285476514914
 20
397.5798157255358
 30
0.0
 10
702.4760588554727
 20
397.1941782970729
 30
0.0
 10
701.9376380238162
 20
396.8815504256156
 30
0.0
 10
701.1727017373023
 20
396.3332882799585
 30
0.0
 10
700.9236684173105
 20
396.135956385851
 30
0.0
 10
700.4505806442872
 20
395.7231210137088
 30
0.0
 10
700.2255325546988
 20
395.507106934682
 30
0.0
 10
699.5833815101252
 20
394.8315205544311
 30
0.0
 10
699.1991057734579
 20
394.3445424371694
 30
0.0
 10
698.5167790844429
 20
393.2985924839936
 30
0.0
 10
698.2169509021478
 20
392.7373288162538
 30
0.0
 10
697.7178677314391
 20
391.5897419173182
 30
0.0
 10
697.5150090672986
 20
390.9988469243615
 30
0.0
 10
697.1944764923587
 20
389.7857279745269
 30
0.0
 10
697.0764648877612
 20
389.1624721847286
 30
0.0
 10
697.0045240278831
 20
388.536818181819
 30
0.0
  0
SPLINE
  5
8A
330
1F
100
AcDbEntity
  8
0
  6
Continuous
 62
     7
370
    15
100
AcDbSpline
210
0.0
220
0.0
230
1.0
 70
     8
 71
     3
 72
    18
 73
    14
 74
     0
 42
0.00000001
 43
0.00000001
 40
0.0
 40
0.0
 40
0.0
 40
0.0
 40
0.2499999999999999
 40
0.2499999999999999
 40
0.4999999999999998
 40
0.4999999999999998
 40
0.7499999999999997
 40
0.7499999999999997
 40
0.8749999999999993
 40
0.8749999999999993
 40
0.9374999999999997
 40
0.9374999999999997
 40
1.0
 40
1.0
 40
1.0
 40
1.0
 10
696.9904010746153
 20
388.5386872459418
 30
0.0
 10
696.5193460177464
 20
388.5697988992742
 30
0.0
 10
695.9927049201826
 20
388.6047054465181
 30
0.0
 10
694.8326359194365
 20
388.6820301304785
 30
0.0
 10
694.1914948238126
 20
388.7249708920144
 30
0.0
 10
692.8576554844157
 20
388.8148980951987
 30
0.0
 10
692.1604613043822
 20
388.8621784887252
 30
0.0
 10
691.0677794058208
 20
388.9368292419696
 30
0.0
 10
690.6997847355887
 20
388.9620588115893
 30
0.0
 10
690.1454276672846
 20
389.0002076881221
 30
0.0
 10
689.9600742065558
 20
389.0129865972091
 30
0.0
 10
689.5882268974208
 20
389.0386717474093
 30
0.0
 10
689.3997619003719
 20
389.0517170955966
 30
0.0
 10
689.2154492070337
 20
389.0644947177931
 30
0.0
  0
SPLINE
  5
8B
330
1F
100
AcDbEntity
  8
0
  6
Continuous
 62
     7
370
    15
100
AcDbSpline
210
0.0
220
0.0
230
1.0
 70
     8
 71
     3
 72
    58
 73
    54
 74
     0
 42
0.00000001
 43
0.00000001
 40
0.0
 40
0.0
 40
0.0
 40
0.0
 40
0.0156249999999996
 40
0.0156249999999996
 40
0.0312499999999993
 40
0.0312499999999993
 40
0.0624999999999993
 40
0.0624999999999993
 40
0.1249999999999995
 40
0.1249999999999995
 40
0.1562499999999995
 40
0.1562499999999995
 40
0.1874999999999995
 40
0.1874999999999995
 40
0.2499999999999996
 40
0.2499999999999996
 40
0.2812499999999996
 40
0.2812499999999996
 40
0.3124999999999997
 40
0.3124999999999997
 40
0.3750000000000001
 40
0.3750000000000001
 40
0.4062500000000004
 40
0.4062500000000004
 40
0.4375000000000007
 40
0.4375000000000007
 40
0.5000000000000011
 40
0.5000000000000011
 40
0.5625000000000016
 40
0.5625000000000016
 40
0.5937500000000017
 40
0.5937500000000017
 40
0.6250000000000019
 40
0.6250000000000019
 40
0.6875000000000021
 40
0.6875000000000021
 40
0.7187500000000021
 40
0.7187500000000021
 40
0.7500000000000021
 40
0.7500000000000021
 40
0.8125000000000022
 40
0.8125000000000022
 40
0.843750000000002
 40
0.843750000000002
 40
0.8750000000000017
 40
0.8750000000000017
 40
0.9375000000000012
 40
0.9375000000000012
 40
0.9687500000000011
 40
0.9687500000000011
 40
0.9843750000000006
 40
0.9843750000000006
 40
1.0
 40
1.0
 40
1.0
 40
1.0
 10
689.2154492070337
 20
389.0644947177931
 30
0.0
 10
689.2540234760892
 20
389.341316094379
 30
0.0
 10
689.288749979794
 20
389.6188111779574
 30
0.0
 10
689.3715427079256
 20
390.1714656873203
 30
0.0
 10
689.4186529755247
 20
390.4467924920224
 30
0.0
 10
689.5768144781296
 20
391.2698260112118
 30
0.0
 10
689.7050417753861
 20
391.8157703859072
 30
0.0
 10
690.1522073724242
 20
393.426042498608
 30
0.0
 10
690.5334443563512
 20
394.4671284824758
 30
0.0
 10
691.2330334017634
 20
395.9789269382216
 30
0.0
 10
691.487990009782
 20
396.475044758646
 30
0.0
 10
692.0418351150181
 20
397.4473527670245
 30
0.0
 10
692.3374574497327
 20
397.9178861287671
 30
0.0
 10
693.2800247079757
 20
399.2829576636087
 30
0.0
 10
693.9821458017823
 20
400.1314050735612
 30
0.0
 10
695.1501038374997
 20
401.3081990804841
 30
0.0
 10
695.5586560121673
 20
401.6843978322092
 30
0.0
 10
696.4164816189813
 20
402.4027793134521
 30
0.0
 10
696.8611609913912
 20
402.7408898132391
 30
0.0
 10
698.2296299688212
 20
403.6830167790603
 30
0.0
 10
699.1927162485252
 20
404.2195549456723
 30
0.0
 10
700.7163132623077
 20
404.8819810945612
 30
0.0
 10
701.2390147612124
 20
405.0794656863455
 30
0.0
 10
702.3054421956875
 20
405.4215969389357
 30
0.0
 10
702.8432540941252
 20
405.5645244457748
 30
0.0
 10
704.4703242201426
 20
405.9098724030977
 30
0.0
 10
705.5730502461292
 20
406.0298779804167
 30
0.0
 10
707.8173993079686
 20
406.0318626931793
 30
0.0
 10
708.919167426632
 20
405.913715008671
 30
0.0
 10
710.5423045123266
 20
405.5725241557507
 30
0.0
 10
711.0784691446414
 20
405.4312068195423
 30
0.0
 10
712.1409683356416
 20
405.0930140123363
 30
0.0
 10
712.6679486585691
 20
404.895467223379
 30
0.0
 10
714.1994112585976
 20
404.2332931555806
 30
0.0
 10
715.1668111961525
 20
403.6962739879801
 30
0.0
 10
716.5406770954335
 20
402.7529716486756
 30
0.0
 10
716.98772868982
 20
402.4137076008384
 30
0.0
 10
717.844826337702
 20
401.6974544902203
 30
0.0
 10
718.2539768541398
 20
401.3216126680508
 30
0.0
 10
719.4257912789517
 20
400.1432772786815
 30
0.0
 10
720.1332252184329
 20
399.2903456184957
 30
0.0
 10
721.0852156127391
 20
397.9112586242738
 30
0.0
 10
721.3828423053451
 20
397.4364440867855
 30
0.0
 10
721.9322911121606
 20
396.4708567733737
 30
0.0
 10
722.1854368681229
 20
395.9782221017544
 30
0.0
 10
722.8825971192723
 20
394.471916443464
 30
0.0
 10
723.2652501082995
 20
393.4290394771766
 30
0.0
 10
723.7142764616851
 20
391.8114832690631
 30
0.0
 10
723.8417612846275
 20
391.2679385143405
 30
0.0
 10
723.9996515739603
 20
390.4460723347219
 30
0.0
 10
724.0467095508611
 20
390.1710222978502
 30
0.0
 10
724.1294464493753
 20
389.6186868071003
 30
0.0
 10
724.16417254491
 20
389.3412141704055
 30
0.0
 10
724.2027326111506
 20
389.0644947177932
 30
0.0
  0
SPLINE
  5
8C
330
1F
100
AcDbEntity
  8
0
  6
Continuous
 62
     7
370
    15
100
AcDbSpline
210
0.0
220
0.0
230
1.0
 70
     8
 71
     3
 72
    18
 73
    14
 74
     0
 42
0.00000001
 43
0.00000001
 40
0.0
 40
0.0
 40
0.0
 40
0.0
 40
0.2500000000000002
 40
0.2500000000000002
 40
0.5000000000000004
 40
0.5000000000000004
 40
0.7500000000000007
 40
0.7500000000000007
 40
0.8750000000000006
 40
0.8750000000000006
 40
0.9375000000000002
 40
0.9375000000000002
 40
1.0
 40
1.0
 40
1.0
 40
1.0
 10
716.4277807435692
 20
388.5386872459418
 30
0.0
 10
716.8988372894348
 20
388.5697989976176
 30
0.0
 10
717.4254781067083
 20
388.6047055275827
 30
0.0
 10
718.5855403331675
 20
388.6820297590053
 30
0.0
 10
719.2266835929014
 20
388.7249706629602
 30
0.0
 10
720.5605277737579
 20
388.8148981920106
 30
0.0
 10
721.2577160474841
 20
388.8621781905275
 30
0.0
 10
722.3503724578514
 20
388.9368271920453
 30
0.0
 10
722.7183853581995
 20
388.9620580060442
 30
0.0
 10
723.2727487302295
 20
389.0002073144619
 30
0.0
 10
723.458103904079
 20
389.0129863413197
 30
0.0
 10
723.8299538448961
 20
389.0386716728846
 30
0.0
 10
724.018420564939
 20
389.0517171403964
 30
0.0
 10
724.2027326111503
 20
389.0644947177933
 30
0.0
  0
SPLINE
  5
8D
330
1F
100
AcDbEntity
  8
0
  6
Continuous
 62
     7
370
    15
100
AcDbSpline
210
0.0
220
0.0
230
1.0
 70
     8
 71
     3
 72
    18
 73
    14
 74
     0
 42
0.00000001
 43
0.00000001
 40
0.0
 40
0.0
 40
0.0
 40
0.0
 40
0.2500000000000004
 40
0.2500000000000004
 40
0.5000000000000008
 40
0.5000000000000008
 40
0.7500000000000011
 40
0.7500000000000011
 40
0.8750000000000011
 40
0.8750000000000011
 40
0.9375000000000006
 40
0.9375000000000006
 40
1.0
 40
1.0
 40
1.0
 40
1.0
 10
716.4277807435683
 20
643.4349491176963
 30
0.0
 10
716.898835800437
 20
643.4038374643638
 30
0.0
 10
717.4254768980009
 20
643.36893091712
 30
0.0
 10
718.5855458987471
 20
643.2916062331597
 30
0.0
 10
719.226686994371
 20
643.2486654716239
 30
0.0
 10
720.5605263337679
 20
643.1587382684396
 30
0.0
 10
721.2577205138015
 20
643.1114578749133
 30
0.0
 10
722.3504024123629
 20
643.0368071216691
 30
0.0
 10
722.7183970825947
 20
643.0115775520408
 30
0.0
 10
723.2727541508992
 20
642.9734286755054
 30
0.0
 10
723.458107611629
 20
642.96064976643
 30
0.0
 10
723.8299549207645
 20
642.9349646162308
 30
0.0
 10
724.0184199178112
 20
642.9219192680396
 30
0.0
 10
724.2027326111495
 20
642.909141645845
 30
0.0
  0
SPLINE
  5
8E
330
1F
100
AcDbEntity
  8
0
  6
Continuous
 62
     7
370
    15
100
AcDbSpline
210
0.0
220
0.0
230
1.0
 70
     8
 71
     3
 72
    58
 73
    54
 74
     0
 42
0.00000001
 43
0.00000001
 40
0.0
 40
0.0
 40
0.0
 40
0.0
 40
0.0156249999999991
 40
0.0156249999999991
 40
0.0312499999999981
 40
0.0312499999999981
 40
0.0624999999999978
 40
0.0624999999999978
 40
0.124999999999997
 40
0.124999999999997
 40
0.156249999999997
 40
0.156249999999997
 40
0.1874999999999969
 40
0.1874999999999969
 40
0.2499999999999975
 40
0.2499999999999975
 40
0.2812499999999978
 40
0.2812499999999978
 40
0.3124999999999981
 40
0.3124999999999981
 40
0.3749999999999982
 40
0.3749999999999982
 40
0.4062499999999984
 40
0.4062499999999984
 40
0.4374999999999985
 40
0.4374999999999985
 40
0.4999999999999986
 40
0.4999999999999986
 40
0.5624999999999986
 40
0.5624999999999986
 40
0.5937499999999987
 40
0.5937499999999987
 40
0.6249999999999987
 40
0.6249999999999987
 40
0.6874999999999991
 40
0.6874999999999991
 40
0.7187499999999993
 40
0.7187499999999993
 40
0.7499999999999996
 40
0.7499999999999996
 40
0.8125000000000001
 40
0.8125000000000001
 40
0.84375
 40
0.84375
 40
0.8749999999999999
 40
0.8749999999999999
 40
0.9375000000000004
 40
0.9375000000000004
 40
0.9687500000000007
 40
0.9687500000000007
 40
0.9843750000000003
 40
0.9843750000000003
 40
1.0
 40
1.0
 40
1.0
 40
1.0
 10
724.2027326111497
 20
642.909141645845
 30
0.0
 10
724.1641594775944
 20
642.6323284179736
 30
0.0
 10
724.1294268589235
 20
642.3547985393483
 30
0.0
 10
724.0466649838482
 20
641.802336795888
 30
0.0
 10
723.9995935793086
 20
641.5272350442433
 30
0.0
 10
723.8416641452645
 20
640.7052464751109
 30
0.0
 10
723.7141547112815
 20
640.161663680868
 30
0.0
 10
723.2650889009328
 20
638.5441178766149
 30
0.0
 10
722.8824201793541
 20
637.5012765260659
 30
0.0
 10
722.1852318867382
 20
635.9950019383258
 30
0.0
 10
721.9320770468167
 20
635.5023775035249
 30
0.0
 10
721.3826103399521
 20
634.5368105415877
 30
0.0
 10
721.084973927883
 20
634.0620050677862
 30
0.0
 10
720.1329644098648
 20
632.6829580717557
 30
0.0
 10
719.4255194865578
 20
631.8300514648777
 30
0.0
 10
718.2536899750472
 20
630.651752386947
 30
0.0
 10
717.8445346631438
 20
630.2759224554098
 30
0.0
 10
716.9874276748975
 20
629.559692897229
 30
0.0
 10
716.5403753120489
 20
629.2204433934562
 30
0.0
 10
715.1665060341634
 20
628.2771810955393
 30
0.0
 10
714.1991048867967
 20
627.7401867623744
 30
0.0
 10
712.6676414042697
 20
627.078048283294
 30
0.0
 10
712.1406614171901
 20
626.8805134576536
 30
0.0
 10
711.078169120644
 20
626.5423452547552
 30
0.0
 10
710.54200805545
 20
626.4010395430753
 30
0.0
 10
708.9188819391228
 20
626.0598820490242
 30
0.0
 10
707.8171149989064
 20
625.9417546097411
 30
0.0
 10
705.5727947409773
 20
625.9437779259506
 30
0.0
 10
704.4700825069795
 20
626.0637990723676
 30
0.0
 10
702.8430325234403
 20
626.4091670451817
 30
0.0
 10
702.3052272452784
 20
626.5521006493383
 30
0.0
 10
701.2388129010586
 20
626.8942431768459
 30
0.0
 10
700.7161217548012
 20
627.091731396754
 30
0.0
 10
699.1925495777161
 20
627.754168157662
 30
0.0
 10
698.2294785582551
 20
628.2907110594219
 30
0.0
 10
696.8610309805738
 20
629.2328424403407
 30
0.0
 10
696.4163575801265
 20
629.5709547664482
 30
0.0
 10
695.5585479354916
 20
630.2893352007454
 30
0.0
 10
695.1500032042946
 20
630.6655329799045
 30
0.0
 10
693.982066149885
 20
631.8423229421722
 30
0.0
 10
693.2799572647887
 20
632.690766169766
 30
0.0
 10
692.3374061561217
 20
634.0558296238263
 30
0.0
 10
692.0417888340805
 20
634.5263599824669
 30
0.0
 10
691.4879530335941
 20
635.4986613827006
 30
0.0
 10
691.2330012969351
 20
635.9947744068135
 30
0.0
 10
690.5334244330916
 20
637.5065597287675
 30
0.0
 10
690.1521937379017
 20
638.5476362419674
 30
0.0
 10
689.7050351485473
 20
640.1578932024789
 30
0.0
 10
689.5768098009688
 20
640.7038322688569
 30
0.0
 10
689.4186505589518
 20
641.5268576580947
 30
0.0
 10
689.3715409337998
 20
641.8021817333635
 30
0.0
 10
689.2887492647391
 20
642.3548307443205
 30
0.0
 10
689.2540230895069
 20
642.6323230434919
 30
0.0
 10
689.2154492070329
 20
642.9091416458448
 30
0.0
  0
SPLINE
  5
8F
330
1F
100
AcDbEntity
  8
0
  6
Continuous
 62
     7
370
    15
100
AcDbSpline
210
0.0
220
0.0
230
1.0
 70
     8
 71
     3
 72
    18
 73
    14
 74
     0
 42
0.00000001
 43
0.00000001
 40
0.0
 40
0.0
 40
0.0
 40
0.0
 40
0.2500000000000003
 40
0.2500000000000003
 40
0.5000000000000006
 40
0.5000000000000006
 40
0.7500000000000009
 40
0.7500000000000009
 40
0.875000000000001
 40
0.875000000000001
 40
0.9375000000000004
 40
0.9375000000000004
 40
1.0
 40
1.0
 40
1.0
 40
1.0
 10
696.9904010746144
 20
643.4349491176962
 30
0.0
 10
696.5193445287487
 20
643.4038373660203
 30
0.0
 10
695.9927037114751
 20
643.3689308360553
 30
0.0
 10
694.8326414850158
 20
643.2916066046325
 30
0.0
 10
694.1914982252817
 20
643.2486657006779
 30
0.0
 10
692.857654044425
 20
643.1587381716276
 30
0.0
 10
692.1604657706988
 20
643.1114581731109
 30
0.0
 10
691.0678093603312
 20
643.0368091715934
 30
0.0
 10
690.6997964599826
 20
643.0115783576018
 30
0.0
 10
690.1454330879519
 20
642.9734290491864
 30
0.0
 10
689.960077914103
 20
642.960650022317
 30
0.0
 10
689.5882279732857
 20
642.9349646907509
 30
0.0
 10
689.399761253241
 20
642.9219192232853
 30
0.0
 10
689.2154492070326
 20
642.9091416458449
 30
0.0
  0
SPLINE
  5
90
330
1F
100
AcDbEntity
  8
0
  6
Continuous
 62
     7
370
    15
100
AcDbSpline
210
0.0
220
0.0
230
1.0
 70
     8
 71
     3
 72
    16
 73
    12
 74
     0
 42
0.00000001
 43
0.00000001
 40
0.0
 40
0.0
 40
0.0
 40
0.0
 40
0.2499999999999994
 40
0.2499999999999994
 40
0.3749999999999996
 40
0.3749999999999996
 40
0.4999999999999999
 40
0.4999999999999999
 40
0.7499999999999999
 40
0.7499999999999999
 40
1.0
 40
1.0
 40
1.0
 40
1.0
 10
724.2027326111497
 20
661.3882452724773
 30
0.0
 10
723.4595865644611
 20
661.5044781748165
 30
0.0
 10
722.7288086776008
 20
661.6090154109919
 30
0.0
 10
721.6508528320842
 20
661.7498392459014
 30
0.0
 10
721.2945991051678
 20
661.794110955339
 30
0.0
 10
720.5885400312084
 20
661.8775236508012
 30
0.0
 10
720.2441422293801
 20
661.9160208949806
 30
0.0
 10
719.2420412490068
 20
662.0223462173816
 30
0.0
 10
718.6124064852128
 20
662.0813647224218
 30
0.0
 10
717.4336013864552
 20
662.1805608728931
 30
0.0
 10
716.9005099386188
 20
662.2194037983624
 30
0.0
 10
716.4277807435682
 20
662.250438014024
 30
0.0
  0
LINE
  5
91
330
1F
100
AcDbEntity
  8
0
  6
Continuous
 62
     7
370
    15
100
AcDbLine
 10
724.2027319131
 20
661.3882512921
 30
0.0
 11
724.2027319131
 21
642.9091424816
 31
0.0
  0
SPLINE
  5
92
330
1F
100
AcDbEntity
  8
0
  6
Continuous
 62
     7
370
    15
100
AcDbSpline
210
0.0
220
0.0
230
1.0
 70
     8
 71
     3
 72
    12
 73
     8
 74
     0
 42
0.00000001
 43
0.00000001
 40
0.0
 40
0.0
 40
0.0
 40
0.0
 40
0.2499999999999992
 40
0.2499999999999992
 40
0.4999999999999984
 40
0.4999999999999984
 40
1.0
 40
1.0
 40
1.0
 40
1.0
 10
694.4327258171617
 20
367.041884195699
 30
0.0
 10
693.9924170237264
 20
367.0781754031723
 30
0.0
 10
693.5415441649072
 20
367.1173130248654
 30
0.0
 10
692.6259106668793
 20
367.2011404866797
 30
0.0
 10
692.1640339261772
 20
367.245556374697
 30
0.0
 10
690.7667429070132
 20
367.3866141892781
 30
0.0
 10
689.8198080011756
 20
367.4910443216226
 30
0.0
 10
688.857095331266
 20
367.6068709049404
 30
0.0
  0
LWPOLYLINE
  5
93
330
1F
100
AcDbEntity
  8
0
  6
Continuous
 62
     7
370
    15
100
AcDbPolyline
 90
        9
 70
   128
 43
0.0
 10
688.8570956049
 20
367.6068664663
 10
688.863981804
 20
367.6641018265
 10
688.8843740431
 20
367.8336025351
 10
688.9174881485
 20
368.1088418835
 10
688.962055659
 20
368.4792549484
 10
689.0163592157
 20
368.930611121
 10
689.078312656
 20
369.4455654495
 10
689.1455373821
 20
370.0043142908
 10
689.2154499051
 20
370.5853850716
  0
SPLINE
  5
94
330
1F
100
AcDbEntity
  8
0
  6
Continuous
 62
     7
370
    15
100
AcDbSpline
210
0.0
220
0.0
230
1.0
 70
     8
 71
     3
 72
    16
 73
    12
 74
     0
 42
0.00000001
 43
0.00000001
 40
0.0
 40
0.0
 40
0.0
 40
0.0
 40
0.2500000000000002
 40
0.2500000000000002
 40
0.3749999999999999
 40
0.3749999999999999
 40
0.4999999999999998
 40
0.4999999999999998
 40
0.7499999999999999
 40
0.7499999999999999
 40
1.0
 40
1.0
 40
1.0
 40
1.0
 10
689.2154492070337
 20
370.5853910911607
 30
0.0
 10
689.9585952537224
 20
370.4691581888217
 30
0.0
 10
690.6893731405827
 20
370.3646209526461
 30
0.0
 10
691.7673289860993
 20
370.2237971177366
 30
0.0
 10
692.1235827130158
 20
370.179525408299
 30
0.0
 10
692.8296417869751
 20
370.0961127128368
 30
0.0
 10
693.1740395888033
 20
370.0576154686573
 30
0.0
 10
694.1761405691766
 20
369.9512901462565
 30
0.0
 10
694.8057753329707
 20
369.8922716412163
 30
0.0
 10
695.9845804317283
 20
369.7930754907449
 30
0.0
 10
696.5176718795645
 20
369.7542325652757
 30
0.0
 10
696.9904010746153
 20
369.7231983496141
 30
0.0
  0
SPLINE
  5
95
330
1F
100
AcDbEntity
  8
0
  6
Continuous
 62
     7
370
    15
100
AcDbSpline
210
0.0
220
0.0
230
1.0
 70
     8
 71
     3
 72
    12
 73
     8
 74
     0
 42
0.00000001
 43
0.00000001
 40
0.0
 40
0.0
 40
0.0
 40
0.0
 40
0.2499999999999997
 40
0.2499999999999997
 40
0.4999999999999993
 40
0.4999999999999993
 40
1.0
 40
1.0
 40
1.0
 40
1.0
 10
718.9854560010218
 20
664.931752167939
 30
0.0
 10
719.4257647944571
 20
664.8954609604656
 30
0.0
 10
719.8766376532762
 20
664.8563233387727
 30
0.0
 10
720.792271151304
 20
664.7724958769583
 30
0.0
 10
721.2541478920062
 20
664.728079988941
 30
0.0
 10
722.6514389111703
 20
664.58702217436
 30
0.0
 10
723.5983738170079
 20
664.4825920420154
 30
0.0
 10
724.5610864869174
 20
664.3667654586976
 30
0.0
  0
LWPOLYLINE
  5
96
330
1F
100
AcDbEntity
  8
0
  6
Continuous
 62
     7
370
    15
100
AcDbPolyline
 90
        9
 70
   128
 43
0.0
 10
724.5610862133
 20
664.3667698973
 10
724.5542000142
 20
664.3095345371
 10
724.5338077751
 20
664.1400338286
 10
724.5006936696
 20
663.8647944802
 10
724.4561261592
 20
663.4943814152
 10
724.4018226025
 20
663.0430252426
 10
724.3398691622
 20
662.5280709141
 10
724.2726444361
 20
661.9693220728
 10
724.2027319131
 20
661.3882512921
  0
LINE
  5
97
330
1F
100
AcDbEntity
  8
0
  6
Continuous
 62
     7
370
    15
100
AcDbLine
 10
689.2154499051
 20
370.5853850716
 30
0.0
 11
689.2154499051
 21
389.064493882
 31
0.0
  0
SPLINE
  5
98
330
1F
100
AcDbEntity
  8
0
  6
Continuous
 62
     7
370
    15
100
AcDbSpline
210
0.0
220
0.0
230
1.0
 70
     8
 71
     3
 72
    12
 73
     8
 74
     0
 42
0.00000001
 43
0.00000001
 40
0.0
 40
0.0
 40
0.0
 40
0.0
 40
0.5000000000000007
 40
0.5000000000000007
 40
0.7500000000000003
 40
0.7500000000000003
 40
1.0
 40
1.0
 40
1.0
 40
1.0
 10
724.5610864869184
 20
367.6068709049404
 30
0.0
 10
723.5984530966092
 20
367.4910538599674
 30
0.0
 10
722.6515229062531
 20
367.3866228144946
 30
0.0
 10
721.2541404578195
 20
367.245555551294
 30
0.0
 10
720.7922166571763
 20
367.2011351321306
 30
0.0
 10
719.8764564651916
 20
367.1172968024893
 30
0.0
 10
719.425727748689
 20
367.0781723497797
 30
0.0
 10
718.9854560010228
 20
367.0418841956991
 30
0.0
  0
SPLINE
  5
99
330
1F
100
AcDbEntity
  8
0
  6
Continuous
 62
     7
370
    15
100
AcDbSpline
210
0.0
220
0.0
230
1.0
 70
     8
 71
     3
 72
    16
 73
    12
 74
     0
 42
0.00000001
 43
0.00000001
 40
0.0
 40
0.0
 40
0.0
 40
0.0
 40
0.2500000000000004
 40
0.2500000000000004
 40
0.5000000000000008
 40
0.5000000000000008
 40
0.6250000000000004
 40
0.6250000000000004
 40
0.75
 40
0.75
 40
1.0
 40
1.0
 40
1.0
 40
1.0
 10
716.4277807435692
 20
369.7231983496142
 30
0.0
 10
716.900514226061
 20
369.7542328467422
 30
0.0
 10
717.433697023199
 20
369.7930831686024
 30
0.0
 10
718.6124189646254
 20
369.8922730613398
 30
0.0
 10
719.2419737138869
 20
369.9512845143274
 30
0.0
 10
720.243880527974
 20
370.0575869349937
 30
0.0
 10
720.5880495420162
 20
370.0960564431267
 30
0.0
 10
721.2942775881904
 20
370.1794857508181
 30
0.0
 10
721.6506031116946
 20
370.2237652983739
 30
0.0
 10
722.7287353387821
 20
370.3646097642535
 30
0.0
 10
723.4595793222543
 20
370.4691570560931
 30
0.0
 10
724.2027326111507
 20
370.5853910911608
 30
0.0
  0
LWPOLYLINE
  5
9A
330
1F
100
AcDbEntity
  8
0
  6
Continuous
 62
     7
370
    15
100
AcDbPolyline
 90
        9
 70
   128
 43
0.0
 10
724.5610862133
 20
367.6068664663
 10
724.5542000142
 20
367.6641018265
 10
724.5338077751
 20
367.8336025351
 10
724.5006936696
 20
368.1088418835
 10
724.4561261592
 20
368.4792549484
 10
724.4018226025
 20
368.930611121
 10
724.3398691622
 20
369.4455654495
 10
724.2726444361
 20
370.0043142908
 10
724.2027319131
 20
370.5853850716
  0
LINE
  5
9B
330
1F
100
AcDbEntity
  8
0
  6
Continuous
 62
     7
370
    15
100
AcDbLine
 10
724.2027319131
 20
389.064493882
 30
0.0
 11
724.2027319131
 21
370.5853850716
 31
0.0
  0
LINE
  5
9C
330
1F
100
AcDbEntity
  8
0
  6
Continuous
 62
     7
370
    15
100
AcDbLine
 10
689.2154499051
 20
642.9091424816
 30
0.0
 11
689.2154499051
 21
661.3882512921
 31
0.0
  0
SPLINE
  5
9D
330
1F
100
AcDbEntity
  8
0
  6
Continuous
 62
     7
370
    15
100
AcDbSpline
210
0.0
220
0.0
230
1.0
 70
     8
 71
     3
 72
    16
 73
    12
 74
     0
 42
0.00000001
 43
0.00000001
 40
0.0
 40
0.0
 40
0.0
 40
0.0
 40
0.2500000000000006
 40
0.2500000000000006
 40
0.5000000000000011
 40
0.5000000000000011
 40
0.6250000000000008
 40
0.6250000000000008
 40
0.7500000000000006
 40
0.7500000000000006
 40
1.0
 40
1.0
 40
1.0
 40
1.0
 10
696.9904010746143
 20
662.250438014024
 30
0.0
 10
696.5176675921225
 20
662.2194035168958
 30
0.0
 10
695.9844847949844
 20
662.1805531950357
 30
0.0
 10
694.8057628535581
 20
662.0813633022983
 30
0.0
 10
694.1762081042966
 20
662.0223518493107
 30
0.0
 10
693.1743012902094
 20
661.9160494286443
 30
0.0
 10
692.8301322761673
 20
661.8775799205114
 30
0.0
 10
692.1239042299931
 20
661.7941506128199
 30
0.0
 10
691.7675787064888
 20
661.7498710652641
 30
0.0
 10
690.6894464794013
 20
661.6090265993845
 30
0.0
 10
689.9586024959292
 20
661.504479307545
 30
0.0
 10
689.2154492070327
 20
661.3882452724772
 30
0.0
  0
SPLINE
  5
9E
330
1F
100
AcDbEntity
  8
0
  6
Continuous
 62
     7
370
    15
100
AcDbSpline
210
0.0
220
0.0
230
1.0
 70
     8
 71
     3
 72
    12
 73
     8
 74
     0
 42
0.00000001
 43
0.00000001
 40
0.0
 40
0.0
 40
0.0
 40
0.0
 40
0.5000000000000016
 40
0.5000000000000016
 40
0.7500000000000008
 40
0.7500000000000008
 40
1.0
 40
1.0
 40
1.0
 40
1.0
 10
688.8570953312651
 20
664.3667654586975
 30
0.0
 10
689.8197287215743
 20
664.4825825036706
 30
0.0
 10
690.7666589119303
 20
664.5870135491434
 30
0.0
 10
692.164041360364
 20
664.7280808123442
 30
0.0
 10
692.6259651610071
 20
664.7725012315074
 30
0.0
 10
693.5417253529919
 20
664.8563395611487
 30
0.0
 10
693.9924540694944
 20
664.8954640138584
 30
0.0
 10
694.4327258171606
 20
664.931752167939
 30
0.0
  0
LWPOLYLINE
  5
9F
330
1F
100
AcDbEntity
  8
0
  6
Continuous
 62
     7
370
    15
100
AcDbPolyline
 90
        9
 70
   128
 43
0.0
 10
688.8570956049
 20
664.3667698973
 10
688.863981804
 20
664.3095345371
 10
688.8843740431
 20
664.1400338286
 10
688.9174881485
 20
663.8647944802
 10
688.962055659
 20
663.4943814152
 10
689.0163592157
 20
663.0430252426
 10
689.078312656
 20
662.5280709141
 10
689.1455373821
 20
661.9693220728
 10
689.2154499051
 20
661.3882512921
  0
ARC
  5
A0
330
1F
100
AcDbEntity
  8
0
  6
Continuous
 62
     7
370
    15
100
AcDbCircle
 10
706.7090909091
 20
515.9868181818
 30
0.0
 40
149.4500000000001
100
AcDbArc
 50
276.8604361457
 51
83.1395638543
  0
ARC
  5
A1
330
1F
100
AcDbEntity
  8
0
  6
Continuous
 62
     7
370
    15
100
AcDbCircle
 10
706.7090909091
 20
515.9868181818
 30
0.0
 40
146.45
100
AcDbArc
 50
276.8604361457
 51
83.1395638543
  0
ARC
  5
A2
330
1F
100
AcDbEntity
  8
0
  6
Continuous
 62
     7
370
    15
100
AcDbCircle
 10
706.7090909091
 20
515.9868181818
 30
0.0
 40
149.45
100
AcDbArc
 50
96.8604361457
 51
263.1395638543
  0
ARC
  5
A3
330
1F
100
AcDbEntity
  8
0
  6
Continuous
 62
     7
370
    15
100
AcDbCircle
 10
706.7090909091
 20
515.9868181818
 30
0.0
 40
146.45
100
AcDbArc
 50
96.8604361457
 51
263.1395638543
  0
CIRCLE
  5
A4
330
1F
100
AcDbEntity
  8
0
  6
Continuous
 62
     7
370
    15
100
AcDbCircle
 10
637.8260730834
 20
682.2851340339
 30
0.0
 40
5.5
  0
CIRCLE
  5
A5
330
1F
100
AcDbEntity
  8
0
  6
Continuous
 62
     7
370
    15
100
AcDbCircle
 10
775.5921087348
 20
682.2851340339
 30
0.0
 40
5.499999999999964
  0
CIRCLE
  5
A6
330
1F
100
AcDbEntity
  8
0
  6
Continuous
 62
     7
370
    15
100
AcDbCircle
 10
873.0074067611
 20
584.8698360075
 30
0.0
 40
5.5
  0
CIRCLE
  5
A7
330
1F
100
AcDbEntity
  8
0
  6
Continuous
 62
     7
370
    15
100
AcDbCircle
 10
873.0074067611
 20
447.1038003561
 30
0.0
 40
5.499999999999964
  0
CIRCLE
  5
A8
330
1F
100
AcDbEntity
  8
0
  6
Continuous
 62
     7
370
    15
100
AcDbCircle
 10
775.5921087348
 20
349.6885023298
 30
0.0
 40
5.5
  0
CIRCLE
  5
A9
330
1F
100
AcDbEntity
  8
0
  6
Continuous
 62
     7
370
    15
100
AcDbCircle
 10
637.8260730834
 20
349.6885023298
 30
0.0
 40
5.500000000000004
  0
CIRCLE
  5
AA
330
1F
100
AcDbEntity
  8
0
  6
Continuous
 62
     7
370
    15
100
AcDbCircle
 10
540.4107750571
 20
447.1038003561
 30
0.0
 40
5.500000000000114
  0
CIRCLE
  5
AB
330
1F
100
AcDbEntity
  8
0
  6
Continuous
 62
     7
370
    15
100
AcDbCircle
 10
540.4107750571
 20
584.8698360075
 30
0.0
 40
5.500000000000044
  0
CIRCLE
  5
AC
330
1F
100
AcDbEntity
  8
0
  6
Continuous
 62
     7
370
    15
100
AcDbCircle
 10
706.7090909091
 20
515.9868181818
 30
0.0
 40
150.4999999999992
  0
CIRCLE
  5
AD
330
1F
100
AcDbEntity
  8
0
  6
Continuous
 62
     7
370
    15
100
AcDbCircle
 10
706.7090909091
 20
515.9868181818
 30
0.0
 40
190.0
  0
CIRCLE
  5
AE
330
1F
100
AcDbEntity
  8
0
  6
Continuous
 62
     7
370
    15
100
AcDbCircle
 10
706.7090909091
 20
515.9868181818
 30
0.0
 40
150.0
  0
ARC
  5
AF
330
1F
100
AcDbEntity
  8
0
  6
Continuous
 62
     7
370
    15
100
AcDbCircle
 10
666.7090909091
 20
316.9667186944
 30
0.0
 40
8.0
100
AcDbArc
 50
0.0
 51
78.6358272401
  0
ARC
  5
B0
330
1F
100
AcDbEntity
  8
0
  6
Continuous
 62
     7
370
    15
100
AcDbCircle
 10
706.7090909091
 20
515.9868181818
 30
0.0
 40
195.0
100
AcDbArc
 50
191.3641727599
 51
258.6358272401
  0
LINE
  5
B1
330
1F
100
AcDbEntity
  8
0
  6
Continuous
 62
     7
370
    15
100
AcDbLine
 10
506.7090879289
 20
483.9868166619
 30
0.0
 11
507.688988289
 21
483.9868166619
 31
0.0
  0
LINE
  5
B2
330
1F
100
AcDbEntity
  8
0
  6
Continuous
 62
     7
370
    15
100
AcDbLine
 10
506.7090879289
 20
547.9868197017
 30
0.0
 11
506.7090879289
 21
483.9868166619
 31
0.0
  0
LINE
  5
B3
330
1F
100
AcDbEntity
  8
0
  6
Continuous
 62
     7
370
    15
100
AcDbLine
 10
507.688988289
 20
547.9868197017
 30
0.0
 11
506.7090879289
 21
547.9868197017
 31
0.0
  0
ARC
  5
B4
330
1F
100
AcDbEntity
  8
0
  6
Continuous
 62
     7
370
    15
100
AcDbCircle
 10
706.7090909091
 20
515.9868181818
 30
0.0
 40
195.0000000000001
100
AcDbArc
 50
101.3641727599
 51
168.6358272401
  0
ARC
  5
B5
330
1F
100
AcDbEntity
  8
0
  6
Continuous
 62
     7
370
    15
100
AcDbCircle
 10
666.7090909091
 20
715.0069176693
 30
0.0
 40
8.000000000000098
100
AcDbArc
 50
281.3641727599
 51
0.0
  0
LINE
  5
B6
330
1F
100
AcDbEntity
  8
0
  6
Continuous
 62
     7
370
    15
100
AcDbLine
 10
674.7090893892
 20
715.9868211621
 30
0.0
 11
674.7090893892
 21
715.0069208019
 31
0.0
  0
LINE
  5
B7
330
1F
100
AcDbEntity
  8
0
  6
Continuous
 62
     7
370
    15
100
AcDbLine
 10
738.709092429
 20
715.9868211621
 30
0.0
 11
674.7090893892
 21
715.9868211621
 31
0.0
  0
LINE
  5
B8
330
1F
100
AcDbEntity
  8
0
  6
Continuous
 62
     7
370
    15
100
AcDbLine
 10
738.709092429
 20
715.0069208019
 30
0.0
 11
738.709092429
 21
715.9868211621
 31
0.0
  0
ARC
  5
B9
330
1F
100
AcDbEntity
  8
0
  6
Continuous
 62
     7
370
    15
100
AcDbCircle
 10
905.7291903966
 20
555.9868181818
 30
0.0
 40
8.0
100
AcDbArc
 50
191.3641727599
 51
270.0
  0
LINE
  5
BA
330
1F
100
AcDbEntity
  8
0
  6
Continuous
 62
     7
370
    15
100
AcDbLine
 10
906.7090938893
 20
547.9868197017
 30
0.0
 11
905.7291935292
 21
547.9868197017
 31
0.0
  0
LINE
  5
BB
330
1F
100
AcDbEntity
  8
0
  6
Continuous
 62
     7
370
    15
100
AcDbLine
 10
905.7291935292
 20
483.9868166619
 30
0.0
 11
906.7090938893
 21
483.9868166619
 31
0.0
  0
ARC
  5
BC
330
1F
100
AcDbEntity
  8
0
  6
Continuous
 62
     7
370
    15
100
AcDbCircle
 10
905.7291903966
 20
475.9868181818
 30
0.0
 40
8.0
100
AcDbArc
 50
90.0
 51
168.6358272401
  0
ARC
  5
BD
330
1F
100
AcDbEntity
  8
0
  6
Continuous
 62
     7
370
    15
100
AcDbCircle
 10
706.7090909091
 20
515.9868181818
 30
0.0
 40
195.0
100
AcDbArc
 50
281.3641727599
 51
348.6358272401
  0
ARC
  5
BE
330
1F
100
AcDbEntity
  8
0
  6
Continuous
 62
     7
370
    15
100
AcDbCircle
 10
746.7090909091
 20
316.9667186944
 30
0.0
 40
8.000000000000043
100
AcDbArc
 50
101.3641727599
 51
180.0
  0
LINE
  5
BF
330
1F
100
AcDbEntity
  8
0
  6
Continuous
 62
     7
370
    15
100
AcDbLine
 10
738.709092429
 20
315.9868152016
 30
0.0
 11
738.709092429
 21
316.9667155617
 31
0.0
  0
CIRCLE
  5
C0
330
1F
100
AcDbEntity
  8
0
  6
Continuous
 62
     7
370
    15
100
AcDbCircle
 10
540.4107750571
 20
447.1038003561
 30
0.0
 40
5.0
  0
CIRCLE
  5
C1
330
1F
100
AcDbEntity
  8
0
  6
Continuous
 62
     7
370
    15
100
AcDbCircle
 10
540.4107750571
 20
584.8698360075
 30
0.0
 40
5.000000000000041
  0
LINE
  5
C2
330
1F
100
AcDbEntity
  8
0
  6
Continuous
 62
     7
370
    15
100
AcDbLine
 10
906.7090938893
 20
483.9868166619
 30
0.0
 11
906.7090938893
 21
547.9868197017
 31
0.0
  0
ARC
  5
C3
330
1F
100
AcDbEntity
  8
0
  6
Continuous
 62
     7
370
    15
100
AcDbCircle
 10
507.6889914216
 20
475.9868181818
 30
0.0
 40
8.000000000000043
100
AcDbArc
 50
11.3641727599
 51
90.0
  0
CIRCLE
  5
C4
330
1F
100
AcDbEntity
  8
0
  6
Continuous
 62
     7
370
    15
100
AcDbCircle
 10
873.0074067611
 20
447.1038003561
 30
0.0
 40
4.99999999999992
  0
ARC
  5
C5
330
1F
100
AcDbEntity
  8
0
  6
Continuous
 62
     7
370
    15
100
AcDbCircle
 10
746.7090909091
 20
715.0069176693
 30
0.0
 40
8.0
100
AcDbArc
 50
180.0
 51
258.6358272401
  0
CIRCLE
  5
C6
330
1F
100
AcDbEntity
  8
0
  6
Continuous
 62
     7
370
    15
100
AcDbCircle
 10
637.8260730834
 20
349.6885023298
 30
0.0
 40
5.000000000000041
  0
CIRCLE
  5
C7
330
1F
100
AcDbEntity
  8
0
  6
Continuous
 62
     7
370
    15
100
AcDbCircle
 10
775.5921087348
 20
349.6885023298
 30
0.0
 40
5.0
  0
ARC
  5
C8
330
1F
100
AcDbEntity
  8
0
  6
Continuous
 62
     7
370
    15
100
AcDbCircle
 10
706.7090909091
 20
515.9868181818
 30
0.0
 40
195.0
100
AcDbArc
 50
11.3641727599
 51
78.6358272401
  0
CIRCLE
  5
C9
330
1F
100
AcDbEntity
  8
0
  6
Continuous
 62
     7
370
    15
100
AcDbCircle
 10
637.8260730834
 20
682.2851340339
 30
0.0
 40
5.000000000000114
  0
CIRCLE
  5
CA
330
1F
100
AcDbEntity
  8
0
  6
Continuous
 62
     7
370
    15
100
AcDbCircle
 10
775.5921087348
 20
682.2851340339
 30
0.0
 40
5.000000000000041
  0
LINE
  5
CB
330
1F
100
AcDbEntity
  8
0
  6
Continuous
 62
     7
370
    15
100
AcDbLine
 10
674.7090893892
 20
316.9667155617
 30
0.0
 11
674.7090893892
 21
315.9868152016
 31
0.0
  0
LINE
  5
CC
330
1F
100
AcDbEntity
  8
0
  6
Continuous
 62
     7
370
    15
100
AcDbLine
 10
674.7090893892
 20
315.9868152016
 30
0.0
 11
738.709092429
 21
315.9868152016
 31
0.0
  0
ARC
  5
CD
330
1F
100
AcDbEntity
  8
0
  6
Continuous
 62
     7
370
    15
100
AcDbCircle
 10
507.6889914216
 20
555.9868181818
 30
0.0
 40
7.999999999999909
100
AcDbArc
 50
270.0
 51
348.6358272401
  0
CIRCLE
  5
CE
330
1F
100
AcDbEntity
  8
0
  6
Continuous
 62
     7
370
    15
100
AcDbCircle
 10
873.0074067611
 20
584.8698360075
 30
0.0
 40
5.0
  0
LINE
  5
CF
330
1F
100
AcDbEntity
  8
0
  6
Continuous
 62
     7
370
    15
100
AcDbLine
 10
680.4626605568
 20
790.5868173712
 30
0.0
 11
680.4639848975
 21
790.5868173712
 31
0.0
  0
LINE
  5
D0
330
1F
100
AcDbEntity
  8
0
  6
Continuous
 62
     7
370
    15
100
AcDbLine
 10
680.4639848975
 20
786.586809265
 30
0.0
 11
680.4639848975
 21
790.5868173712
 31
0.0
  0
LINE
  5
D1
330
1F
100
AcDbEntity
  8
0
  6
Continuous
 62
     7
370
    15
100
AcDbLine
 10
660.8341972438
 20
786.586809265
 30
0.0
 11
660.8341972438
 21
790.5868173712
 31
0.0
  0
LINE
  5
D2
330
1F
100
AcDbEntity
  8
0
  6
Continuous
 62
     7
370
    15
100
AcDbLine
 10
660.8341972438
 20
790.5868173712
 30
0.0
 11
660.8355234471
 21
790.5868173712
 31
0.0
  0
SPLINE
  5
D3
330
1F
100
AcDbEntity
  8
0
  6
Continuous
 62
     7
370
    15
100
AcDbSpline
210
0.0
220
0.0
230
1.0
 70
     8
 71
     3
 72
    19
 73
    15
 74
     0
 42
0.00000001
 43
0.00000001
 40
0.0
 40
0.0
 40
0.0
 40
0.0
 40
0.0172328795388679
 40
0.0470429837869563
 40
0.0896567163707168
 40
0.1563144865403485
 40
0.2853317568917341
 40
0.500076167406868
 40
0.7435222732192165
 40
0.865988609995364
 40
0.9101179999789278
 40
0.9545662730875298
 40
0.9863564958547808
 40
0.9999999999999999
 40
0.9999999999999999
 40
0.9999999999999999
 40
0.9999999999999999
 10
732.9541373160752
 20
786.5868092649642
 30
0.0
 10
732.9560672503125
 20
786.521496520247
 30
0.0
 10
732.9613356597407
 20
786.3432032533619
 30
0.0
 10
733.0243010230798
 20
786.0201632713062
 30
0.0
 10
733.1939234508068
 20
785.6070537999228
 30
0.0
 10
733.584770896954
 20
785.1273693728741
 30
0.0
 10
734.3488600837915
 20
784.7550079484158
 30
0.0
 10
735.4608026790627
 20
784.6770053811547
 30
0.0
 10
736.5625553305954
 20
784.7555550078673
 30
0.0
 10
737.3200361803598
 20
785.2116966795581
 30
0.0
 10
737.6489827982728
 20
785.6756950292955
 30
0.0
 10
737.7954461115091
 20
786.0350429926922
 30
0.0
 10
737.8542484171625
 20
786.3630419421867
 30
0.0
 10
737.8583150601188
 20
786.5351316500655
 30
0.0
 10
737.8595362511547
 20
786.5868092649642
 30
0.0
  0
SPLINE
  5
D4
330
1F
100
AcDbEntity
  8
0
  6
Continuous
 62
     7
370
    15
100
AcDbSpline
210
0.0
220
0.0
230
1.0
 70
     8
 71
     3
 72
    19
 73
    15
 74
     0
 42
0.00000001
 43
0.00000001
 40
0.0
 40
0.0
 40
0.0
 40
0.0
 40
0.0311203946193035
 40
0.0621218636468966
 40
0.1119861058187985
 40
0.19608842990148
 40
0.4345868918928857
 40
0.5975165691695049
 40
0.755945829260692
 40
0.8510495616957786
 40
0.9092796864747476
 40
0.9508547598280559
 40
0.9834139602881513
 40
1.0
 40
1.0
 40
1.0
 40
1.0
 10
737.8595362511547
 20
786.5868092649642
 30
0.0
 10
737.8720745948368
 20
786.4685050483806
 30
0.0
 10
737.897103367322
 20
786.2323487109894
 30
0.0
 10
738.112460931853
 20
785.8560619772055
 30
0.0
 10
738.5745110558748
 20
785.4234049421758
 30
0.0
 10
739.8824645346875
 20
784.8372972823712
 30
0.0
 10
741.7469695051833
 20
784.6993179328616
 30
0.0
 10
743.8596841354259
 20
784.7060438294488
 30
0.0
 10
745.4372044266078
 20
784.8605766878478
 30
0.0
 10
746.5730295359477
 20
785.2184236638647
 30
0.0
 10
747.2024657685363
 20
785.6221787437582
 30
0.0
 10
747.5293027085273
 20
786.0108554529444
 30
0.0
 10
747.6602515788919
 20
786.3377176502516
 30
0.0
 10
747.6708983602989
 20
786.5239557282491
 30
0.0
 10
747.674491545287
 20
786.5868092649644
 30
0.0
  0
SPLINE
  5
D5
330
1F
100
AcDbEntity
  8
0
  6
Continuous
 62
     7
370
    15
100
AcDbSpline
210
0.0
220
0.0
230
1.0
 70
     8
 71
     3
 72
    19
 73
    15
 74
     0
 42
0.00000001
 43
0.00000001
 40
0.0
 40
0.0
 40
0.0
 40
0.0
 40
0.0311203990157645
 40
0.0621218400124734
 40
0.1119861991496991
 40
0.1960883415619977
 40
0.4345868703501271
 40
0.5975164554780643
 40
0.755945781527116
 40
0.8510494906682452
 40
0.9092798028585103
 40
0.9508548193962387
 40
0.9834139893742789
 40
1.0
 40
1.0
 40
1.0
 40
1.0
 10
747.674491545287
 20
786.5868092649644
 30
0.0
 10
747.6807635669464
 20
786.4685050927332
 30
0.0
 10
747.6932836354033
 20
786.2323489670862
 30
0.0
 10
747.8010049486711
 20
785.8560611508925
 30
0.0
 10
748.0321313563089
 20
785.4234064898101
 30
0.0
 10
748.6863835652621
 20
784.8372951498811
 30
0.0
 10
749.6190289987031
 20
784.6993183613702
 30
0.0
 10
750.6758347412444
 20
784.7060439869877
 30
0.0
 10
751.4649264325706
 20
784.860576008382
 30
0.0
 10
752.0330842449985
 20
785.2184249021856
 30
0.0
 10
752.3479343985491
 20
785.6221775802246
 30
0.0
 10
752.5114192685654
 20
786.0108556499615
 30
0.0
 10
752.5769242172884
 20
786.3377175046329
 30
0.0
 10
752.5822475926918
 20
786.5239557169552
 30
0.0
 10
752.5840441790493
 20
786.5868092649644
 30
0.0
  0
LINE
  5
D6
330
1F
100
AcDbEntity
  8
0
  6
Continuous
 62
     7
370
    15
100
AcDbLine
 10
734.9541357813
 20
784.5868052118
 30
0.0
 11
750.5840438512
 21
784.5868052118
 31
0.0
  0
LINE
  5
D7
330
1F
100
AcDbEntity
  8
0
  6
Continuous
 62
     7
370
    15
100
AcDbLine
 10
742.7670138982
 20
790.5868173712
 30
0.0
 11
747.6744915453
 21
790.5868173712
 31
0.0
  0
LINE
  5
D8
330
1F
100
AcDbEntity
  8
0
  6
Continuous
 62
     7
370
    15
100
AcDbLine
 10
747.6744915453
 20
786.586809265
 30
0.0
 11
747.6744915453
 21
790.5868173712
 31
0.0
  0
LINE
  5
D9
330
1F
100
AcDbEntity
  8
0
  6
Continuous
 62
     7
370
    15
100
AcDbLine
 10
737.8595362512
 20
786.586809265
 30
0.0
 11
737.8595362512
 21
790.5868173712
 31
0.0
  0
LINE
  5
DA
330
1F
100
AcDbEntity
  8
0
  6
Continuous
 62
     7
370
    15
100
AcDbLine
 10
737.8595362512
 20
790.5868173712
 30
0.0
 11
742.7670138982
 21
790.5868173712
 31
0.0
  0
LINE
  5
DB
330
1F
100
AcDbEntity
  8
0
  6
Continuous
 62
     7
370
    15
100
AcDbLine
 10
750.1292678622
 20
790.5868173712
 30
0.0
 11
752.584044179
 21
790.5868173712
 31
0.0
  0
LINE
  5
DC
330
1F
100
AcDbEntity
  8
0
  6
Continuous
 62
     7
370
    15
100
AcDbLine
 10
752.584044179
 20
786.586809265
 30
0.0
 11
752.584044179
 21
790.5868173712
 31
0.0
  0
LINE
  5
DD
330
1F
100
AcDbEntity
  8
0
  6
Continuous
 62
     7
370
    15
100
AcDbLine
 10
747.6744915453
 20
790.5868173712
 30
0.0
 11
750.1292678622
 21
790.5868173712
 31
0.0
  0
LINE
  5
DE
330
1F
100
AcDbEntity
  8
0
  6
Continuous
 62
     7
370
    15
100
AcDbLine
 10
732.9541373161
 20
786.586809265
 30
0.0
 11
732.9541373161
 21
790.5868173712
 31
0.0
  0
LINE
  5
DF
330
1F
100
AcDbEntity
  8
0
  6
Continuous
 62
     7
370
    15
100
AcDbLine
 10
732.9541373161
 20
790.5868173712
 30
0.0
 11
735.4068367836
 21
790.5868173712
 31
0.0
  0
LINE
  5
E0
330
1F
100
AcDbEntity
  8
0
  6
Continuous
 62
     7
370
    15
100
AcDbLine
 10
735.4068367836
 20
790.5868173712
 30
0.0
 11
737.8595362512
 21
790.5868173712
 31
0.0
  0
SPLINE
  5
E1
330
1F
100
AcDbEntity
  8
0
  6
Continuous
 62
     7
370
    15
100
AcDbSpline
210
0.0
220
0.0
230
1.0
 70
     8
 71
     3
 72
    10
 73
     6
 74
     0
 42
0.00000001
 43
0.00000001
 40
0.0
 40
0.0
 40
0.0
 40
0.0
 40
0.1223962495863937
 40
0.7038175283979844
 40
1.0
 40
1.0
 40
1.0
 40
1.0
 10
660.9305816796692
 20
785.9924019449414
 30
0.0
 10
660.9224050520972
 20
786.0121907273938
 30
0.0
 10
660.8753868319494
 20
786.125982547018
 30
0.0
 10
660.843531762355
 20
786.3394603464806
 30
0.0
 10
660.8375441920889
 20
786.5243955028578
 30
0.0
 10
660.8355234471234
 20
786.5868092649639
 30
0.0
  0
SPLINE
  5
E2
330
1F
100
AcDbEntity
  8
0
  6
Continuous
 62
     7
370
    15
100
AcDbSpline
210
0.0
220
0.0
230
1.0
 70
     8
 71
     3
 72
    19
 73
    15
 74
     0
 42
0.00000001
 43
0.00000001
 40
0.0
 40
0.0
 40
0.0
 40
0.0
 40
0.0172328732969355
 40
0.0470430241295047
 40
0.0896566508666857
 40
0.1563144121683959
 40
0.2853320652968706
 40
0.5000764556204508
 40
0.7435223139280369
 40
0.8659886587231144
 40
0.9101180121830126
 40
0.9545662535843951
 40
0.9863564982222683
 40
1.0
 40
1.0
 40
1.0
 40
1.0
 10
660.8355234471234
 20
786.5868092649639
 30
0.0
 10
660.8375092012668
 20
786.5214964875398
 30
0.0
 10
660.8429299966549
 20
786.3432029138919
 30
0.0
 10
660.9077491359196
 20
786.020164294674
 30
0.0
 10
661.0823594175982
 20
785.6070528760897
 30
0.0
 10
661.4846956651127
 20
785.1273689080838
 30
0.0
 10
662.2712521525326
 20
784.7550087454545
 30
0.0
 10
663.4158832878916
 20
784.6770049858138
 30
0.0
 10
664.5500248944464
 20
784.7555554748653
 30
0.0
 10
665.3297795590667
 20
785.2116964576102
 30
0.0
 10
665.6683961124097
 20
785.6756949843457
 30
0.0
 10
665.8191617405765
 20
786.0350433762408
 30
0.0
 10
665.8796944007591
 20
786.363041799632
 30
0.0
 10
665.8838820251688
 20
786.5351316411
 30
0.0
 10
665.8851395455273
 20
786.586809264964
 30
0.0
  0
SPLINE
  5
E3
330
1F
100
AcDbEntity
  8
0
  6
Continuous
 62
     7
370
    15
100
AcDbSpline
210
0.0
220
0.0
230
1.0
 70
     8
 71
     3
 72
    19
 73
    15
 74
     0
 42
0.00000001
 43
0.00000001
 40
0.0
 40
0.0
 40
0.0
 40
0.0
 40
0.0311203538636448
 40
0.0621218618092428
 40
0.1119861840252524
 40
0.1960883330829318
 40
0.4345866335460526
 40
0.5975163301096199
 40
0.7559457823457326
 40
0.8510494016572114
 40
0.9092797216800659
 40
0.9508547435872692
 40
0.9834139870432091
 40
1.0
 40
1.0
 40
1.0
 40
1.0
 10
665.8851395455273
 20
786.586809264964
 30
0.0
 10
665.897675003935
 20
786.4685049817035
 30
0.0
 10
665.9226980489276
 20
786.2323482089254
 30
0.0
 10
666.1380277790948
 20
785.8560619797681
 30
0.0
 10
666.6000125646405
 20
785.4234059362941
 30
0.0
 10
667.9077795383454
 20
784.8372960475585
 30
0.0
 10
669.7720209997212
 20
784.6993180175139
 30
0.0
 10
671.8844372741644
 20
784.706044204602
 30
0.0
 10
673.4617364472886
 20
784.8605754854651
 30
0.0
 10
674.5974003407948
 20
785.2184252587031
 30
0.0
 10
675.2267509712691
 20
785.6221774084332
 30
0.0
 10
675.5535390402783
 20
786.0108562385349
 30
0.0
 10
675.6844742061494
 20
786.3377171350653
 30
0.0
 10
675.6951157564596
 20
786.5239556895871
 30
0.0
 10
675.6987071690234
 20
786.586809264964
 30
0.0
  0
SPLINE
  5
E4
330
1F
100
AcDbEntity
  8
0
  6
Continuous
 62
     7
370
    15
100
AcDbSpline
210
0.0
220
0.0
230
1.0
 70
     8
 71
     3
 72
    19
 73
    15
 74
     0
 42
0.00000001
 43
0.00000001
 40
0.0
 40
0.0
 40
0.0
 40
0.0
 40
0.0311203882399305
 40
0.0621217209952444
 40
0.1119860559570321
 40
0.1960885534793199
 40
0.4345867733176098
 40
0.5975165254375507
 40
0.7559456460131428
 40
0.8510495849078026
 40
0.9092797379281266
 40
0.9508547515628298
 40
0.9834139805090238
 40
1.0
 40
1.0
 40
1.0
 40
1.0
 10
675.6987071690234
 20
786.586809264964
 30
0.0
 10
675.7047933451371
 20
786.4685051889409
 30
0.0
 10
675.7169424138298
 20
786.2323496260136
 30
0.0
 10
675.8214703127973
 20
785.8560603560511
 30
0.0
 10
676.0457391221445
 20
785.4234054989186
 30
0.0
 10
676.6805905718045
 20
784.8372978833664
 30
0.0
 10
677.5855763862485
 20
784.6993178508643
 30
0.0
 10
678.6110400853519
 20
784.7060436128281
 30
0.0
 10
679.3767328140208
 20
784.8605773434008
 30
0.0
 10
679.9280357017561
 20
785.218423480068
 30
0.0
 10
680.2335492581752
 20
785.6221781253967
 30
0.0
 10
680.3921894641927
 20
786.0108561020058
 30
0.0
 10
680.4557501712225
 20
786.3377172809327
 30
0.0
 10
680.4609168540626
 20
786.5239557002541
 30
0.0
 10
680.4626605567606
 20
786.586809264964
 30
0.0
  0
LINE
  5
E5
330
1F
100
AcDbEntity
  8
0
  6
Continuous
 62
     7
370
    15
100
AcDbLine
 10
662.834137967
 20
784.5868052118
 30
0.0
 11
678.4640460369
 21
784.5868052118
 31
0.0
  0
LINE
  5
E6
330
1F
100
AcDbEntity
  8
0
  6
Continuous
 62
     7
370
    15
100
AcDbLine
 10
670.7919242886
 20
790.5868173712
 30
0.0
 11
675.698707169
 21
790.5868173712
 31
0.0
  0
LINE
  5
E7
330
1F
100
AcDbEntity
  8
0
  6
Continuous
 62
     7
370
    15
100
AcDbLine
 10
675.698707169
 20
786.586809265
 30
0.0
 11
675.698707169
 21
790.5868173712
 31
0.0
  0
LINE
  5
E8
330
1F
100
AcDbEntity
  8
0
  6
Continuous
 62
     7
370
    15
100
AcDbLine
 10
665.8851395455
 20
786.586809265
 30
0.0
 11
665.8851395455
 21
790.5868173712
 31
0.0
  0
LINE
  5
E9
330
1F
100
AcDbEntity
  8
0
  6
Continuous
 62
     7
370
    15
100
AcDbLine
 10
665.8851395455
 20
790.5868173712
 30
0.0
 11
670.7919242886
 21
790.5868173712
 31
0.0
  0
LINE
  5
EA
330
1F
100
AcDbEntity
  8
0
  6
Continuous
 62
     7
370
    15
100
AcDbLine
 10
678.0806838629
 20
790.5868173712
 30
0.0
 11
680.4626605568
 21
790.5868173712
 31
0.0
  0
LINE
  5
EB
330
1F
100
AcDbEntity
  8
0
  6
Continuous
 62
     7
370
    15
100
AcDbLine
 10
680.4626605568
 20
786.586809265
 30
0.0
 11
680.4626605568
 21
790.5868173712
 31
0.0
  0
LINE
  5
EC
330
1F
100
AcDbEntity
  8
0
  6
Continuous
 62
     7
370
    15
100
AcDbLine
 10
675.698707169
 20
790.5868173712
 30
0.0
 11
678.0806838629
 21
790.5868173712
 31
0.0
  0
LINE
  5
ED
330
1F
100
AcDbEntity
  8
0
  6
Continuous
 62
     7
370
    15
100
AcDbLine
 10
660.8355234471
 20
786.586809265
 30
0.0
 11
660.8355234471
 21
790.5868173712
 31
0.0
  0
LINE
  5
EE
330
1F
100
AcDbEntity
  8
0
  6
Continuous
 62
     7
370
    15
100
AcDbLine
 10
660.8355234471
 20
790.5868173712
 30
0.0
 11
663.3603314963
 21
790.5868173712
 31
0.0
  0
LINE
  5
EF
330
1F
100
AcDbEntity
  8
0
  6
Continuous
 62
     7
370
    15
100
AcDbLine
 10
663.3603314963
 20
790.5868173712
 30
0.0
 11
665.8851395455
 21
790.5868173712
 31
0.0
  0
ARC
  5
F0
330
1F
100
AcDbEntity
  8
0
  6
Continuous
 62
     7
370
    15
100
AcDbCircle
 10
658.7090909091
 20
727.9868181818
 30
0.0
 40
12.0
100
AcDbArc
 50
180.0
 51
270.0
  0
LINE
  5
F1
330
1F
100
AcDbEntity
  8
0
  6
Continuous
 62
     7
370
    15
100
AcDbLine
 10
646.7090922502
 20
783.9868248575
 30
0.0
 11
646.7090922502
 21
727.9868156784
 31
0.0
  0
ARC
  5
F2
330
1F
100
AcDbEntity
  8
0
  6
Continuous
 62
     7
370
    15
100
AcDbCircle
 10
658.7090909091
 20
783.9868181818
 30
0.0
 40
12.00000000000011
100
AcDbArc
 50
90.0
 51
180.0
  0
LINE
  5
F3
330
1F
100
AcDbEntity
  8
0
  6
Continuous
 62
     7
370
    15
100
AcDbLine
 10
766.709089568
 20
783.9868248575
 30
0.0
 11
766.709089568
 21
727.9868156784
 31
0.0
  0
ARC
  5
F4
330
1F
100
AcDbEntity
  8
0
  6
Continuous
 62
     7
370
    15
100
AcDbCircle
 10
754.7090909091
 20
727.9868181818
 30
0.0
 40
12.00000000000011
100
AcDbArc
 50
270.0
 51
0.0
  0
LINE
  5
F5
330
1F
100
AcDbEntity
  8
0
  6
Continuous
 62
     7
370
    15
100
AcDbLine
 10
754.7090913263
 20
715.9868211621
 30
0.0
 11
658.7090904919
 21
715.9868211621
 31
0.0
  0
LINE
  5
F6
330
1F
100
AcDbEntity
  8
0
  6
Continuous
 62
     7
370
    15
100
AcDbLine
 10
754.7090913263
 20
720.9868163937
 30
0.0
 11
658.7090904919
 21
720.9868163937
 31
0.0
  0
ARC
  5
F7
330
1F
100
AcDbEntity
  8
0
  6
Continuous
 62
     7
370
    15
100
AcDbCircle
 10
754.7090909091
 20
727.9868181818
 30
0.0
 40
7.0
100
AcDbArc
 50
270.0
 51
0.0
  0
LINE
  5
F8
330
1F
100
AcDbEntity
  8
0
  6
Continuous
 62
     7
370
    15
100
AcDbLine
 10
761.7090906111
 20
783.9868248575
 30
0.0
 11
761.7090906111
 21
727.9868156784
 31
0.0
  0
ARC
  5
F9
330
1F
100
AcDbEntity
  8
0
  6
Continuous
 62
     7
370
    15
100
AcDbCircle
 10
754.7090909091
 20
783.9868181818
 30
0.0
 40
7.000000000000114
100
AcDbArc
 50
0.0
 51
90.0
  0
LINE
  5
FA
330
1F
100
AcDbEntity
  8
0
  6
Continuous
 62
     7
370
    15
100
AcDbLine
 10
658.7090904919
 20
790.9868241423
 30
0.0
 11
754.7090913263
 21
790.9868241423
 31
0.0
  0
ARC
  5
FB
330
1F
100
AcDbEntity
  8
0
  6
Continuous
 62
     7
370
    15
100
AcDbCircle
 10
658.7090909091
 20
783.9868181818
 30
0.0
 40
7.000000000000114
100
AcDbArc
 50
90.0
 51
180.0
  0
LINE
  5
FC
330
1F
100
AcDbEntity
  8
0
  6
Continuous
 62
     7
370
    15
100
AcDbLine
 10
651.7090912071
 20
727.9868156784
 30
0.0
 11
651.7090912071
 21
783.9868248575
 31
0.0
  0
ARC
  5
FD
330
1F
100
AcDbEntity
  8
0
  6
Continuous
 62
     7
370
    15
100
AcDbCircle
 10
658.7090909091
 20
727.9868181818
 30
0.0
 40
7.0
100
AcDbArc
 50
180.0
 51
270.0
  0
ARC
  5
FE
330
1F
100
AcDbEntity
  8
0
  6
Continuous
 62
     7
370
    15
100
AcDbCircle
 10
754.7090909091
 20
783.9868181818
 30
0.0
 40
12.00000000000011
100
AcDbArc
 50
0.0
 51
90.0
  0
LINE
  5
FF
330
1F
100
AcDbEntity
  8
0
  6
Continuous
 62
     7
370
    15
100
AcDbLine
 10
754.7090913263
 20
795.9868193739
 30
0.0
 11
658.7090904919
 21
795.9868193739
 31
0.0
  0
CIRCLE
  5
100
330
1F
100
AcDbEntity
  8
0
  6
Continuous
 62
     7
370
    15
100
AcDbCircle
 10
730.7090909091
 20
820.6868181818
 30
0.0
 40
2.0
  0
CIRCLE
  5
101
330
1F
100
AcDbEntity
  8
0
  6
Continuous
 62
     7
370
    15
100
AcDbCircle
 10
706.7090909091
 20
834.9868181818
 30
0.0
 40
4.299999999999955
  0
LINE
  5
102
330
1F
100
AcDbEntity
  8
0
  6
Continuous
 62
     7
370
    15
100
AcDbLine
 10
594.2090938893
 20
857.0378304594
 30
0.0
 11
819.2090879289
 21
857.0378304594
 31
0.0
  0
LINE
  5
103
330
1F
100
AcDbEntity
  8
0
  6
Continuous
 62
     7
370
    15
100
AcDbLine
 10
819.2090879289
 20
816.735822069
 30
0.0
 11
594.2090938893
 21
816.735822069
 31
0.0
  0
CIRCLE
  5
104
330
1F
100
AcDbEntity
  8
0
  6
Continuous
 62
     7
370
    15
100
AcDbCircle
 10
730.7090909091
 20
838.3868181818
 30
0.0
 40
4.299999999999955
  0
CIRCLE
  5
105
330
1F
100
AcDbEntity
  8
0
  6
Continuous
 62
     7
370
    15
100
AcDbCircle
 10
718.7090909091
 20
820.6868181818
 30
0.0
 40
2.0
  0
CIRCLE
  5
106
330
1F
100
AcDbEntity
  8
0
  6
Continuous
 62
     7
370
    15
100
AcDbCircle
 10
718.7090909091
 20
852.6868181818
 30
0.0
 40
2.0
  0
CIRCLE
  5
107
330
1F
100
AcDbEntity
  8
0
  6
Continuous
 62
     7
370
    15
100
AcDbCircle
 10
706.7090909091
 20
852.6868181818
 30
0.0
 40
2.0
  0
LINE
  5
108
330
1F
100
AcDbEntity
  8
0
  6
Continuous
 62
     7
370
    15
100
AcDbLine
 10
819.2090879289
 20
857.0378304594
 30
0.0
 11
819.2090879289
 21
816.735822069
 31
0.0
  0
LINE
  5
109
330
1F
100
AcDbEntity
  8
0
  6
Continuous
 62
     7
370
    15
100
AcDbLine
 10
594.2090938893
 20
857.0378304594
 30
0.0
 11
594.2090938893
 21
816.735822069
 31
0.0
  0
LINE
  5
10A
330
1F
100
AcDbEntity
  8
0
  6
Continuous
 62
     7
370
    15
100
AcDbLine
 10
819.2090879289
 20
860.0264073485
 30
0.0
 11
594.2090938893
 21
860.0264073485
 31
0.0
  0
LINE
  5
10B
330
1F
100
AcDbEntity
  8
0
  6
Continuous
 62
     7
370
    15
100
AcDbLine
 10
819.2090879289
 20
860.0264073485
 30
0.0
 11
819.2090879289
 21
857.0378304594
 31
0.0
  0
LINE
  5
10C
330
1F
100
AcDbEntity
  8
0
  6
Continuous
 62
     7
370
    15
100
AcDbLine
 10
594.2090938893
 20
860.0264073485
 30
0.0
 11
594.2090938893
 21
857.0378304594
 31
0.0
  0
LINE
  5
10D
330
1F
100
AcDbEntity
  8
0
  6
Continuous
 62
     7
370
    15
100
AcDbLine
 10
594.2090938893
 20
813.7472153776
 30
0.0
 11
819.2090879289
 21
813.7472153776
 31
0.0
  0
LINE
  5
10E
330
1F
100
AcDbEntity
  8
0
  6
Continuous
 62
     7
370
    15
100
AcDbLine
 10
819.2090879289
 20
816.735822069
 30
0.0
 11
819.2090879289
 21
813.7472153776
 31
0.0
  0
LINE
  5
10F
330
1F
100
AcDbEntity
  8
0
  6
Continuous
 62
     7
370
    15
100
AcDbLine
 10
594.2090938893
 20
816.735822069
 30
0.0
 11
594.2090938893
 21
813.7472153776
 31
0.0
  0
LINE
  5
110
330
1F
100
AcDbEntity
  8
0
  6
Continuous
 62
     7
370
    15
100
AcDbLine
 10
819.2090879289
 20
860.134887802
 30
0.0
 11
594.2090938893
 21
860.134887802
 31
0.0
  0
LINE
  5
111
330
1F
100
AcDbEntity
  8
0
  6
Continuous
 62
     7
370
    15
100
AcDbLine
 10
819.2090879289
 20
860.0264073485
 30
0.0
 11
819.2090879289
 21
860.134887802
 31
0.0
  0
LINE
  5
112
330
1F
100
AcDbEntity
  8
0
  6
Continuous
 62
     7
370
    15
100
AcDbLine
 10
594.2090938893
 20
860.134887802
 30
0.0
 11
594.2090938893
 21
860.0264073485
 31
0.0
  0
LINE
  5
113
330
1F
100
AcDbEntity
  8
0
  6
Continuous
 62
     7
370
    15
100
AcDbLine
 10
594.2090938893
 20
813.5264397734
 30
0.0
 11
819.2090879289
 21
813.5264397734
 31
0.0
  0
LINE
  5
114
330
1F
100
AcDbEntity
  8
0
  6
Continuous
 62
     7
370
    15
100
AcDbLine
 10
819.2090879289
 20
813.7472153776
 30
0.0
 11
819.2090879289
 21
813.5264397734
 31
0.0
  0
LINE
  5
115
330
1F
100
AcDbEntity
  8
0
  6
Continuous
 62
     7
370
    15
100
AcDbLine
 10
594.2090938893
 20
813.7472153776
 30
0.0
 11
594.2090938893
 21
813.5264397734
 31
0.0
  0
LINE
  5
116
330
1F
100
AcDbEntity
  8
0
  6
Continuous
 62
     7
370
    15
100
AcDbLine
 10
594.2090938893
 20
863.9333129996
 30
0.0
 11
819.2090879289
 21
863.9333129996
 31
0.0
  0
LINE
  5
117
330
1F
100
AcDbEntity
  8
0
  6
Continuous
 62
     7
370
    15
100
AcDbLine
 10
819.2090879289
 20
863.9333129996
 30
0.0
 11
819.2090879289
 21
860.134887802
 31
0.0
  0
LINE
  5
118
330
1F
100
AcDbEntity
  8
0
  6
Continuous
 62
     7
370
    15
100
AcDbLine
 10
594.2090938893
 20
863.9333129996
 30
0.0
 11
594.2090938893
 21
860.134887802
 31
0.0
  0
LINE
  5
119
330
1F
100
AcDbEntity
  8
0
  6
Continuous
 62
     7
370
    15
100
AcDbLine
 10
594.2090938893
 20
809.0024174326
 30
0.0
 11
819.2090879289
 21
809.0024174326
 31
0.0
  0
LINE
  5
11A
330
1F
100
AcDbEntity
  8
0
  6
Continuous
 62
     7
370
    15
100
AcDbLine
 10
819.2090879289
 20
813.5264397734
 30
0.0
 11
819.2090879289
 21
809.0024174326
 31
0.0
  0
LINE
  5
11B
330
1F
100
AcDbEntity
  8
0
  6
Continuous
 62
     7
370
    15
100
AcDbLine
 10
594.2090938893
 20
813.5264397734
 30
0.0
 11
594.2090938893
 21
809.0024174326
 31
0.0
  0
LINE
  5
11C
330
1F
100
AcDbEntity
  8
0
  6
Continuous
 62
     7
370
    15
100
AcDbLine
 10
587.2090946046
 20
879.5455278032
 30
0.0
 11
587.2090946046
 21
842.2005356425
 31
0.0
  0
ARC
  5
11D
330
1F
100
AcDbEntity
  8
0
  6
Continuous
 62
     7
370
    15
100
AcDbCircle
 10
586.7130070705
 20
847.9821794619
 30
0.0
 40
5.802887909997527
100
AcDbArc
 50
254.979364816
 51
274.9041889557
  0
SPLINE
  5
11E
330
1F
100
AcDbEntity
  8
0
  6
Continuous
 62
     7
370
    15
100
AcDbSpline
210
0.0
220
0.0
230
1.0
 70
    24
 71
     3
 72
    12
 73
     8
 74
     0
 42
0.00000001
 43
0.00000001
 40
0.0
 40
0.0
 40
0.0
 40
0.0
 40
0.2486133539443876
 40
0.4998766739361776
 40
0.6674290675620127
 40
0.8341997991340359
 40
1.0
 40
1.0
 40
1.0
 40
1.0
 10
585.2090905514626
 20
878.5993934744058
 30
0.0
 10
585.2090905514626
 20
875.7995836463799
 30
0.0
 10
585.2090905514626
 20
870.1701208589526
 30
0.0
 10
585.2090905514626
 20
862.0810570164385
 30
0.0
 10
585.2090905514626
 20
854.8483564302638
 30
0.0
 10
585.2090905514626
 20
848.5962373495191
 30
0.0
 10
585.2090905514627
 20
844.446416646821
 30
0.0
 10
585.2090905514627
 20
842.3775614374338
 30
0.0
  0
LWPOLYLINE
  5
11F
330
1F
100
AcDbEntity
  8
0
  6
Continuous
 62
     7
370
    15
100
AcDbPolyline
 90
        9
 70
   128
 43
0.0
 10
585.2090905515
 20
878.5993934744
 10
585.2475206462
 20
878.7839890593
 10
585.3613282648
 20
878.9614618891
 10
585.5461548177
 20
879.1250468367
 10
585.7948775497
 20
879.2684258097
 10
586.0979522673
 20
879.3860853785
 10
586.4437262622
 20
879.47349559
 10
586.8189076987
 20
879.5273483866
 10
587.2090946046
 20
879.5455278032
  0
LWPOLYLINE
  5
120
330
1F
100
AcDbEntity
  8
0
  6
Continuous
 62
     7
370
    15
100
AcDbPolyline
 90
        9
 70
   128
 43
0.0
 10
826.2090872136
 20
879.5455278032
 10
826.5992741195
 20
879.5273483866
 10
826.974455556
 20
879.47349559
 10
827.3202295509
 20
879.3860853785
 10
827.6233042684
 20
879.2684258097
 10
827.8720270005
 20
879.1250468367
 10
828.0568535534
 20
878.9614618891
 10
828.170661172
 20
878.7839890593
 10
828.2090912667
 20
878.5993934744
  0
SPLINE
  5
121
330
1F
100
AcDbEntity
  8
0
  6
Continuous
 62
     7
370
    15
100
AcDbSpline
210
0.0
220
0.0
230
1.0
 70
    24
 71
     3
 72
    11
 73
     7
 74
     0
 42
0.00000001
 43
0.00000001
 40
0.0
 40
0.0
 40
0.0
 40
0.0
 40
0.2490490463418547
 40
0.5000002716651235
 40
0.7509511890315117
 40
1.0
 40
1.0
 40
1.0
 40
1.0
 10
828.2090912667185
 20
848.0868221395679
 30
0.0
 10
828.2090912667185
 20
850.7257899173921
 30
0.0
 10
828.2090912667184
 20
856.0238812982219
 30
0.0
 10
828.2090912667184
 20
863.8527859115709
 30
0.0
 10
828.2090912667184
 20
871.4745979494562
 30
0.0
 10
828.2090912667184
 20
876.2304924476017
 30
0.0
 10
828.2090912667184
 20
878.5993934744067
 30
0.0
  0
SPLINE
  5
122
330
1F
100
AcDbEntity
  8
0
  6
Continuous
 62
     7
370
    15
100
AcDbSpline
210
0.0
220
0.0
230
1.0
 70
    24
 71
     1
 72
     4
 73
     2
 74
     0
 42
0.00000001
 43
0.00000001
 40
0.0
 40
0.0
 40
1.0
 40
1.0
 10
828.2090912667185
 20
842.3775614374347
 30
0.0
 10
828.2090912667185
 20
848.0868221395679
 30
0.0
  0
ARC
  5
123
330
1F
100
AcDbEntity
  8
0
  6
Continuous
 62
     7
370
    15
100
AcDbCircle
 10
826.7051747477
 20
847.9821794619
 30
0.0
 40
5.802887909997754
100
AcDbArc
 50
265.0958110443
 51
285.020635184
  0
LINE
  5
124
330
1F
100
AcDbEntity
  8
0
  6
Continuous
 62
     7
370
    15
100
AcDbLine
 10
826.2090872136
 20
842.2005356425
 30
0.0
 11
826.2090872136
 21
879.5455278032
 31
0.0
  0
LINE
  5
125
330
1F
100
AcDbEntity
  8
0
  6
Continuous
 62
     7
370
    15
100
AcDbLine
 10
587.2090946046
 20
879.5455278032
 30
0.0
 11
594.2090938893
 21
879.5455278032
 31
0.0
  0
LINE
  5
126
330
1F
100
AcDbEntity
  8
0
  6
Continuous
 62
     7
370
    15
100
AcDbLine
 10
587.2090946046
 20
842.2005356425
 30
0.0
 11
594.2090938893
 21
842.2005356425
 31
0.0
  0
LINE
  5
127
330
1F
100
AcDbEntity
  8
0
  6
Continuous
 62
     7
370
    15
100
AcDbLine
 10
826.2090872136
 20
879.5455278032
 30
0.0
 11
819.2090879289
 21
879.5455278032
 31
0.0
  0
LINE
  5
128
330
1F
100
AcDbEntity
  8
0
  6
Continuous
 62
     7
370
    15
100
AcDbLine
 10
819.2090879289
 20
842.2005356425
 30
0.0
 11
826.2090872136
 21
842.2005356425
 31
0.0
  0
LINE
  5
129
330
1F
100
AcDbEntity
  8
0
  6
Continuous
 62
     7
370
    15
100
AcDbLine
 10
828.2090912667
 20
799.0983010405
 30
0.0
 11
828.2090912667
 21
842.3775614374
 31
0.0
  0
ARC
  5
12A
330
1F
100
AcDbEntity
  8
0
  6
Continuous
 62
     7
370
    15
100
AcDbCircle
 10
826.7051747477
 20
804.7029190649
 30
0.0
 40
5.802887909997754
100
AcDbArc
 50
265.0958110443
 51
285.020635184
  0
LINE
  5
12B
330
1F
100
AcDbEntity
  8
0
  6
Continuous
 62
     7
370
    15
100
AcDbLine
 10
826.2090872136
 20
842.2005356425
 30
0.0
 11
826.2090872136
 21
798.9212752455
 31
0.0
  0
LINE
  5
12C
330
1F
100
AcDbEntity
  8
0
  6
Continuous
 62
     7
370
    15
100
AcDbLine
 10
587.2090946046
 20
842.2005356425
 30
0.0
 11
587.2090946046
 21
798.9212752455
 31
0.0
  0
ARC
  5
12D
330
1F
100
AcDbEntity
  8
0
  6
Continuous
 62
     7
370
    15
100
AcDbCircle
 10
586.7130070705
 20
804.7029190649
 30
0.0
 40
5.802887909997548
100
AcDbArc
 50
254.979364816
 51
274.9041889557
  0
LINE
  5
12E
330
1F
100
AcDbEntity
  8
0
  6
Continuous
 62
     7
370
    15
100
AcDbLine
 10
585.2090905515
 20
842.3775614374
 30
0.0
 11
585.2090905515
 21
799.0983010405
 31
0.0
  0
LINE
  5
12F
330
1F
100
AcDbEntity
  8
0
  6
Continuous
 62
     7
370
    15
100
AcDbLine
 10
587.2090946046
 20
798.9212752455
 30
0.0
 11
594.2090938893
 21
798.9212752455
 31
0.0
  0
LINE
  5
130
330
1F
100
AcDbEntity
  8
0
  6
Continuous
 62
     7
370
    15
100
AcDbLine
 10
826.2090872136
 20
798.9212752455
 30
0.0
 11
819.2090879289
 21
798.9212752455
 31
0.0
  0
LINE
  5
131
330
1F
100
AcDbEntity
  8
0
  6
Continuous
 62
     7
370
    15
100
AcDbLine
 10
819.2090879289
 20
879.7736049765
 30
0.0
 11
594.2090938893
 21
879.7736049765
 31
0.0
  0
LINE
  5
132
330
1F
100
AcDbEntity
  8
0
  6
Continuous
 62
     7
370
    15
100
AcDbLine
 10
819.2090879289
 20
879.7736049765
 30
0.0
 11
819.2090879289
 21
863.9333129996
 31
0.0
  0
LINE
  5
133
330
1F
100
AcDbEntity
  8
0
  6
Continuous
 62
     7
370
    15
100
AcDbLine
 10
594.2090938893
 20
879.7736049765
 30
0.0
 11
594.2090938893
 21
863.9333129996
 31
0.0
  0
LINE
  5
134
330
1F
100
AcDbEntity
  8
0
  6
Continuous
 62
     7
370
    15
100
AcDbLine
 10
819.2090879289
 20
798.7126291865
 30
0.0
 11
594.2090938893
 21
798.7126291865
 31
0.0
  0
LINE
  5
135
330
1F
100
AcDbEntity
  8
0
  6
Continuous
 62
     7
370
    15
100
AcDbLine
 10
819.2090879289
 20
809.0024174326
 30
0.0
 11
819.2090879289
 21
798.7126291865
 31
0.0
  0
LINE
  5
136
330
1F
100
AcDbEntity
  8
0
  6
Continuous
 62
     7
370
    15
100
AcDbLine
 10
594.2090938893
 20
809.0024174326
 30
0.0
 11
594.2090938893
 21
798.7126291865
 31
0.0
  0
LINE
  5
137
330
1F
100
AcDbEntity
  8
0
  6
Continuous
 62
     7
370
    15
100
AcDbLine
 10
594.2090938893
 20
795.9868193739
 30
0.0
 11
658.7090904919
 21
795.9868193739
 31
0.0
  0
LINE
  5
138
330
1F
100
AcDbEntity
  8
0
  6
Continuous
 62
     7
370
    15
100
AcDbLine
 10
754.7090913263
 20
795.9868193739
 30
0.0
 11
819.2090879289
 21
795.9868193739
 31
0.0
  0
LINE
  5
139
330
1F
100
AcDbEntity
  8
0
  6
Continuous
 62
     7
370
    15
100
AcDbLine
 10
819.2090879289
 20
798.7126291865
 30
0.0
 11
819.2090879289
 21
795.9868193739
 31
0.0
  0
LINE
  5
13A
330
1F
100
AcDbEntity
  8
0
  6
Continuous
 62
     7
370
    15
100
AcDbLine
 10
594.2090938893
 20
798.7126291865
 30
0.0
 11
594.2090938893
 21
795.9868193739
 31
0.0
  0
ARC
  5
13B
330
1F
100
AcDbEntity
  8
0
  6
Continuous
 62
     7
370
    15
100
AcDbCircle
 10
826.2090909091
 20
798.1868181818
 30
0.0
 40
2.0
100
AcDbArc
 50
270.0
 51
0.0
  0
LINE
  5
13C
330
1F
100
AcDbEntity
  8
0
  6
Continuous
 62
     7
370
    15
100
AcDbLine
 10
826.2090872136
 20
796.1868227595
 30
0.0
 11
826.2090872136
 21
798.9212752455
 31
0.0
  0
SPLINE
  5
13D
330
1F
100
AcDbEntity
  8
0
  6
Continuous
 62
     7
370
    15
100
AcDbSpline
210
0.0
220
0.0
230
1.0
 70
    24
 71
     3
 72
    11
 73
     7
 74
     0
 42
0.00000001
 43
0.00000001
 40
0.0
 40
0.0
 40
0.0
 40
0.0
 40
0.241219404529309
 40
0.5000035592601916
 40
0.7587836945087005
 40
1.0
 40
1.0
 40
1.0
 40
1.0
 10
828.2090912667186
 20
798.186826812572
 30
0.0
 10
828.2090912667186
 20
798.1992822357945
 30
0.0
 10
828.2090912667186
 20
798.2251000424319
 30
0.0
 10
828.2090912667186
 20
798.4325989343539
 30
0.0
 10
828.2090912667186
 20
798.7367805062142
 30
0.0
 10
828.2090912667186
 20
798.9806497344554
 30
0.0
 10
828.2090912667186
 20
799.0983010404773
 30
0.0
  0
LINE
  5
13E
330
1F
100
AcDbEntity
  8
0
  6
Continuous
 62
     7
370
    15
100
AcDbLine
 10
587.2090946046
 20
798.9212752455
 30
0.0
 11
587.2090946046
 21
796.1868227595
 31
0.0
  0
ARC
  5
13F
330
1F
100
AcDbEntity
  8
0
  6
Continuous
 62
     7
370
    15
100
AcDbCircle
 10
587.2090909091
 20
798.1868181818
 30
0.0
 40
2.0
100
AcDbArc
 50
180.0
 51
270.0
  0
SPLINE
  5
140
330
1F
100
AcDbEntity
  8
0
  6
Continuous
 62
     7
370
    15
100
AcDbSpline
210
0.0
220
0.0
230
1.0
 70
    24
 71
     3
 72
    11
 73
     7
 74
     0
 42
0.00000001
 43
0.00000001
 40
0.0
 40
0.0
 40
0.0
 40
0.0
 40
0.2412163054912994
 40
0.4999964407398084
 40
0.7587805954706911
 40
1.0
 40
1.0
 40
1.0
 40
1.0
 10
585.2090905514629
 20
799.0983010404764
 30
0.0
 10
585.2090905514629
 20
798.9806497344545
 30
0.0
 10
585.2090905514629
 20
798.7367805062133
 30
0.0
 10
585.209090551463
 20
798.432598934353
 30
0.0
 10
585.2090905514629
 20
798.2251000424309
 30
0.0
 10
585.2090905514629
 20
798.1992822357935
 30
0.0
 10
585.2090905514629
 20
798.1868268125711
 30
0.0
  0
LINE
  5
141
330
1F
100
AcDbEntity
  8
0
  6
Continuous
 62
     7
370
    15
100
AcDbLine
 10
819.2090879289
 20
796.1868227595
 30
0.0
 11
826.2090872136
 21
796.1868227595
 31
0.0
  0
LINE
  5
142
330
1F
100
AcDbEntity
  8
0
  6
Continuous
 62
     7
370
    15
100
AcDbLine
 10
587.2090946046
 20
796.1868227595
 30
0.0
 11
594.2090938893
 21
796.1868227595
 31
0.0
  0
LINE
  5
143
330
1F
100
AcDbEntity
  8
0
  6
Continuous
 62
     7
370
    15
100
AcDbLine
 10
594.2090938893
 20
903.4056247347
 30
0.0
 11
819.2090879289
 21
903.4056247347
 31
0.0
  0
LINE
  5
144
330
1F
100
AcDbEntity
  8
0
  6
Continuous
 62
     7
370
    15
100
AcDbLine
 10
819.2090879289
 20
903.4056247347
 30
0.0
 11
819.2090879289
 21
879.7736049765
 31
0.0
  0
LINE
  5
145
330
1F
100
AcDbEntity
  8
0
  6
Continuous
 62
     7
370
    15
100
AcDbLine
 10
594.2090938893
 20
903.4056247347
 30
0.0
 11
594.2090938893
 21
879.7736049765
 31
0.0
  0
LINE
  5
146
330
1F
100
AcDbEntity
  8
0
  6
Continuous
 62
     7
370
    15
100
AcDbLine
 10
587.2090946046
 20
902.8060020083
 30
0.0
 11
587.2090946046
 21
879.5455278032
 31
0.0
  0
LWPOLYLINE
  5
147
330
1F
100
AcDbEntity
  8
0
  6
Continuous
 62
     7
370
    15
100
AcDbPolyline
 90
        9
 70
   128
 43
0.0
 10
585.2090905515
 20
901.8598676794
 10
585.2475206462
 20
902.0444632643
 10
585.3613282648
 20
902.2219360941
 10
585.5461548177
 20
902.3855210417
 10
585.7948775497
 20
902.5289000147
 10
586.0979522673
 20
902.6465595835
 10
586.4437262622
 20
902.7339995974
 10
586.8189076987
 20
902.7878225916
 10
587.2090946046
 20
902.8060020083
  0
LINE
  5
148
330
1F
100
AcDbEntity
  8
0
  6
Continuous
 62
     7
370
    15
100
AcDbLine
 10
585.2090905515
 20
901.8598676794
 30
0.0
 11
585.2090905515
 21
878.5993934744
 31
0.0
  0
LINE
  5
149
330
1F
100
AcDbEntity
  8
0
  6
Continuous
 62
     7
370
    15
100
AcDbLine
 10
826.2090872136
 20
902.8060020083
 30
0.0
 11
826.2090872136
 21
879.5455278032
 31
0.0
  0
LWPOLYLINE
  5
14A
330
1F
100
AcDbEntity
  8
0
  6
Continuous
 62
     7
370
    15
100
AcDbPolyline
 90
        9
 70
   128
 43
0.0
 10
826.2090872136
 20
902.8060020083
 10
826.5992741195
 20
902.7878225916
 10
826.974455556
 20
902.7339995974
 10
827.3202295509
 20
902.6465595835
 10
827.6233042684
 20
902.5289000147
 10
827.8720270005
 20
902.3855210417
 10
828.0568535534
 20
902.2219360941
 10
828.170661172
 20
902.0444632643
 10
828.2090912667
 20
901.8598676794
  0
LINE
  5
14B
330
1F
100
AcDbEntity
  8
0
  6
Continuous
 62
     7
370
    15
100
AcDbLine
 10
828.2090912667
 20
878.5993934744
 30
0.0
 11
828.2090912667
 21
901.8598676794
 31
0.0
  0
LINE
  5
14C
330
1F
100
AcDbEntity
  8
0
  6
Continuous
 62
     7
370
    15
100
AcDbLine
 10
587.2090946046
 20
902.8060020083
 30
0.0
 11
594.2090938893
 21
902.8060020083
 31
0.0
  0
LINE
  5
14D
330
1F
100
AcDbEntity
  8
0
  6
Continuous
 62
     7
370
    15
100
AcDbLine
 10
819.2090879289
 20
902.8060020083
 30
0.0
 11
826.2090872136
 21
902.8060020083
 31
0.0
  0
LINE
  5
14E
330
1F
100
AcDbEntity
  8
0
  6
Continuous
 62
     7
370
    15
100
AcDbLine
 10
715.3483809066
 20
908.6868048781
 30
0.0
 11
715.3483809066
 21
910.1868153685
 31
0.0
  0
LINE
  5
14F
330
1F
100
AcDbEntity
  8
0
  6
Continuous
 62
     7
370
    15
100
AcDbLine
 10
715.3483809066
 20
908.6868048781
 30
0.0
 11
713.8645023202
 21
908.6868048781
 31
0.0
  0
LINE
  5
150
330
1F
100
AcDbEntity
  8
0
  6
Continuous
 62
     7
370
    15
100
AcDbLine
 10
713.8645023202
 20
910.1868153685
 30
0.0
 11
713.8645023202
 21
908.6868048781
 31
0.0
  0
ARC
  5
151
330
1F
100
AcDbEntity
  8
0
  6
Continuous
 62
     7
370
    15
100
AcDbCircle
 10
713.8645022838
 20
911.6868181818
 30
0.0
 40
1.50000000000005
100
AcDbArc
 50
270.0
 51
310.7961333222
  0
ELLIPSE
  5
152
330
1F
100
AcDbEntity
  8
0
  6
Continuous
 62
     7
370
    15
100
AcDbEllipse
 10
713.8645022838
 20
911.6868181818
 30
0.0
 11
1.495964298572289
 21
-1.495964298572062
 31
0.0
210
0.0
220
0.0
230
0.9999999999999998
 40
0.0735032601
 41
5.497787143781836
 42
6.209813992337774
  0
LINE
  5
153
330
1F
100
AcDbEntity
  8
0
  6
Continuous
 62
     7
370
    15
100
AcDbLine
 10
700.7619620395
 20
913.0868197554
 30
0.0
 11
712.6562197787
 21
913.0868197554
 31
0.0
  0
LINE
  5
154
330
1F
100
AcDbEntity
  8
0
  6
Continuous
 62
     7
370
    15
100
AcDbLine
 10
712.6562197787
 20
913.0868197554
 30
0.0
 11
714.8445568142
 21
910.551267969
 31
0.0
  0
LINE
  5
155
330
1F
100
AcDbEntity
  8
0
  6
Continuous
 62
     7
370
    15
100
AcDbLine
 10
699.553679498
 20
910.1868153685
 30
0.0
 11
713.8645023202
 21
910.1868153685
 31
0.0
  0
ARC
  5
156
330
1F
100
AcDbEntity
  8
0
  6
Continuous
 62
     7
370
    15
100
AcDbCircle
 10
699.5536795344
 20
911.6868181818
 30
0.0
 40
1.50000000000005
100
AcDbArc
 50
229.2038666778
 51
270.0
  0
LINE
  5
157
330
1F
100
AcDbEntity
  8
0
  6
Continuous
 62
     7
370
    15
100
AcDbLine
 10
698.573625004
 20
910.551267969
 30
0.0
 11
700.7619620395
 21
913.0868197554
 31
0.0
  0
LINE
  5
158
330
1F
100
AcDbEntity
  8
0
  6
Continuous
 62
     7
370
    15
100
AcDbLine
 10
699.553679498
 20
908.6868048781
 30
0.0
 11
699.553679498
 21
910.1868153685
 31
0.0
  0
LINE
  5
159
330
1F
100
AcDbEntity
  8
0
  6
Continuous
 62
     7
370
    15
100
AcDbLine
 10
698.0698009116
 20
910.1868153685
 30
0.0
 11
698.0698009116
 21
908.6868048781
 31
0.0
  0
ELLIPSE
  5
15A
330
1F
100
AcDbEntity
  8
0
  6
Continuous
 62
     7
370
    15
100
AcDbEllipse
 10
699.5536795344
 20
911.6868181818
 30
0.0
 11
1.495964298572289
 21
1.495964298572403
 31
0.0
210
0.0
220
0.0
230
1.0
 40
0.0735032601
 41
3.214963968431439
 42
3.926990816986756
  0
LINE
  5
15B
330
1F
100
AcDbEntity
  8
0
  6
Continuous
 62
     7
370
    15
100
AcDbLine
 10
699.553679498
 20
908.6868048781
 30
0.0
 11
698.0698009116
 21
908.6868048781
 31
0.0
  0
LINE
  5
15C
330
1F
100
AcDbEntity
  8
0
  6
Continuous
 62
     7
370
    15
100
AcDbLine
 10
713.8645023202
 20
908.6868048781
 30
0.0
 11
699.553679498
 21
908.6868048781
 31
0.0
  0
LINE
  5
15D
330
1F
100
AcDbEntity
  8
0
  6
Continuous
 62
     7
370
    15
100
AcDbLine
 10
695.7090909687
 20
910.1868153685
 30
0.0
 11
698.0698009116
 21
910.1868153685
 31
0.0
  0
SPLINE
  5
15E
330
1F
100
AcDbEntity
  8
0
  6
Continuous
 62
     7
370
    15
100
AcDbSpline
210
0.0
220
0.0
230
1.0
 70
    24
 71
     1
 72
     4
 73
     2
 74
     0
 42
0.00000001
 43
0.00000001
 40
0.0
 40
0.0
 40
1.0
 40
1.0
 10
695.709090968695
 20
910.1868153684798
 30
0.0
 10
698.3856673446563
 20
913.0868197553816
 30
0.0
  0
LINE
  5
15F
330
1F
100
AcDbEntity
  8
0
  6
Continuous
 62
     7
370
    15
100
AcDbLine
 10
698.3856673447
 20
913.0868197554
 30
0.0
 11
700.7619620395
 21
913.0868197554
 31
0.0
  0
LINE
  5
160
330
1F
100
AcDbEntity
  8
0
  6
Continuous
 62
     7
370
    15
100
AcDbLine
 10
715.3483809066
 20
910.1868153685
 30
0.0
 11
717.7090908495
 21
910.1868153685
 31
0.0
  0
LINE
  5
161
330
1F
100
AcDbEntity
  8
0
  6
Continuous
 62
     7
370
    15
100
AcDbLine
 10
712.6562197787
 20
913.0868197554
 30
0.0
 11
715.0325144735
 21
913.0868197554
 31
0.0
  0
SPLINE
  5
162
330
1F
100
AcDbEntity
  8
0
  6
Continuous
 62
     7
370
    15
100
AcDbSpline
210
0.0
220
0.0
230
1.0
 70
    24
 71
     1
 72
     4
 73
     2
 74
     0
 42
0.00000001
 43
0.00000001
 40
0.0
 40
0.0
 40
1.0
 40
1.0
 10
715.0325144735244
 20
913.0868197553816
 30
0.0
 10
717.7090908494857
 20
910.1868153684798
 30
0.0
  0
LINE
  5
163
330
1F
100
AcDbEntity
  8
0
  6
Continuous
 62
     7
370
    15
100
AcDbLine
 10
717.7090908495
 20
910.1868153685
 30
0.0
 11
717.7090908495
 21
908.6868048781
 31
0.0
  0
LINE
  5
164
330
1F
100
AcDbEntity
  8
0
  6
Continuous
 62
     7
370
    15
100
AcDbLine
 10
717.7090908495
 20
908.6868048781
 30
0.0
 11
715.3483809066
 21
908.6868048781
 31
0.0
  0
LINE
  5
165
330
1F
100
AcDbEntity
  8
0
  6
Continuous
 62
     7
370
    15
100
AcDbLine
 10
695.7090909687
 20
908.6868048781
 30
0.0
 11
695.7090909687
 21
910.1868153685
 31
0.0
  0
LINE
  5
166
330
1F
100
AcDbEntity
  8
0
  6
Continuous
 62
     7
370
    15
100
AcDbLine
 10
698.0698009116
 20
908.6868048781
 30
0.0
 11
695.7090909687
 21
908.6868048781
 31
0.0
  0
LINE
  5
167
330
1F
100
AcDbEntity
  8
0
  6
Continuous
 62
     7
370
    15
100
AcDbLine
 10
819.2090879289
 20
904.9868167513
 30
0.0
 11
594.2090938893
 21
904.9868167513
 31
0.0
  0
LINE
  5
168
330
1F
100
AcDbEntity
  8
0
  6
Continuous
 62
     7
370
    15
100
AcDbLine
 10
819.2090879289
 20
904.9868167513
 30
0.0
 11
819.2090879289
 21
903.4056247347
 31
0.0
  0
LINE
  5
169
330
1F
100
AcDbEntity
  8
0
  6
Continuous
 62
     7
370
    15
100
AcDbLine
 10
594.2090938893
 20
904.9868167513
 30
0.0
 11
594.2090938893
 21
903.4056247347
 31
0.0
  0
LINE
  5
16A
330
1F
100
AcDbEntity
  8
0
  6
Continuous
 62
     7
370
    15
100
AcDbLine
 10
826.2090872136
 20
902.8060020083
 30
0.0
 11
826.2090872136
 21
904.3868065947
 31
0.0
  0
ARC
  5
16B
330
1F
100
AcDbEntity
  8
0
  6
Continuous
 62
     7
370
    15
100
AcDbCircle
 10
826.2090909091
 20
902.3868181818
 30
0.0
 40
2.0
100
AcDbArc
 50
0.0
 51
90.0
  0
SPLINE
  5
16C
330
1F
100
AcDbEntity
  8
0
  6
Continuous
 62
     7
370
    15
100
AcDbSpline
210
0.0
220
0.0
230
1.0
 70
    24
 71
     3
 72
    11
 73
     7
 74
     0
 42
0.00000001
 43
0.00000001
 40
0.0
 40
0.0
 40
0.0
 40
0.0
 40
0.2501263418815799
 40
0.4999958647057173
 40
0.7496263166200081
 40
1.0
 40
1.0
 40
1.0
 40
1.0
 10
828.2090912667182
 20
901.8598676794238
 30
0.0
 10
828.2090912667182
 20
901.9360313046744
 30
0.0
 10
828.2090912667182
 20
902.0882803536143
 30
0.0
 10
828.2090912667182
 20
902.2537160908541
 30
0.0
 10
828.2090912667182
 20
902.3667972160122
 30
0.0
 10
828.2090912667182
 20
902.380147353153
 30
0.0
 10
828.2090912667182
 20
902.386832343883
 30
0.0
  0
LINE
  5
16D
330
1F
100
AcDbEntity
  8
0
  6
Continuous
 62
     7
370
    15
100
AcDbLine
 10
587.2090946046
 20
904.3868065947
 30
0.0
 11
587.2090946046
 21
902.8060020083
 31
0.0
  0
ARC
  5
16E
330
1F
100
AcDbEntity
  8
0
  6
Continuous
 62
     7
370
    15
100
AcDbCircle
 10
587.2090909091
 20
902.3868181818
 30
0.0
 40
2.0
100
AcDbArc
 50
90.0
 51
180.0
  0
SPLINE
  5
16F
330
1F
100
AcDbEntity
  8
0
  6
Continuous
 62
     7
370
    15
100
AcDbSpline
210
0.0
220
0.0
230
1.0
 70
    24
 71
     3
 72
    11
 73
     7
 74
     0
 42
0.00000001
 43
0.00000001
 40
0.0
 40
0.0
 40
0.0
 40
0.0
 40
0.2501214057403016
 40
0.4999859370023673
 40
0.7496227103912183
 40
0.9999999999999999
 40
0.9999999999999999
 40
0.9999999999999999
 40
0.9999999999999999
 10
585.2090905514625
 20
902.3868323438821
 30
0.0
 10
585.2090905514625
 20
902.3801246326021
 30
0.0
 10
585.2090905514625
 20
902.366716098856
 30
0.0
 10
585.2090905514625
 20
902.253808528328
 30
0.0
 10
585.2090905514625
 20
902.0884184106768
 30
0.0
 10
585.2090905514625
 20
901.9361264375106
 30
0.0
 10
585.2090905514625
 20
901.8598676794229
 30
0.0
  0
LINE
  5
170
330
1F
100
AcDbEntity
  8
0
  6
Continuous
 62
     7
370
    15
100
AcDbLine
 10
587.2090946046
 20
904.3868065947
 30
0.0
 11
594.2090938893
 21
904.3868065947
 31
0.0
  0
LINE
  5
171
330
1F
100
AcDbEntity
  8
0
  6
Continuous
 62
     7
370
    15
100
AcDbLine
 10
819.2090879289
 20
904.3868065947
 30
0.0
 11
826.2090872136
 21
904.3868065947
 31
0.0
  0
LINE
  5
172
330
1F
100
AcDbEntity
  8
0
  6
Continuous
 62
     7
370
    15
100
AcDbLine
 10
706.7090909091
 20
906.6868306273
 30
0.0
 11
725.9590908048
 21
906.6868306273
 31
0.0
  0
LINE
  5
173
330
1F
100
AcDbEntity
  8
0
  6
Continuous
 62
     7
370
    15
100
AcDbLine
 10
687.4590910134
 20
906.6868306273
 30
0.0
 11
706.7090909091
 21
906.6868306273
 31
0.0
  0
LINE
  5
174
330
1F
100
AcDbEntity
  8
0
  6
Continuous
 62
     7
370
    15
100
AcDbLine
 10
695.7090909687
 20
910.1868153685
 30
0.0
 11
687.4590910134
 21
910.1868153685
 31
0.0
  0
LINE
  5
175
330
1F
100
AcDbEntity
  8
0
  6
Continuous
 62
     7
370
    15
100
AcDbLine
 10
725.9590908048
 20
910.1868153685
 30
0.0
 11
717.7090908495
 21
910.1868153685
 31
0.0
  0
LINE
  5
176
330
1F
100
AcDbEntity
  8
0
  6
Continuous
 62
     7
370
    15
100
AcDbLine
 10
698.3856673447
 20
913.0868197554
 30
0.0
 11
690.359091675
 21
913.0868197554
 31
0.0
  0
LINE
  5
177
330
1F
100
AcDbEntity
  8
0
  6
Continuous
 62
     7
370
    15
100
AcDbLine
 10
723.0590901432
 20
913.0868197554
 30
0.0
 11
715.0325144735
 21
913.0868197554
 31
0.0
  0
LINE
  5
178
330
1F
100
AcDbEntity
  8
0
  6
Continuous
 62
     7
370
    15
100
AcDbLine
 10
706.7090909091
 20
905.6868136995
 30
0.0
 11
694.2090907228
 21
905.6868136995
 31
0.0
  0
LINE
  5
179
330
1F
100
AcDbEntity
  8
0
  6
Continuous
 62
     7
370
    15
100
AcDbLine
 10
719.2090910954
 20
905.6868136995
 30
0.0
 11
706.7090909091
 21
905.6868136995
 31
0.0
  0
LINE
  5
17A
330
1F
100
AcDbEntity
  8
0
  6
Continuous
 62
     7
370
    15
100
AcDbLine
 10
719.194091214
 20
906.0868204706
 30
0.0
 11
694.2240906042
 21
906.0868204706
 31
0.0
  0
LINE
  5
17B
330
1F
100
AcDbEntity
  8
0
  6
Continuous
 62
     7
370
    15
100
AcDbLine
 10
704.7090908141
 20
920.8868325823
 30
0.0
 11
704.7090908141
 21
924.3868173235
 31
0.0
  0
LINE
  5
17C
330
1F
100
AcDbEntity
  8
0
  6
Continuous
 62
     7
370
    15
100
AcDbLine
 10
708.7090910041
 20
920.8868325823
 30
0.0
 11
704.7090908141
 21
920.8868325823
 31
0.0
  0
LINE
  5
17D
330
1F
100
AcDbEntity
  8
0
  6
Continuous
 62
     7
370
    15
100
AcDbLine
 10
708.7090910041
 20
924.3868173235
 30
0.0
 11
708.7090910041
 21
920.8868325823
 31
0.0
  0
LWPOLYLINE
  5
17E
330
1F
100
AcDbEntity
  8
0
  6
Continuous
 62
     7
370
    15
100
AcDbPolyline
 90
        3
 70
   128
 43
0.0
 10
708.7090910041
 20
924.3868173235
 10
708.9595620615
 20
924.6372760409
 10
709.2090908532
 20
924.8868108862
  0
LINE
  5
17F
330
1F
100
AcDbEntity
  8
0
  6
Continuous
 62
     7
370
    15
100
AcDbLine
 10
714.7090912891
 20
924.8868108862
 30
0.0
 11
709.2090908532
 21
924.8868108862
 31
0.0
  0
LINE
  5
180
330
1F
100
AcDbEntity
  8
0
  6
Continuous
 62
     7
370
    15
100
AcDbLine
 10
714.7090912891
 20
913.0868197554
 30
0.0
 11
714.7090912891
 21
924.8868108862
 31
0.0
  0
LINE
  5
181
330
1F
100
AcDbEntity
  8
0
  6
Continuous
 62
     7
370
    15
100
AcDbLine
 10
698.7090905291
 20
924.8868108862
 30
0.0
 11
698.7090905291
 21
913.0868197554
 31
0.0
  0
LINE
  5
182
330
1F
100
AcDbEntity
  8
0
  6
Continuous
 62
     7
370
    15
100
AcDbLine
 10
704.209090965
 20
924.8868108862
 30
0.0
 11
698.7090905291
 21
924.8868108862
 31
0.0
  0
LWPOLYLINE
  5
183
330
1F
100
AcDbEntity
  8
0
  6
Continuous
 62
     7
370
    15
100
AcDbPolyline
 90
        3
 70
   128
 43
0.0
 10
704.7090908141
 20
924.3868173235
 10
704.4586197567
 20
924.6372760409
 10
704.209090965
 20
924.8868108862
  0
SPLINE
  5
184
330
1F
100
AcDbEntity
  8
0
  6
Continuous
 62
     7
370
    15
100
AcDbSpline
210
0.0
220
0.0
230
1.0
 70
     8
 71
     3
 72
    11
 73
     7
 74
     0
 42
0.00000001
 43
0.00000001
 40
0.0
 40
0.0
 40
0.0
 40
0.0
 40
0.2645357152849866
 40
0.5347694642751114
 40
0.7652648164696375
 40
1.0
 40
1.0
 40
1.0
 40
1.0
 10
578.2090912667184
 20
846.0868180864511
 30
0.0
 10
578.0034084271766
 20
846.7810473072151
 30
0.0
 10
577.5876123907362
 20
848.1844592739969
 30
0.0
 10
577.4353214680123
 20
850.2638055559405
 30
0.0
 10
577.6584170826757
 20
852.2520343258233
 30
0.0
 10
578.0244213577488
 20
853.4715099172665
 30
0.0
 10
578.2090912667184
 20
854.0868044965921
 30
0.0
  0
SPLINE
  5
185
330
1F
100
AcDbEntity
  8
0
  6
Continuous
 62
     7
370
    15
100
AcDbSpline
210
0.0
220
0.0
230
1.0
 70
    24
 71
     3
 72
     9
 73
     5
 74
     0
 42
0.00000001
 43
0.00000001
 40
0.0
 40
0.0
 40
0.0
 40
0.0
 40
0.4945447009719362
 40
1.0
 40
1.0
 40
1.0
 40
1.0
 10
577.4968455639748
 20
846.0868180864511
 30
0.0
 10
577.5327267533071
 20
846.0868180864511
 30
0.0
 10
577.6052807393507
 20
846.0868180864511
 30
0.0
 10
578.0063624106282
 20
846.0868180864511
 30
0.0
 10
578.2090912667184
 20
846.0868180864511
 30
0.0
  0
SPLINE
  5
186
330
1F
100
AcDbEntity
  8
0
  6
Continuous
 62
     7
370
    15
100
AcDbSpline
210
0.0
220
0.0
230
1.0
 70
    24
 71
     3
 72
     9
 73
     5
 74
     0
 42
0.00000001
 43
0.00000001
 40
0.0
 40
0.0
 40
0.0
 40
0.0
 40
0.4954848436351043
 40
1.0
 40
1.0
 40
1.0
 40
1.0
 10
578.2090912667184
 20
862.0868207090555
 30
0.0
 10
578.0099969818096
 20
862.0868207090555
 30
0.0
 10
577.6081798778837
 20
862.0868207090555
 30
0.0
 10
577.5341797500433
 20
862.0868207090555
 30
0.0
 10
577.4968455639748
 20
862.0868207090555
 30
0.0
  0
SPLINE
  5
187
330
1F
100
AcDbEntity
  8
0
  6
Continuous
 62
     7
370
    15
100
AcDbSpline
210
0.0
220
0.0
230
1.0
 70
     8
 71
     3
 72
    11
 73
     7
 74
     0
 42
0.00000001
 43
0.00000001
 40
0.0
 40
0.0
 40
0.0
 40
0.0
 40
0.2645377044280476
 40
0.5347707271805958
 40
0.7652654352038436
 40
1.0
 40
1.0
 40
1.0
 40
1.0
 10
578.2090912667184
 20
854.0868044965921
 30
0.0
 10
578.0034085418644
 20
854.781044347121
 30
0.0
 10
577.5876148818395
 20
856.1844705638404
 30
0.0
 10
577.435321017387
 20
858.2638210709916
 30
0.0
 10
577.6584172227077
 20
860.2520508570028
 30
0.0
 10
578.0244213950494
 20
861.4715262044281
 30
0.0
 10
578.2090912667184
 20
862.0868207090555
 30
0.0
  0
LINE
  5
188
330
1F
100
AcDbEntity
  8
0
  6
Continuous
 62
     7
370
    15
100
AcDbLine
 10
577.2090892402
 20
861.5868271464
 30
0.0
 11
577.2090892402
 21
846.5868116491
 31
0.0
  0
LINE
  5
189
330
1F
100
AcDbEntity
  8
0
  6
Continuous
 62
     7
370
    15
100
AcDbLine
 10
584.2090885249
 20
862.0868207091
 30
0.0
 11
578.2090912667
 21
862.0868207091
 31
0.0
  0
SPLINE
  5
18A
330
1F
100
AcDbEntity
  8
0
  6
Continuous
 62
     7
370
    15
100
AcDbSpline
210
0.0
220
0.0
230
1.0
 70
     8
 71
     3
 72
    11
 73
     7
 74
     0
 42
0.00000001
 43
0.00000001
 40
0.0
 40
0.0
 40
0.0
 40
0.0
 40
0.2645351815506035
 40
0.5347681029925803
 40
0.7652627609037996
 40
1.0
 40
1.0
 40
1.0
 40
1.0
 10
584.2090885249047
 20
862.0868207090555
 30
0.0
 10
584.4147763864385
 20
861.3925917498908
 30
0.0
 10
584.8305823555206
 20
859.9891810528375
 30
0.0
 10
584.9828434030602
 20
857.9098323656059
 30
0.0
 10
584.7597636886933
 20
855.9215991784795
 30
0.0
 10
584.3937594781215
 20
854.7021096803779
 30
0.0
 10
584.2090885249047
 20
854.0868044965921
 30
0.0
  0
LINE
  5
18B
330
1F
100
AcDbEntity
  8
0
  6
Continuous
 62
     7
370
    15
100
AcDbLine
 10
578.2090912667
 20
854.0868044966
 30
0.0
 11
584.2090885249
 21
854.0868044966
 31
0.0
  0
SPLINE
  5
18C
330
1F
100
AcDbEntity
  8
0
  6
Continuous
 62
     7
370
    15
100
AcDbSpline
210
0.0
220
0.0
230
1.0
 70
     8
 71
     3
 72
    11
 73
     7
 74
     0
 42
0.00000001
 43
0.00000001
 40
0.0
 40
0.0
 40
0.0
 40
0.0
 40
0.2645359036274382
 40
0.5347695503135402
 40
0.7652648020919401
 40
1.0
 40
1.0
 40
1.0
 40
1.0
 10
584.2090885249047
 20
854.0868044965921
 30
0.0
 10
584.4147764341068
 20
853.3925754757421
 30
0.0
 10
584.8305824899222
 20
851.9891646864928
 30
0.0
 10
584.9828428398314
 20
849.9098170342188
 30
0.0
 10
584.7597662909249
 20
847.9215877298783
 30
0.0
 10
584.3937596653165
 20
846.7021125896108
 30
0.0
 10
584.2090885249048
 20
846.0868180864511
 30
0.0
  0
LINE
  5
18D
330
1F
100
AcDbEntity
  8
0
  6
Continuous
 62
     7
370
    15
100
AcDbLine
 10
578.2090912667
 20
846.0868180865
 30
0.0
 11
584.2090885249
 21
846.0868180865
 31
0.0
  0
SPLINE
  5
18E
330
1F
100
AcDbEntity
  8
0
  6
Continuous
 62
     7
370
    15
100
AcDbSpline
210
0.0
220
0.0
230
1.0
 70
     8
 71
     3
 72
    11
 73
     7
 74
     0
 42
0.00000001
 43
0.00000001
 40
0.0
 40
0.0
 40
0.0
 40
0.0
 40
0.2645350054653738
 40
0.5347680293465472
 40
0.7652627630607993
 40
1.0
 40
1.0
 40
1.0
 40
1.0
 10
835.2090905514626
 20
862.0868207090564
 30
0.0
 10
835.4147733413982
 20
861.3925915508604
 30
0.0
 10
835.8305692775573
 20
859.9891797105628
 30
0.0
 10
835.9828609270756
 20
857.9098325119186
 30
0.0
 10
835.7597620973111
 20
855.9215995167324
 30
0.0
 10
835.3937602708322
 20
854.7021097253166
 30
0.0
 10
835.2090905514626
 20
854.086804496593
 30
0.0
  0
LINE
  5
18F
330
1F
100
AcDbEntity
  8
0
  6
Continuous
 62
     7
370
    15
100
AcDbLine
 10
835.2090905515
 20
854.0868044966
 30
0.0
 11
829.2090932933
 21
854.0868044966
 31
0.0
  0
SPLINE
  5
190
330
1F
100
AcDbEntity
  8
0
  6
Continuous
 62
     7
370
    15
100
AcDbSpline
210
0.0
220
0.0
230
1.0
 70
     8
 71
     3
 72
    11
 73
     7
 74
     0
 42
0.00000001
 43
0.00000001
 40
0.0
 40
0.0
 40
0.0
 40
0.0
 40
0.2645378805119999
 40
0.5347708008258333
 40
0.7652654330464506
 40
1.0
 40
1.0
 40
1.0
 40
1.0
 10
829.2090932932763
 20
854.086804496593
 30
0.0
 10
829.0034054967915
 20
854.7810441480907
 30
0.0
 10
828.5876018038256
 20
856.1844692215736
 30
0.0
 10
828.4353385413954
 20
858.2638212173026
 30
0.0
 10
828.6584156313764
 20
860.2520511952536
 30
0.0
 10
829.0244221877816
 20
861.4715262493664
 30
0.0
 10
829.2090932932763
 20
862.0868207090564
 30
0.0
  0
LINE
  5
191
330
1F
100
AcDbEntity
  8
0
  6
Continuous
 62
     7
370
    15
100
AcDbLine
 10
835.2090905515
 20
862.0868207091
 30
0.0
 11
829.2090932933
 21
862.0868207091
 31
0.0
  0
SPLINE
  5
192
330
1F
100
AcDbEntity
  8
0
  6
Continuous
 62
     7
370
    15
100
AcDbSpline
210
0.0
220
0.0
230
1.0
 70
    24
 71
     3
 72
     9
 73
     5
 74
     0
 42
0.00000001
 43
0.00000001
 40
0.0
 40
0.0
 40
0.0
 40
0.0
 40
0.4954848436351043
 40
1.0
 40
1.0
 40
1.0
 40
1.0
 10
835.2090905514626
 20
846.086818086452
 30
0.0
 10
835.4081848363713
 20
846.086818086452
 30
0.0
 10
835.8100019402974
 20
846.086818086452
 30
0.0
 10
835.8840020681378
 20
846.086818086452
 30
0.0
 10
835.9213362542062
 20
846.086818086452
 30
0.0
  0
SPLINE
  5
193
330
1F
100
AcDbEntity
  8
0
  6
Continuous
 62
     7
370
    15
100
AcDbSpline
210
0.0
220
0.0
230
1.0
 70
     8
 71
     3
 72
    11
 73
     7
 74
     0
 42
0.00000001
 43
0.00000001
 40
0.0
 40
0.0
 40
0.0
 40
0.0
 40
0.2645357275417329
 40
0.5347694766672955
 40
0.7652648042489306
 40
1.0
 40
1.0
 40
1.0
 40
1.0
 10
835.2090905514626
 20
854.086804496593
 30
0.0
 10
835.4147733890658
 20
853.392575276712
 30
0.0
 10
835.8305694119565
 20
851.9891633442182
 30
0.0
 10
835.9828603638531
 20
849.9098171805315
 30
0.0
 10
835.7597646995904
 20
847.9215880681288
 30
0.0
 10
835.3937604580475
 20
846.702112634549
 30
0.0
 10
835.2090905514626
 20
846.086818086452
 30
0.0
  0
SPLINE
  5
194
330
1F
100
AcDbEntity
  8
0
  6
Continuous
 62
     7
370
    15
100
AcDbSpline
210
0.0
220
0.0
230
1.0
 70
    24
 71
     3
 72
     9
 73
     5
 74
     0
 42
0.00000001
 43
0.00000001
 40
0.0
 40
0.0
 40
0.0
 40
0.0
 40
0.4945447009719362
 40
1.0
 40
1.0
 40
1.0
 40
1.0
 10
835.9213362542062
 20
862.0868207090564
 30
0.0
 10
835.8854550648739
 20
862.0868207090563
 30
0.0
 10
835.8129010788305
 20
862.0868207090563
 30
0.0
 10
835.4118194075528
 20
862.0868207090564
 30
0.0
 10
835.2090905514626
 20
862.0868207090564
 30
0.0
  0
LINE
  5
195
330
1F
100
AcDbEntity
  8
0
  6
Continuous
 62
     7
370
    15
100
AcDbLine
 10
836.209092578
 20
854.0868044966
 30
0.0
 11
836.209092578
 21
861.5868271464
 31
0.0
  0
LINE
  5
196
330
1F
100
AcDbEntity
  8
0
  6
Continuous
 62
     7
370
    15
100
AcDbLine
 10
836.209092578
 20
846.5868116492
 30
0.0
 11
836.209092578
 21
854.0868044966
 31
0.0
  0
LINE
  5
197
330
1F
100
AcDbEntity
  8
0
  6
Continuous
 62
     7
370
    15
100
AcDbLine
 10
835.2090905515
 20
846.0868180865
 30
0.0
 11
829.2090932933
 21
846.0868180865
 31
0.0
  0
SPLINE
  5
198
330
1F
100
AcDbEntity
  8
0
  6
Continuous
 62
     7
370
    15
100
AcDbSpline
210
0.0
220
0.0
230
1.0
 70
     8
 71
     3
 72
    11
 73
     7
 74
     0
 42
0.00000001
 43
0.00000001
 40
0.0
 40
0.0
 40
0.0
 40
0.0
 40
0.2645358913706954
 40
0.5347695379213553
 40
0.765264814312651
 40
1.0
 40
1.0
 40
1.0
 40
1.0
 10
829.2090932932764
 20
846.086818086452
 30
0.0
 10
829.0034053821357
 20
846.781047108185
 30
0.0
 10
828.587599312771
 20
848.1844579317221
 30
0.0
 10
828.4353389920344
 20
850.2638057022532
 30
0.0
 10
828.6584154913417
 20
852.2520346640736
 30
0.0
 10
829.0244221504801
 20
853.4715099622047
 30
0.0
 10
829.2090932932763
 20
854.086804496593
 30
0.0
  0
SPLINE
  5
199
330
1F
100
AcDbEntity
  8
0
  6
Continuous
 62
     7
370
    15
100
AcDbSpline
210
0.0
220
0.0
230
1.0
 70
    24
 71
     3
 72
     9
 73
     5
 74
     0
 42
0.00000001
 43
0.00000001
 40
0.0
 40
0.0
 40
0.0
 40
0.0
 40
0.4945447661890578
 40
1.0
 40
1.0
 40
1.0
 40
1.0
 10
584.9213416782288
 20
862.0868207090555
 30
0.0
 10
584.8854574058246
 20
862.0868207090555
 30
0.0
 10
584.812897195187
 20
862.0868207090555
 30
0.0
 10
584.4118167401052
 20
862.0868207090555
 30
0.0
 10
584.2090885249047
 20
862.0868207090555
 30
0.0
  0
SPLINE
  5
19A
330
1F
100
AcDbEntity
  8
0
  6
Continuous
 62
     7
370
    15
100
AcDbSpline
210
0.0
220
0.0
230
1.0
 70
    24
 71
     3
 72
     9
 73
     5
 74
     0
 42
0.00000001
 43
0.00000001
 40
0.0
 40
0.0
 40
0.0
 40
0.0
 40
0.495484778483008
 40
1.0
 40
1.0
 40
1.0
 40
1.0
 10
584.2090885249048
 20
846.0868180864511
 30
0.0
 10
584.4081822061553
 20
846.0868180864511
 30
0.0
 10
584.8099981445985
 20
846.0868180864511
 30
0.0
 10
584.8840043972692
 20
846.0868180864511
 30
0.0
 10
584.9213416782289
 20
846.0868180864511
 30
0.0
  0
SPLINE
  5
19B
330
1F
100
AcDbEntity
  8
0
  6
Continuous
 62
     7
370
    15
100
AcDbSpline
210
0.0
220
0.0
230
1.0
 70
    24
 71
     3
 72
     9
 73
     5
 74
     0
 42
0.00000001
 43
0.00000001
 40
0.0
 40
0.0
 40
0.0
 40
0.0
 40
0.495484778483008
 40
1.0
 40
1.0
 40
1.0
 40
1.0
 10
829.2090932932763
 20
862.0868207090564
 30
0.0
 10
829.0099996120258
 20
862.0868207090564
 30
0.0
 10
828.6081836735827
 20
862.0868207090564
 30
0.0
 10
828.534177420912
 20
862.0868207090564
 30
0.0
 10
828.4968401399522
 20
862.0868207090564
 30
0.0
  0
SPLINE
  5
19C
330
1F
100
AcDbEntity
  8
0
  6
Continuous
 62
     7
370
    15
100
AcDbSpline
210
0.0
220
0.0
230
1.0
 70
    24
 71
     3
 72
     9
 73
     5
 74
     0
 42
0.00000001
 43
0.00000001
 40
0.0
 40
0.0
 40
0.0
 40
0.0
 40
0.4945447661890578
 40
1.0
 40
1.0
 40
1.0
 40
1.0
 10
828.4968401399523
 20
846.086818086452
 30
0.0
 10
828.5327244123566
 20
846.086818086452
 30
0.0
 10
828.6052846229941
 20
846.086818086452
 30
0.0
 10
829.0063650780759
 20
846.086818086452
 30
0.0
 10
829.2090932932764
 20
846.086818086452
 30
0.0
  0
LINE
  5
19D
330
1F
100
AcDbEntity
  8
0
  6
Continuous
 62
     7
370
    15
100
AcDbLine
 10
574.9090950099
 20
858.5868061655
 30
0.0
 11
574.9090950099
 21
849.58683263
 31
0.0
  0
LINE
  5
19E
330
1F
100
AcDbEntity
  8
0
  6
Continuous
 62
     7
370
    15
100
AcDbLine
 10
575.4090885726
 20
859.0868295305
 30
0.0
 11
575.4090885726
 21
849.086809265
 31
0.0
  0
LINE
  5
19F
330
1F
100
AcDbEntity
  8
0
  6
Continuous
 62
     7
370
    15
100
AcDbLine
 10
838.5090868083
 20
854.0868044966
 30
0.0
 11
838.5090868083
 21
858.5868061655
 31
0.0
  0
LINE
  5
1A0
330
1F
100
AcDbEntity
  8
0
  6
Continuous
 62
     7
370
    15
100
AcDbLine
 10
838.5090868083
 20
849.58683263
 30
0.0
 11
838.5090868083
 21
854.0868044966
 31
0.0
  0
LINE
  5
1A1
330
1F
100
AcDbEntity
  8
0
  6
Continuous
 62
     7
370
    15
100
AcDbLine
 10
838.0090932456
 20
854.0868044966
 30
0.0
 11
838.0090932456
 21
859.0868295305
 31
0.0
  0
LINE
  5
1A2
330
1F
100
AcDbEntity
  8
0
  6
Continuous
 62
     7
370
    15
100
AcDbLine
 10
838.0090932456
 20
849.086809265
 30
0.0
 11
838.0090932456
 21
854.0868044966
 31
0.0
  0
SPLINE
  5
1A3
330
1F
100
AcDbEntity
  8
0
  6
Continuous
 62
     7
370
    15
100
AcDbSpline
210
0.0
220
0.0
230
1.0
 70
     8
 71
     3
 72
    18
 73
    14
 74
     0
 42
0.00000001
 43
0.00000001
 40
0.0
 40
0.0
 40
0.0
 40
0.0
 40
0.0391144328554131
 40
0.0780919890381376
 40
0.138920958306653
 40
0.2382984752641484
 40
0.4914349036512158
 40
0.7614772791088619
 40
0.8314854227397016
 40
0.9019336724182491
 40
0.9480415360058398
 40
0.9875237991692312
 40
1.0
 40
1.0
 40
1.0
 40
1.0
 10
736.2146436330949
 20
724.2868126505081
 30
0.0
 10
736.2084474606618
 20
724.4045328043236
 30
0.0
 10
736.1960767986221
 20
724.6395611631725
 30
0.0
 10
736.0903146774364
 20
725.0092482830898
 30
0.0
 10
735.8691696752569
 20
725.4222166777145
 30
0.0
 10
735.292999449484
 20
725.9332770772871
 30
0.0
 10
734.3526019511283
 20
726.0796985948717
 30
0.0
 10
733.4492327135762
 20
725.9580533729562
 30
0.0
 10
732.8775623218202
 20
725.4874797634883
 30
0.0
 10
732.6471848019906
 20
725.1534497572086
 30
0.0
 10
732.5095411823327
 20
724.7675120897657
 30
0.0
 10
732.4652069759424
 20
724.4799266148334
 30
0.0
 10
732.4625146263892
 20
724.324204458298
 30
0.0
 10
732.4618681428109
 20
724.2868126505081
 30
0.0
  0
SPLINE
  5
1A4
330
1F
100
AcDbEntity
  8
0
  6
Continuous
 62
     7
370
    15
100
AcDbSpline
210
0.0
220
0.0
230
1.0
 70
     8
 71
     3
 72
    18
 73
    14
 74
     0
 42
0.00000001
 43
0.00000001
 40
0.0
 40
0.0
 40
0.0
 40
0.0
 40
0.0391144429549913
 40
0.0780920674545005
 40
0.1389209696019466
 40
0.2382984441544556
 40
0.4914348008233227
 40
0.7614774211948839
 40
0.8314853277488422
 40
0.9019335606974623
 40
0.9480415812936913
 40
0.9875237822539188
 40
1.0
 40
1.0
 40
1.0
 40
1.0
 10
732.4618681428109
 20
724.2868126505081
 30
0.0
 10
732.44947617843
 20
724.4045328574493
 30
0.0
 10
732.4247355955349
 20
724.6395614976831
 30
0.0
 10
732.2132045230455
 20
725.0092475746452
 30
0.0
 10
731.7709199536174
 20
725.4222170999099
 30
0.0
 10
730.6185798238859
 20
725.9332768452659
 30
0.0
 10
728.7377833049579
 20
726.0796982106459
 30
0.0
 10
726.9310462947217
 20
725.9580547905515
 30
0.0
 10
725.7877046655044
 20
725.4874794420634
 30
0.0
 10
725.3269510453679
 20
725.1534485753762
 30
0.0
 10
725.051660633956
 20
724.7675133566187
 30
0.0
 10
724.9629947078708
 20
724.4799261672104
 30
0.0
 10
724.9576071043866
 20
724.3242044387875
 30
0.0
 10
724.9563134369527
 20
724.286812650508
 30
0.0
  0
SPLINE
  5
1A5
330
1F
100
AcDbEntity
  8
0
  6
Continuous
 62
     7
370
    15
100
AcDbSpline
210
0.0
220
0.0
230
1.0
 70
     8
 71
     3
 72
    18
 73
    14
 74
     0
 42
0.00000001
 43
0.00000001
 40
0.0
 40
0.0
 40
0.0
 40
0.0
 40
0.0344352394795566
 40
0.0724914515936577
 40
0.1306344596127227
 40
0.2236191004444465
 40
0.4104356673623103
 40
0.5001954601018112
 40
0.7376499558017985
 40
0.8568695616832559
 40
0.9094902689982631
 40
0.9625687137148118
 40
1.0
 40
1.0
 40
1.0
 40
1.0
 10
724.9563134369527
 20
724.286812650508
 30
0.0
 10
724.9515170498265
 20
724.3904095516502
 30
0.0
 10
724.941419920536
 20
724.6084968906059
 30
0.0
 10
724.8491168238507
 20
724.9638033962069
 30
0.0
 10
724.646278774065
 20
725.3718635221801
 30
0.0
 10
724.183626924323
 20
725.824752659874
 30
0.0
 10
723.6282765817976
 20
725.9930547079628
 30
0.0
 10
722.8594011298991
 20
726.0449127832348
 30
0.0
 10
722.1844964072324
 20
725.9459026663764
 30
0.0
 10
721.6001717625858
 20
725.4902390226789
 30
0.0
 10
721.3431856868162
 20
725.0474530835878
 30
0.0
 10
721.2232715494868
 20
724.6718728756232
 30
0.0
 10
721.2093106836566
 20
724.399468465109
 30
0.0
 10
721.2035370153461
 20
724.286812650508
 30
0.0
  0
LINE
  5
1A6
330
1F
100
AcDbEntity
  8
0
  6
Continuous
 62
     7
370
    15
100
AcDbLine
 10
723.9411420283
 20
726.2868167036
 30
0.0
 11
723.2035382745
 21
726.2868167036
 31
0.0
  0
LINE
  5
1A7
330
1F
100
AcDbEntity
  8
0
  6
Continuous
 62
     7
370
    15
100
AcDbLine
 10
734.2146451679
 20
726.2868167036
 30
0.0
 11
723.9411420283
 21
726.2868167036
 31
0.0
  0
LINE
  5
1A8
330
1F
100
AcDbEntity
  8
0
  6
Continuous
 62
     7
370
    15
100
AcDbLine
 10
728.7090907899
 20
721.3868231648
 30
0.0
 11
724.956313437
 21
721.3868231648
 31
0.0
  0
LINE
  5
1A9
330
1F
100
AcDbEntity
  8
0
  6
Continuous
 62
     7
370
    15
100
AcDbLine
 10
724.956313437
 20
724.2868126505
 30
0.0
 11
724.956313437
 21
721.3868231648
 31
0.0
  0
LINE
  5
1AA
330
1F
100
AcDbEntity
  8
0
  6
Continuous
 62
     7
370
    15
100
AcDbLine
 10
732.4618681428
 20
724.2868126505
 30
0.0
 11
732.4618681428
 21
721.3868231648
 31
0.0
  0
LINE
  5
1AB
330
1F
100
AcDbEntity
  8
0
  6
Continuous
 62
     7
370
    15
100
AcDbLine
 10
732.4618681428
 20
721.3868231648
 30
0.0
 11
728.7090907899
 21
721.3868231648
 31
0.0
  0
LINE
  5
1AC
330
1F
100
AcDbEntity
  8
0
  6
Continuous
 62
     7
370
    15
100
AcDbLine
 10
736.2146436331
 20
724.2868126505
 30
0.0
 11
736.2146436331
 21
721.3868231648
 31
0.0
  0
LINE
  5
1AD
330
1F
100
AcDbEntity
  8
0
  6
Continuous
 62
     7
370
    15
100
AcDbLine
 10
736.2146436331
 20
721.3868231648
 30
0.0
 11
734.338255888
 21
721.3868231648
 31
0.0
  0
LINE
  5
1AE
330
1F
100
AcDbEntity
  8
0
  6
Continuous
 62
     7
370
    15
100
AcDbLine
 10
734.338255888
 20
721.3868231648
 30
0.0
 11
732.4618681428
 21
721.3868231648
 31
0.0
  0
LINE
  5
1AF
330
1F
100
AcDbEntity
  8
0
  6
Continuous
 62
     7
370
    15
100
AcDbLine
 10
723.0799256918
 20
721.3868231648
 30
0.0
 11
721.2035370153
 21
721.3868231648
 31
0.0
  0
LINE
  5
1B0
330
1F
100
AcDbEntity
  8
0
  6
Continuous
 62
     7
370
    15
100
AcDbLine
 10
721.2035370153
 20
724.2868126505
 30
0.0
 11
721.2035370153
 21
721.3868231648
 31
0.0
  0
LINE
  5
1B1
330
1F
100
AcDbEntity
  8
0
  6
Continuous
 62
     7
370
    15
100
AcDbLine
 10
724.956313437
 20
721.3868231648
 30
0.0
 11
723.0799256918
 21
721.3868231648
 31
0.0
  0
LINE
  5
1B2
330
1F
100
AcDbEntity
  8
0
  6
Continuous
 62
     7
370
    15
100
AcDbLine
 10
692.2146448028
 20
724.2868126505
 30
0.0
 11
692.2146448028
 21
721.3868231648
 31
0.0
  0
LINE
  5
1B3
330
1F
100
AcDbEntity
  8
0
  6
Continuous
 62
     7
370
    15
100
AcDbLine
 10
692.2146448028
 20
721.3868231648
 30
0.0
 11
692.2138066125
 21
721.3868231648
 31
0.0
  0
LINE
  5
1B4
330
1F
100
AcDbEntity
  8
0
  6
Continuous
 62
     7
370
    15
100
AcDbLine
 10
677.2043745128
 20
721.3868231648
 30
0.0
 11
677.2035381851
 21
721.3868231648
 31
0.0
  0
LINE
  5
1B5
330
1F
100
AcDbEntity
  8
0
  6
Continuous
 62
     7
370
    15
100
AcDbLine
 10
677.2035381851
 20
724.2868126505
 30
0.0
 11
677.2035381851
 21
721.3868231648
 31
0.0
  0
SPLINE
  5
1B6
330
1F
100
AcDbEntity
  8
0
  6
Continuous
 62
     7
370
    15
100
AcDbSpline
210
0.0
220
0.0
230
1.0
 70
     8
 71
     3
 72
    18
 73
    14
 74
     0
 42
0.00000001
 43
0.00000001
 40
0.0
 40
0.0
 40
0.0
 40
0.0
 40
0.0391144468563164
 40
0.0780920321293918
 40
0.1389209137645077
 40
0.238298485214039
 40
0.4914348925470572
 40
0.7614774600043044
 40
0.8314853883202875
 40
0.9019336059608872
 40
0.9480415434803505
 40
0.987523788301001
 40
1.0
 40
1.0
 40
1.0
 40
1.0
 10
692.2138066125189
 20
724.286812650508
 30
0.0
 10
692.2077714712979
 20
724.4045328251854
 30
0.0
 10
692.1957223058356
 20
724.6395612712466
 30
0.0
 10
692.0927067115458
 20
725.0092477612213
 30
0.0
 10
691.8773129572867
 20
725.4222173693234
 30
0.0
 10
691.3161181570136
 20
725.9332764405344
 30
0.0
 10
690.4001649507754
 20
726.0796983832552
 30
0.0
 10
689.5202780049177
 20
725.9580547127538
 30
0.0
 10
688.9634637302383
 20
725.4874794096438
 30
0.0
 10
688.7390772834628
 20
725.1534491462372
 30
0.0
 10
688.6050111698069
 20
724.7675126256297
 30
0.0
 10
688.561826214002
 20
724.4799264117224
 30
0.0
 10
688.5592045629216
 20
724.3242044495737
 30
0.0
 10
688.5585750547324
 20
724.286812650508
 30
0.0
  0
SPLINE
  5
1B7
330
1F
100
AcDbEntity
  8
0
  6
Continuous
 62
     7
370
    15
100
AcDbSpline
210
0.0
220
0.0
230
1.0
 70
     8
 71
     3
 72
    18
 73
    14
 74
     0
 42
0.00000001
 43
0.00000001
 40
0.0
 40
0.0
 40
0.0
 40
0.0
 40
0.0391144305772254
 40
0.0780920452647967
 40
0.1389208762472596
 40
0.2382985601286712
 40
0.4914347447761802
 40
0.7614774379117392
 40
0.8314854627512872
 40
0.901933557532517
 40
0.9480415930916479
 40
0.9875237894768358
 40
1.0
 40
1.0
 40
1.0
 40
1.0
 10
688.5585750547324
 20
724.286812650508
 30
0.0
 10
688.5461847395638
 20
724.4045328647716
 30
0.0
 10
688.5214474485257
 20
724.6395615272163
 30
0.0
 10
688.3099400513422
 20
725.0092473414138
 30
0.0
 10
687.8677054121897
 20
725.4222180342639
 30
0.0
 10
686.7154926230616
 20
725.9332753090586
 30
0.0
 10
684.8349065704143
 20
726.0796991856371
 30
0.0
 10
683.0283716764781
 20
725.9580537079323
 30
0.0
 10
681.8851565647151
 20
725.4874802489442
 30
0.0
 10
681.4244552808665
 20
725.1534479693775
 30
0.0
 10
681.1491960142095
 20
724.7675134679865
 30
0.0
 10
681.0605386851943
 20
724.4799262290963
 30
0.0
 10
681.0551534904342
 20
724.3242044401607
 30
0.0
 10
681.0538604018365
 20
724.286812650508
 30
0.0
  0
SPLINE
  5
1B8
330
1F
100
AcDbEntity
  8
0
  6
Continuous
 62
     7
370
    15
100
AcDbSpline
210
0.0
220
0.0
230
1.0
 70
     8
 71
     3
 72
    18
 73
    14
 74
     0
 42
0.00000001
 43
0.00000001
 40
0.0
 40
0.0
 40
0.0
 40
0.0
 40
0.0344352557615552
 40
0.0724914590416368
 40
0.1306344108897793
 40
0.2236190534428579
 40
0.4104356343279528
 40
0.5001955026812468
 40
0.7376499360231784
 40
0.8568696039650716
 40
0.9094902609028019
 40
0.9625687088862026
 40
1.0
 40
1.0
 40
1.0
 40
1.0
 10
681.0538604018365
 20
724.2868126505078
 30
0.0
 10
681.0489399137787
 20
724.3904095384763
 30
0.0
 10
681.0385815368593
 20
724.6084967689883
 30
0.0
 10
680.9439018986163
 20
724.9638032536683
 30
0.0
 10
680.7358341278638
 20
725.3718638161862
 30
0.0
 10
680.2612606451291
 20
725.8247525285495
 30
0.0
 10
679.691597277493
 20
725.9930547408255
 30
0.0
 10
678.9029131376545
 20
726.0449128069313
 30
0.0
 10
678.2106114981581
 20
725.945902155803
 30
0.0
 10
677.6112304453058
 20
725.4902395080422
 30
0.0
 10
677.3476211923946
 20
725.0474528478617
 30
0.0
 10
677.2246176195317
 20
724.6718728761434
 30
0.0
 10
677.2102969726722
 20
724.3994684684134
 30
0.0
 10
677.2043745127593
 20
724.2868126505078
 30
0.0
  0
SPLINE
  5
1B9
330
1F
100
AcDbEntity
  8
0
  6
Continuous
 62
     7
370
    15
100
AcDbSpline
210
0.0
220
0.0
230
1.0
 70
     8
 71
     3
 72
     9
 73
     5
 74
     0
 42
0.00000001
 43
0.00000001
 40
0.0
 40
0.0
 40
0.0
 40
0.0
 40
0.6925334315755821
 40
1.0
 40
1.0
 40
1.0
 40
1.0
 10
677.2043745127593
 20
724.2868126505078
 30
0.0
 10
677.2083431386916
 20
724.4064401237965
 30
0.0
 10
677.2140737298103
 20
724.5791790383879
 30
0.0
 10
677.2567194540909
 20
724.7257512211767
 30
0.0
 10
677.2698315885935
 20
724.7708172672452
 30
0.0
  0
LINE
  5
1BA
330
1F
100
AcDbEntity
  8
0
  6
Continuous
 62
     7
370
    15
100
AcDbLine
 10
679.9828077761
 20
726.2868167036
 30
0.0
 11
679.2035366503
 21
726.2868167036
 31
0.0
  0
LINE
  5
1BB
330
1F
100
AcDbEntity
  8
0
  6
Continuous
 62
     7
370
    15
100
AcDbLine
 10
690.2146435437
 20
726.2868167036
 30
0.0
 11
679.9828077761
 21
726.2868167036
 31
0.0
  0
LINE
  5
1BC
330
1F
100
AcDbEntity
  8
0
  6
Continuous
 62
     7
370
    15
100
AcDbLine
 10
684.806216797
 20
721.3868231648
 30
0.0
 11
681.0538604018
 21
721.3868231648
 31
0.0
  0
LINE
  5
1BD
330
1F
100
AcDbEntity
  8
0
  6
Continuous
 62
     7
370
    15
100
AcDbLine
 10
681.0538604018
 20
724.2868126505
 30
0.0
 11
681.0538604018
 21
721.3868231648
 31
0.0
  0
LINE
  5
1BE
330
1F
100
AcDbEntity
  8
0
  6
Continuous
 62
     7
370
    15
100
AcDbLine
 10
688.5585750547
 20
724.2868126505
 30
0.0
 11
688.5585750547
 21
721.3868231648
 31
0.0
  0
LINE
  5
1BF
330
1F
100
AcDbEntity
  8
0
  6
Continuous
 62
     7
370
    15
100
AcDbLine
 10
688.5585750547
 20
721.3868231648
 30
0.0
 11
684.806216797
 21
721.3868231648
 31
0.0
  0
LINE
  5
1C0
330
1F
100
AcDbEntity
  8
0
  6
Continuous
 62
     7
370
    15
100
AcDbLine
 10
692.2138066125
 20
724.2868126505
 30
0.0
 11
692.2138066125
 21
721.3868231648
 31
0.0
  0
LINE
  5
1C1
330
1F
100
AcDbEntity
  8
0
  6
Continuous
 62
     7
370
    15
100
AcDbLine
 10
692.2138066125
 20
721.3868231648
 30
0.0
 11
690.3861912993
 21
721.3868231648
 31
0.0
  0
LINE
  5
1C2
330
1F
100
AcDbEntity
  8
0
  6
Continuous
 62
     7
370
    15
100
AcDbLine
 10
690.3861912993
 20
721.3868231648
 30
0.0
 11
688.5585750547
 21
721.3868231648
 31
0.0
  0
LINE
  5
1C3
330
1F
100
AcDbEntity
  8
0
  6
Continuous
 62
     7
370
    15
100
AcDbLine
 10
679.1291183886
 20
721.3868231648
 30
0.0
 11
677.2043745128
 21
721.3868231648
 31
0.0
  0
LINE
  5
1C4
330
1F
100
AcDbEntity
  8
0
  6
Continuous
 62
     7
370
    15
100
AcDbLine
 10
677.2043745128
 20
724.2868126505
 30
0.0
 11
677.2043745128
 21
721.3868231648
 31
0.0
  0
LINE
  5
1C5
330
1F
100
AcDbEntity
  8
0
  6
Continuous
 62
     7
370
    15
100
AcDbLine
 10
681.0538604018
 20
721.3868231648
 30
0.0
 11
679.1291183886
 21
721.3868231648
 31
0.0
  0
LINE
  5
1C6
330
1F
100
AcDbEntity
  8
0
  6
Continuous
 62
     7
370
    15
100
AcDbLine
 10
237.1528161152
 20
309.5368177765
 30
0.0
 11
241.1528167709
 21
305.5368245714
 31
0.0
  0
LINE
  5
1C7
330
1F
100
AcDbEntity
  8
0
  6
Continuous
 62
     7
370
    15
100
AcDbLine
 10
271.952816604
 20
305.5368245714
 30
0.0
 11
275.9528172596
 21
309.5368177765
 31
0.0
  0
LINE
  5
1C8
330
1F
100
AcDbEntity
  8
0
  6
Continuous
 62
     7
370
    15
100
AcDbLine
 10
275.9528172596
 20
309.5368177765
 30
0.0
 11
275.9528172596
 21
313.0368174189
 31
0.0
  0
LINE
  5
1C9
330
1F
100
AcDbEntity
  8
0
  6
Continuous
 62
     7
370
    15
100
AcDbLine
 10
237.1528161152
 20
313.0368174189
 30
0.0
 11
237.1528161152
 21
309.5368177765
 31
0.0
  0
LINE
  5
1CA
330
1F
100
AcDbEntity
  8
0
  6
Continuous
 62
     7
370
    15
100
AcDbLine
 10
272.4528176173
 20
313.0368174189
 30
0.0
 11
270.4528163581
 21
315.036821472
 31
0.0
  0
LINE
  5
1CB
330
1F
100
AcDbEntity
  8
0
  6
Continuous
 62
     7
370
    15
100
AcDbLine
 10
242.6528170168
 20
315.036821472
 30
0.0
 11
240.6528157576
 21
313.0368174189
 31
0.0
  0
LINE
  5
1CC
330
1F
100
AcDbEntity
  8
0
  6
Continuous
 62
     7
370
    15
100
AcDbLine
 10
248.5528163075
 20
315.9868152016
 30
0.0
 11
248.5528163075
 21
315.036821472
 31
0.0
  0
LINE
  5
1CD
330
1F
100
AcDbEntity
  8
0
  6
Continuous
 62
     7
370
    15
100
AcDbLine
 10
264.5528170674
 20
315.036821472
 30
0.0
 11
264.5528170674
 21
315.9868152016
 31
0.0
  0
LINE
  5
1CE
330
1F
100
AcDbEntity
  8
0
  6
Continuous
 62
     7
370
    15
100
AcDbLine
 10
286.5528160169
 20
705.9868157976
 30
0.0
 11
281.55281706
 21
705.9868157976
 31
0.0
  0
LINE
  5
1CF
330
1F
100
AcDbEntity
  8
0
  6
Continuous
 62
     7
370
    15
100
AcDbLine
 10
281.55281706
 20
325.986820566
 30
0.0
 11
286.5528160169
 21
325.986820566
 31
0.0
  0
LINE
  5
1D0
330
1F
100
AcDbEntity
  8
0
  6
Continuous
 62
     7
370
    15
100
AcDbLine
 10
231.5528163149
 20
705.9868157976
 30
0.0
 11
226.552817358
 21
705.9868157976
 31
0.0
  0
LINE
  5
1D1
330
1F
100
AcDbEntity
  8
0
  6
Continuous
 62
     7
370
    15
100
AcDbLine
 10
226.552817358
 20
325.986820566
 30
0.0
 11
231.5528163149
 21
325.986820566
 31
0.0
  0
ARC
  5
1D2
330
1F
100
AcDbEntity
  8
0
  6
Continuous
 62
     7
370
    15
100
AcDbCircle
 10
300.4277712637
 20
786.5868181818
 30
0.0
 40
2.000000000000027
100
AcDbArc
 50
270.0
 51
290.1615189104
  0
ARC
  5
1D3
330
1F
100
AcDbEntity
  8
0
  6
Continuous
 62
     7
370
    15
100
AcDbCircle
 10
212.6778621112
 20
786.5868181818
 30
0.0
 40
2.000000000000056
100
AcDbArc
 50
249.7066760883
 51
270.0
  0
LINE
  5
1D4
330
1F
100
AcDbEntity
  8
0
  6
Continuous
 62
     7
370
    15
100
AcDbLine
 10
215.4928160294
 20
796.0025550001
 30
0.0
 11
215.4928160294
 21
795.9868193739
 31
0.0
  0
LINE
  5
1D5
330
1F
100
AcDbEntity
  8
0
  6
Continuous
 62
     7
370
    15
100
AcDbLine
 10
276.812396331
 20
906.6868306273
 30
0.0
 11
276.812396331
 21
910.1868153685
 31
0.0
  0
LINE
  5
1D6
330
1F
100
AcDbEntity
  8
0
  6
Continuous
 62
     7
370
    15
100
AcDbLine
 10
238.3123965397
 20
908.6868048781
 30
0.0
 11
238.3123965397
 21
906.6868306273
 31
0.0
  0
LINE
  5
1D7
330
1F
100
AcDbEntity
  8
0
  6
Continuous
 62
     7
370
    15
100
AcDbLine
 10
276.812396331
 20
910.1868153685
 30
0.0
 11
273.9123975321
 21
913.0868197554
 31
0.0
  0
LINE
  5
1D8
330
1F
100
AcDbEntity
  8
0
  6
Continuous
 62
     7
370
    15
100
AcDbLine
 10
270.0623966216
 20
904.9868167513
 30
0.0
 11
270.0623966216
 21
905.6868136995
 31
0.0
  0
LINE
  5
1D9
330
1F
100
AcDbEntity
  8
0
  6
Continuous
 62
     7
370
    15
100
AcDbLine
 10
245.0623962491
 20
905.6868136995
 30
0.0
 11
245.0623962491
 21
904.9868167513
 31
0.0
  0
LINE
  5
1DA
330
1F
100
AcDbEntity
  8
0
  6
Continuous
 62
     7
370
    15
100
AcDbLine
 10
245.0773970618
 20
906.0868204706
 30
0.0
 11
245.0773970618
 21
905.6868136995
 31
0.0
  0
LINE
  5
1DB
330
1F
100
AcDbEntity
  8
0
  6
Continuous
 62
     7
370
    15
100
AcDbLine
 10
270.0473967402
 20
905.6868136995
 30
0.0
 11
270.0473967402
 21
906.0868204706
 31
0.0
  0
LINE
  5
1DC
330
1F
100
AcDbEntity
  8
0
  6
Continuous
 62
     7
370
    15
100
AcDbLine
 10
269.4123967945
 20
906.0868204706
 30
0.0
 11
269.4123967945
 21
906.6868306273
 31
0.0
  0
LINE
  5
1DD
330
1F
100
AcDbEntity
  8
0
  6
Continuous
 62
     7
370
    15
100
AcDbLine
 10
245.7123970076
 20
906.6868306273
 30
0.0
 11
245.7123970076
 21
906.0868204706
 31
0.0
  0
LINE
  5
1DE
330
1F
100
AcDbEntity
  8
0
  6
Continuous
 62
     7
370
    15
100
AcDbLine
 10
269.9873962834
 20
913.0868197554
 30
0.0
 11
269.9873962834
 21
920.8868325823
 31
0.0
  0
LINE
  5
1DF
330
1F
100
AcDbEntity
  8
0
  6
Continuous
 62
     7
370
    15
100
AcDbLine
 10
245.1373965873
 20
920.8868325823
 30
0.0
 11
245.1373965873
 21
913.0868197554
 31
0.0
  0
LINE
  5
1E0
330
1F
100
AcDbEntity
  8
0
  6
Continuous
 62
     7
370
    15
100
AcDbLine
 10
256.5528166874
 20
305.5368245714
 30
0.0
 11
241.1528167709
 21
305.5368245714
 31
0.0
  0
LINE
  5
1E1
330
1F
100
AcDbEntity
  8
0
  6
Continuous
 62
     7
370
    15
100
AcDbLine
 10
271.952816604
 20
305.5368245714
 30
0.0
 11
256.5528166874
 21
305.5368245714
 31
0.0
  0
LINE
  5
1E2
330
1F
100
AcDbEntity
  8
0
  6
Continuous
 62
     7
370
    15
100
AcDbLine
 10
256.5528166874
 20
309.5368177765
 30
0.0
 11
275.9528172596
 21
309.5368177765
 31
0.0
  0
LINE
  5
1E3
330
1F
100
AcDbEntity
  8
0
  6
Continuous
 62
     7
370
    15
100
AcDbLine
 10
237.1528161152
 20
309.5368177765
 30
0.0
 11
256.5528166874
 21
309.5368177765
 31
0.0
  0
LINE
  5
1E4
330
1F
100
AcDbEntity
  8
0
  6
Continuous
 62
     7
370
    15
100
AcDbLine
 10
256.5528166874
 20
313.0368174189
 30
0.0
 11
237.1528161152
 21
313.0368174189
 31
0.0
  0
LINE
  5
1E5
330
1F
100
AcDbEntity
  8
0
  6
Continuous
 62
     7
370
    15
100
AcDbLine
 10
275.9528172596
 20
313.0368174189
 30
0.0
 11
256.5528166874
 21
313.0368174189
 31
0.0
  0
LINE
  5
1E6
330
1F
100
AcDbEntity
  8
0
  6
Continuous
 62
     7
370
    15
100
AcDbLine
 10
242.6528170168
 20
315.036821472
 30
0.0
 11
270.4528163581
 21
315.036821472
 31
0.0
  0
LINE
  5
1E7
330
1F
100
AcDbEntity
  8
0
  6
Continuous
 62
     7
370
    15
100
AcDbLine
 10
286.5528160169
 20
705.9868157976
 30
0.0
 11
286.5528160169
 21
325.986820566
 31
0.0
  0
LINE
  5
1E8
330
1F
100
AcDbEntity
  8
0
  6
Continuous
 62
     7
370
    15
100
AcDbLine
 10
226.552817358
 20
705.9868157976
 30
0.0
 11
226.552817358
 21
325.986820566
 31
0.0
  0
LINE
  5
1E9
330
1F
100
AcDbEntity
  8
0
  6
Continuous
 62
     7
370
    15
100
AcDbLine
 10
231.5528163149
 20
547.9868197017
 30
0.0
 11
281.55281706
 21
547.9868197017
 31
0.0
  0
LINE
  5
1EA
330
1F
100
AcDbEntity
  8
0
  6
Continuous
 62
     7
370
    15
100
AcDbLine
 10
231.5528163149
 20
483.9868166619
 30
0.0
 11
281.55281706
 21
483.9868166619
 31
0.0
  0
LINE
  5
1EB
330
1F
100
AcDbEntity
  8
0
  6
Continuous
 62
     7
370
    15
100
AcDbLine
 10
231.5528163149
 20
483.9868166619
 30
0.0
 11
231.5528163149
 21
547.9868197017
 31
0.0
  0
LINE
  5
1EC
330
1F
100
AcDbEntity
  8
0
  6
Continuous
 62
     7
370
    15
100
AcDbLine
 10
281.55281706
 20
483.9868166619
 30
0.0
 11
281.55281706
 21
547.9868197017
 31
0.0
  0
LINE
  5
1ED
330
1F
100
AcDbEntity
  8
0
  6
Continuous
 62
     7
370
    15
100
AcDbLine
 10
281.55281706
 20
477.5631719404
 30
0.0
 11
231.5528163149
 21
477.5631719404
 31
0.0
  0
LINE
  5
1EE
330
1F
100
AcDbEntity
  8
0
  6
Continuous
 62
     7
370
    15
100
AcDbLine
 10
231.5528163149
 20
477.5631719404
 30
0.0
 11
231.5528163149
 21
483.9868166619
 31
0.0
  0
LINE
  5
1EF
330
1F
100
AcDbEntity
  8
0
  6
Continuous
 62
     7
370
    15
100
AcDbLine
 10
281.55281706
 20
483.9868166619
 30
0.0
 11
281.55281706
 21
477.5631719404
 31
0.0
  0
LINE
  5
1F0
330
1F
100
AcDbEntity
  8
0
  6
Continuous
 62
     7
370
    15
100
AcDbLine
 10
231.5528163149
 20
554.4104644232
 30
0.0
 11
281.55281706
 21
554.4104644232
 31
0.0
  0
LINE
  5
1F1
330
1F
100
AcDbEntity
  8
0
  6
Continuous
 62
     7
370
    15
100
AcDbLine
 10
231.5528163149
 20
547.9868197017
 30
0.0
 11
231.5528163149
 21
554.4104644232
 31
0.0
  0
LINE
  5
1F2
330
1F
100
AcDbEntity
  8
0
  6
Continuous
 62
     7
370
    15
100
AcDbLine
 10
281.55281706
 20
554.4104644232
 30
0.0
 11
281.55281706
 21
547.9868197017
 31
0.0
  0
LINE
  5
1F3
330
1F
100
AcDbEntity
  8
0
  6
Continuous
 62
     7
370
    15
100
AcDbLine
 10
231.5528163149
 20
324.8098821514
 30
0.0
 11
281.55281706
 21
324.8098821514
 31
0.0
  0
LINE
  5
1F4
330
1F
100
AcDbEntity
  8
0
  6
Continuous
 62
     7
370
    15
100
AcDbLine
 10
231.5528163149
 20
324.8098821514
 30
0.0
 11
231.5528163149
 21
477.5631719404
 31
0.0
  0
LINE
  5
1F5
330
1F
100
AcDbEntity
  8
0
  6
Continuous
 62
     7
370
    15
100
AcDbLine
 10
281.55281706
 20
324.8098821514
 30
0.0
 11
281.55281706
 21
477.5631719404
 31
0.0
  0
LINE
  5
1F6
330
1F
100
AcDbEntity
  8
0
  6
Continuous
 62
     7
370
    15
100
AcDbLine
 10
281.55281706
 20
707.1637542122
 30
0.0
 11
231.5528163149
 21
707.1637542122
 31
0.0
  0
LINE
  5
1F7
330
1F
100
AcDbEntity
  8
0
  6
Continuous
 62
     7
370
    15
100
AcDbLine
 10
231.5528163149
 20
554.4104644232
 30
0.0
 11
231.5528163149
 21
707.1637542122
 31
0.0
  0
LINE
  5
1F8
330
1F
100
AcDbEntity
  8
0
  6
Continuous
 62
     7
370
    15
100
AcDbLine
 10
281.55281706
 20
554.4104644232
 30
0.0
 11
281.55281706
 21
707.1637542122
 31
0.0
  0
LINE
  5
1F9
330
1F
100
AcDbEntity
  8
0
  6
Continuous
 62
     7
370
    15
100
AcDbLine
 10
281.55281706
 20
316.9667155617
 30
0.0
 11
231.5528163149
 21
316.9667155617
 31
0.0
  0
LINE
  5
1FA
330
1F
100
AcDbEntity
  8
0
  6
Continuous
 62
     7
370
    15
100
AcDbLine
 10
231.5528163149
 20
316.9667155617
 30
0.0
 11
231.5528163149
 21
324.8098821514
 31
0.0
  0
LINE
  5
1FB
330
1F
100
AcDbEntity
  8
0
  6
Continuous
 62
     7
370
    15
100
AcDbLine
 10
281.55281706
 20
324.8098821514
 30
0.0
 11
281.55281706
 21
316.9667155617
 31
0.0
  0
LINE
  5
1FC
330
1F
100
AcDbEntity
  8
0
  6
Continuous
 62
     7
370
    15
100
AcDbLine
 10
231.5528163149
 20
715.0069208019
 30
0.0
 11
281.55281706
 21
715.0069208019
 31
0.0
  0
LINE
  5
1FD
330
1F
100
AcDbEntity
  8
0
  6
Continuous
 62
     7
370
    15
100
AcDbLine
 10
231.5528163149
 20
707.1637542122
 30
0.0
 11
231.5528163149
 21
715.0069208019
 31
0.0
  0
LINE
  5
1FE
330
1F
100
AcDbEntity
  8
0
  6
Continuous
 62
     7
370
    15
100
AcDbLine
 10
281.55281706
 20
715.0069208019
 30
0.0
 11
281.55281706
 21
707.1637542122
 31
0.0
  0
LINE
  5
1FF
330
1F
100
AcDbEntity
  8
0
  6
Continuous
 62
     7
370
    15
100
AcDbLine
 10
231.5528163149
 20
315.9868152016
 30
0.0
 11
281.55281706
 21
315.9868152016
 31
0.0
  0
LINE
  5
200
330
1F
100
AcDbEntity
  8
0
  6
Continuous
 62
     7
370
    15
100
AcDbLine
 10
231.5528163149
 20
315.9868152016
 30
0.0
 11
231.5528163149
 21
316.9667155617
 31
0.0
  0
LINE
  5
201
330
1F
100
AcDbEntity
  8
0
  6
Continuous
 62
     7
370
    15
100
AcDbLine
 10
281.55281706
 20
315.9868152016
 30
0.0
 11
281.55281706
 21
316.9667155617
 31
0.0
  0
LINE
  5
202
330
1F
100
AcDbEntity
  8
0
  6
Continuous
 62
     7
370
    15
100
AcDbLine
 10
231.5528163149
 20
715.0069208019
 30
0.0
 11
231.5528163149
 21
715.9868211621
 31
0.0
  0
LINE
  5
203
330
1F
100
AcDbEntity
  8
0
  6
Continuous
 62
     7
370
    15
100
AcDbLine
 10
281.55281706
 20
715.0069208019
 30
0.0
 11
281.55281706
 21
715.9868211621
 31
0.0
  0
SPLINE
  5
204
330
1F
100
AcDbEntity
  8
0
  6
Continuous
 62
     7
370
    15
100
AcDbSpline
210
0.0
220
0.0
230
1.0
 70
     8
 71
     3
 72
    12
 73
     8
 74
     0
 42
0.00000001
 43
0.00000001
 40
0.0
 40
0.0
 40
0.0
 40
0.0
 40
0.1395970922188361
 40
0.4229240632435811
 40
0.7082979858786232
 40
0.9124036575179426
 40
1.0
 40
1.0
 40
1.0
 40
1.0
 10
300.1844448431428
 20
785.313803064174
 30
0.0
 10
300.2528796975919
 20
785.3382254911508
 30
0.0
 10
300.4602102819976
 20
785.4122158005987
 30
0.0
 10
300.7471964003988
 20
785.6829849599243
 30
0.0
 10
301.004275820189
 20
786.0336572360986
 30
0.0
 10
301.1055677096087
 20
786.3631508017421
 30
0.0
 10
301.112646921062
 20
786.5351568836599
 30
0.0
 10
301.1147727652486
 20
786.5868092649644
 30
0.0
  0
SPLINE
  5
205
330
1F
100
AcDbEntity
  8
0
  6
Continuous
 62
     7
370
    15
100
AcDbSpline
210
0.0
220
0.0
230
1.0
 70
     8
 71
     3
 72
    13
 73
     9
 74
     0
 42
0.00000001
 43
0.00000001
 40
0.0
 40
0.0
 40
0.0
 40
0.0
 40
0.0623165160283513
 40
0.1243948920775262
 40
0.2242447158906363
 40
0.3926540209029691
 40
0.8702306669194058
 40
1.0
 40
1.0
 40
1.0
 40
1.0
 10
301.1147727652486
 20
786.5868092649644
 30
0.0
 10
301.1147672024447
 20
786.4685029083046
 30
0.0
 10
301.1147560980948
 20
786.2323422978161
 30
0.0
 10
301.1146686400469
 20
785.856093976142
 30
0.0
 10
301.1144879149236
 20
785.4231391428996
 30
0.0
 10
301.1139599119899
 20
784.8404532904242
 30
0.0
 10
301.1133742687758
 20
784.7032207871474
 30
0.0
 10
301.1129150972883
 20
784.7221222638368
 30
0.0
 10
301.112816987842
 20
784.7261608713333
 30
0.0
  0
LINE
  5
206
330
1F
100
AcDbEntity
  8
0
  6
Continuous
 62
     7
370
    15
100
AcDbLine
 10
299.9890682681
 20
784.5868052118
 30
0.0
 11
300.4277696296
 21
784.5868052118
 31
0.0
  0
LINE
  5
207
330
1F
100
AcDbEntity
  8
0
  6
Continuous
 62
     7
370
    15
100
AcDbLine
 10
301.1147727652
 20
786.586809265
 30
0.0
 11
301.1147727652
 21
788.7754918211
 31
0.0
  0
LINE
  5
208
330
1F
100
AcDbEntity
  8
0
  6
Continuous
 62
     7
370
    15
100
AcDbLine
 10
301.1300464555
 20
786.586809265
 30
0.0
 11
301.1300464555
 21
788.8323248499
 31
0.0
  0
SPLINE
  5
209
330
1F
100
AcDbEntity
  8
0
  6
Continuous
 62
     7
370
    15
100
AcDbSpline
210
0.0
220
0.0
230
1.0
 70
     8
 71
     3
 72
    14
 73
    10
 74
     0
 42
0.00000001
 43
0.00000001
 40
0.0
 40
0.0
 40
0.0
 40
0.0
 40
0.1952475965202673
 40
0.5120216996847604
 40
0.7021784897397078
 40
0.8186077121156602
 40
0.9017357060727872
 40
0.9668367582367833
 40
1.0
 40
1.0
 40
1.0
 40
1.0
 10
211.9928163870271
 20
784.7261906736557
 30
0.0
 10
211.9927256653802
 20
784.7239879733011
 30
0.0
 10
211.9924877548874
 20
784.7182115622232
 30
0.0
 10
211.9921635512428
 20
784.8628353458065
 30
0.0
 10
211.9918867332794
 20
785.2181485208367
 30
0.0
 10
211.9917301750316
 20
785.6222188916146
 30
0.0
 10
211.9916553349657
 20
786.0108483305945
 30
0.0
 10
211.9916190566668
 20
786.3377183705279
 30
0.0
 10
211.9916174019887
 20
786.523955909997
 30
0.0
 10
211.991616843551
 20
786.5868092649644
 30
0.0
  0
SPLINE
  5
20A
330
1F
100
AcDbEntity
  8
0
  6
Continuous
 62
     7
370
    15
100
AcDbSpline
210
0.0
220
0.0
230
1.0
 70
     8
 71
     3
 72
    11
 73
     7
 74
     0
 42
0.00000001
 43
0.00000001
 40
0.0
 40
0.0
 40
0.0
 40
0.0
 40
0.2003238559571567
 40
0.3998819720835944
 40
0.7208618120959756
 40
1.0
 40
1.0
 40
1.0
 40
1.0
 10
211.991616843551
 20
786.5868092649644
 30
0.0
 10
212.0024052649824
 20
786.4683558765038
 30
0.0
 10
212.0239408690025
 20
786.2319018887782
 30
0.0
 10
212.2116532995374
 20
785.8582926747342
 30
0.0
 10
212.5057448203692
 20
785.5168417645137
 30
0.0
 10
212.7892667664391
 20
785.3783839716855
 30
0.0
 10
212.9211438282426
 20
785.3139818781083
 30
0.0
  0
LINE
  5
20B
330
1F
100
AcDbEntity
  8
0
  6
Continuous
 62
     7
370
    15
100
AcDbLine
 10
212.6778637453
 20
784.5868052118
 30
0.0
 11
213.1165651067
 21
784.5868052118
 31
0.0
  0
LINE
  5
20C
330
1F
100
AcDbEntity
  8
0
  6
Continuous
 62
     7
370
    15
100
AcDbLine
 10
211.9916168436
 20
786.586809265
 30
0.0
 11
211.9916168436
 21
788.7726904028
 31
0.0
  0
LINE
  5
20D
330
1F
100
AcDbEntity
  8
0
  6
Continuous
 62
     7
370
    15
100
AcDbLine
 10
211.9115529045
 20
786.586809265
 30
0.0
 11
211.9115529045
 21
789.0705944174
 31
0.0
  0
LINE
  5
20E
330
1F
100
AcDbEntity
  8
0
  6
Continuous
 62
     7
370
    15
100
AcDbLine
 10
228.3278176024
 20
727.9868156784
 30
0.0
 11
284.7778157725
 21
727.9868156784
 31
0.0
  0
LINE
  5
20F
330
1F
100
AcDbEntity
  8
0
  6
Continuous
 62
     7
370
    15
100
AcDbLine
 10
213.2778180226
 20
783.9868248575
 30
0.0
 11
228.3278176024
 21
727.9868156784
 31
0.0
  0
LINE
  5
210
330
1F
100
AcDbEntity
  8
0
  6
Continuous
 62
     7
370
    15
100
AcDbLine
 10
213.2778180226
 20
783.9868248575
 30
0.0
 11
299.8278153523
 21
783.9868248575
 31
0.0
  0
LINE
  5
211
330
1F
100
AcDbEntity
  8
0
  6
Continuous
 62
     7
370
    15
100
AcDbLine
 10
284.7778157725
 20
727.9868156784
 30
0.0
 11
299.8278153523
 21
783.9868248575
 31
0.0
  0
LINE
  5
212
330
1F
100
AcDbEntity
  8
0
  6
Continuous
 62
     7
370
    15
100
AcDbLine
 10
231.5528163149
 20
715.9868211621
 30
0.0
 11
281.55281706
 21
715.9868211621
 31
0.0
  0
LWPOLYLINE
  5
213
330
1F
100
AcDbEntity
  8
0
  6
Continuous
 62
     7
370
    15
100
AcDbPolyline
 90
       10
 70
   128
 43
0.0
 10
228.3278176024
 20
727.9868156784
 10
228.8878311797
 20
725.9030372971
 10
229.4308313563
 20
723.8825739496
 10
229.9403169586
 20
721.9868184202
 10
230.400807543
 20
720.2733636969
 10
230.798310919
 20
718.7942893379
 10
231.1207478329
 20
717.5945074433
 10
231.3583244964
 20
716.7105109566
 10
231.5038212969
 20
716.1691219681
 10
231.5528163149
 20
715.9868211621
  0
LWPOLYLINE
  5
214
330
1F
100
AcDbEntity
  8
0
  6
Continuous
 62
     7
370
    15
100
AcDbPolyline
 90
       10
 70
   128
 43
0.0
 10
281.55281706
 20
715.9868211621
 10
281.601812078
 20
716.1691219681
 10
281.7473088785
 20
716.7105109566
 10
281.984885542
 20
717.5945074433
 10
282.3073224559
 20
718.7942893379
 10
282.7048258319
 20
720.2733636969
 10
283.1653164162
 20
721.9868184202
 10
283.6748020186
 20
723.8825739496
 10
284.2178021952
 20
725.9030372971
 10
284.7778157725
 20
727.9868156784
  0
LWPOLYLINE
  5
215
330
1F
100
AcDbEntity
  8
0
  6
Continuous
 62
     7
370
    15
100
AcDbPolyline
 90
       10
 70
   128
 43
0.0
 10
210.0528155847
 20
795.9868193739
 10
210.1018106028
 20
795.8045185679
 10
210.2473092659
 20
795.2631295794
 10
210.4848859294
 20
794.3791330927
 10
210.8073247059
 20
793.179351198
 10
211.2048280819
 20
791.7002619379
 10
211.665314941
 20
789.9868072146
 10
212.1748005434
 20
788.0910516852
 10
212.7178025826
 20
786.0706032389
 10
213.2778180226
 20
783.9868248575
  0
LINE
  5
216
330
1F
100
AcDbEntity
  8
0
  6
Continuous
 62
     7
370
    15
100
AcDbLine
 10
210.0528155847
 20
795.9868193739
 30
0.0
 11
215.7996756419
 21
795.9868193739
 31
0.0
  0
LINE
  5
217
330
1F
100
AcDbEntity
  8
0
  6
Continuous
 62
     7
370
    15
100
AcDbLine
 10
299.3251209541
 20
795.9868193739
 30
0.0
 11
303.0528177901
 21
795.9868193739
 31
0.0
  0
LWPOLYLINE
  5
218
330
1F
100
AcDbEntity
  8
0
  6
Continuous
 62
     7
370
    15
100
AcDbPolyline
 90
       10
 70
   128
 43
0.0
 10
299.8278153523
 20
783.9868248575
 10
300.3878307923
 20
786.0706032389
 10
300.9308328315
 20
788.0910516852
 10
301.4403184339
 20
789.9868072146
 10
301.9008052929
 20
791.7002619379
 10
302.2983086689
 20
793.179351198
 10
302.6207474454
 20
794.3791330927
 10
302.8583241089
 20
795.2631295794
 10
303.0038227721
 20
795.8045185679
 10
303.0528177901
 20
795.9868193739
  0
CIRCLE
  5
219
330
1F
100
AcDbEntity
  8
0
  6
Continuous
 62
     7
370
    15
100
AcDbCircle
 10
257.5623966942
 20
854.0868181818
 30
0.0
 40
4.500000000115023
  0
LINE
  5
21A
330
1F
100
AcDbEntity
  8
0
  6
Continuous
 62
     7
370
    15
100
AcDbLine
 10
254.7252556237
 20
854.6196998232
 30
0.0
 11
256.6053162432
 21
856.810289728
 31
0.0
  0
LINE
  5
21B
330
1F
100
AcDbEntity
  8
0
  6
Continuous
 62
     7
370
    15
100
AcDbLine
 10
255.682336136
 20
851.8962145918
 30
0.0
 11
254.7252556237
 21
854.6196998232
 31
0.0
  0
LINE
  5
21C
330
1F
100
AcDbEntity
  8
0
  6
Continuous
 62
     7
370
    15
100
AcDbLine
 10
258.5194770641
 20
851.3633490675
 30
0.0
 11
255.682336136
 21
851.8962145918
 31
0.0
  0
LINE
  5
21D
330
1F
100
AcDbEntity
  8
0
  6
Continuous
 62
     7
370
    15
100
AcDbLine
 10
260.3995377126
 20
853.5539389723
 30
0.0
 11
258.5194770641
 21
851.3633490675
 31
0.0
  0
LINE
  5
21E
330
1F
100
AcDbEntity
  8
0
  6
Continuous
 62
     7
370
    15
100
AcDbLine
 10
259.4424573167
 20
856.2774242037
 30
0.0
 11
260.3995377126
 21
853.5539389723
 31
0.0
  0
LINE
  5
21F
330
1F
100
AcDbEntity
  8
0
  6
Continuous
 62
     7
370
    15
100
AcDbLine
 10
256.6053162432
 20
856.810289728
 30
0.0
 11
259.4424573167
 21
856.2774242037
 31
0.0
  0
CIRCLE
  5
220
330
1F
100
AcDbEntity
  8
0
  6
Continuous
 62
     7
370
    15
100
AcDbCircle
 10
257.5623966942
 20
854.0868181818
 30
0.0
 40
5.0
  0
CIRCLE
  5
221
330
1F
100
AcDbEntity
  8
0
  6
Continuous
 62
     7
370
    15
100
AcDbCircle
 10
257.5623966942
 20
854.0868181818
 30
0.0
 40
7.5
  0
SPLINE
  5
222
330
1F
100
AcDbEntity
  8
0
  6
Continuous
 62
     7
370
    15
100
AcDbSpline
210
0.0
220
0.0
230
1.0
 70
     8
 71
     3
 72
    11
 73
     7
 74
     0
 42
0.00000001
 43
0.00000001
 40
0.0
 40
0.0
 40
0.0
 40
0.0
 40
0.2645357127541501
 40
0.5347694963381631
 40
0.7652648321631365
 40
1.0
 40
1.0
 40
1.0
 40
1.0
 10
262.1811990088814
 20
846.086818086452
 30
0.0
 10
262.5820144564316
 20
846.781047344556
 30
0.0
 10
263.3922788732069
 20
848.1844594843924
 30
0.0
 10
264.5927910128192
 20
850.2638052867342
 30
0.0
 10
265.7406892682875
 20
852.2520343598121
 30
0.0
 10
266.4447580365473
 20
853.4715099278218
 30
0.0
 10
266.8000006510907
 20
854.086804496593
 30
0.0
  0
SPLINE
  5
223
330
1F
100
AcDbEntity
  8
0
  6
Continuous
 62
     7
370
    15
100
AcDbSpline
210
0.0
220
0.0
230
1.0
 70
    24
 71
     3
 72
    11
 73
     7
 74
     0
 42
0.00000001
 43
0.00000001
 40
0.0
 40
0.0
 40
0.0
 40
0.0
 40
0.247741216045917
 40
0.4999975664812947
 40
0.7472711084676884
 40
0.9999999999999999
 40
0.9999999999999999
 40
0.9999999999999999
 40
0.9999999999999999
 10
252.9435945603096
 20
846.086818086452
 30
0.0
 10
253.6938274505147
 20
846.086818086452
 30
0.0
 10
255.2079663789653
 20
846.0868180864521
 30
0.0
 10
257.5468144709355
 20
846.086818086452
 30
0.0
 10
259.9011949655101
 20
846.0868180864521
 30
0.0
 10
261.4156896227383
 20
846.086818086452
 30
0.0
 10
262.1811990088814
 20
846.086818086452
 30
0.0
  0
SPLINE
  5
224
330
1F
100
AcDbEntity
  8
0
  6
Continuous
 62
     7
370
    15
100
AcDbSpline
210
0.0
220
0.0
230
1.0
 70
     8
 71
     3
 72
    11
 73
     7
 74
     0
 42
0.00000001
 43
0.00000001
 40
0.0
 40
0.0
 40
0.0
 40
0.0
 40
0.2645357275417329
 40
0.5347694766672955
 40
0.7652648042489306
 40
1.0
 40
1.0
 40
1.0
 40
1.0
 10
248.3247922196084
 20
854.086804496593
 30
0.0
 10
248.7256078888394
 20
853.392575276712
 30
0.0
 10
249.5358726786528
 20
851.9891633442182
 30
0.0
 10
250.7363841788692
 20
849.9098171805315
 30
0.0
 10
251.8842824265168
 20
847.9215880681288
 30
0.0
 10
252.5883516758254
 20
846.702112634549
 30
0.0
 10
252.9435945603096
 20
846.086818086452
 30
0.0
  0
SPLINE
  5
225
330
1F
100
AcDbEntity
  8
0
  6
Continuous
 62
     7
370
    15
100
AcDbSpline
210
0.0
220
0.0
230
1.0
 70
     8
 71
     3
 72
    11
 73
     7
 74
     0
 42
0.00000001
 43
0.00000001
 40
0.0
 40
0.0
 40
0.0
 40
0.0
 40
0.2645350054653738
 40
0.5347680293465472
 40
0.7652627630607993
 40
1.0
 40
1.0
 40
1.0
 40
1.0
 10
252.9435945603096
 20
862.0868207090564
 30
0.0
 10
252.5427788842273
 20
861.3925915508604
 30
0.0
 10
251.732514061798
 20
859.9891797105628
 30
0.0
 10
250.5320039478172
 20
857.9098325119186
 30
0.0
 10
249.3840966626321
 20
855.9215995167324
 30
0.0
 10
248.6800338435764
 20
854.7021097253166
 30
0.0
 10
248.3247922196084
 20
854.086804496593
 30
0.0
  0
SPLINE
  5
226
330
1F
100
AcDbEntity
  8
0
  6
Continuous
 62
     7
370
    15
100
AcDbSpline
210
0.0
220
0.0
230
1.0
 70
    24
 71
     3
 72
    11
 73
     7
 74
     0
 42
0.00000001
 43
0.00000001
 40
0.0
 40
0.0
 40
0.0
 40
0.0
 40
0.2477412402716938
 40
0.4999975907088516
 40
0.7472711326969903
 40
1.0
 40
1.0
 40
1.0
 40
1.0
 10
262.1811990088814
 20
862.0868207090564
 30
0.0
 10
261.4309660405602
 20
862.0868207090564
 30
0.0
 10
259.9168270291484
 20
862.0868207090565
 30
0.0
 10
257.5779788674087
 20
862.0868207090564
 30
0.0
 10
255.2235984428061
 20
862.0868207090562
 30
0.0
 10
253.7091038683285
 20
862.0868207090564
 30
0.0
 10
252.9435945603096
 20
862.0868207090564
 30
0.0
  0
SPLINE
  5
227
330
1F
100
AcDbEntity
  8
0
  6
Continuous
 62
     7
370
    15
100
AcDbSpline
210
0.0
220
0.0
230
1.0
 70
     8
 71
     3
 72
    11
 73
     7
 74
     0
 42
0.00000001
 43
0.00000001
 40
0.0
 40
0.0
 40
0.0
 40
0.0
 40
0.2645376654038468
 40
0.5347707226259988
 40
0.7652654389021548
 40
1.0
 40
1.0
 40
1.0
 40
1.0
 10
266.8000006510907
 20
854.086804496593
 30
0.0
 10
266.399186519514
 20
854.7810444042984
 30
0.0
 10
265.5889288858619
 20
856.1844709316805
 30
0.0
 10
264.3884083072924
 20
858.2638209277991
 30
0.0
 10
263.2405110975334
 20
860.2520508195793
 30
0.0
 10
262.536441872196
 20
861.4715262023255
 30
0.0
 10
262.1811990088814
 20
862.0868207090564
 30
0.0
  0
SPLINE
  5
228
330
1F
100
AcDbEntity
  8
0
  6
Continuous
 62
     7
370
    15
100
AcDbSpline
210
0.0
220
0.0
230
1.0
 70
     8
 71
     3
 72
    19
 73
    15
 74
     0
 42
0.00000001
 43
0.00000001
 40
0.0
 40
0.0
 40
0.0
 40
0.0
 40
0.1197216595726447
 40
0.184889658025508
 40
0.2499984777969823
 40
0.3151663402250449
 40
0.3802795814712461
 40
0.4999991438726823
 40
0.6197218238789741
 40
0.6848889353160681
 40
0.7500000972504184
 40
0.8151683358628153
 40
0.880278935070991
 40
1.0
 40
1.0
 40
1.0
 40
1.0
 10
228.0612339659625
 20
811.0868216627307
 30
0.0
 10
227.6840009986709
 20
811.1271185107034
 30
0.0
 10
227.1014291017607
 20
811.189350110798
 30
0.0
 10
226.4021124212658
 20
811.5629308275003
 30
0.0
 10
225.9253616656158
 20
811.9506652785046
 30
0.0
 10
225.5352614738846
 20
812.4279731845087
 30
0.0
 10
225.1736632382195
 20
813.1271281716279
 30
0.0
 10
224.9884181990861
 20
814.0868213021262
 30
0.0
 10
225.1736812144096
 20
815.0466911209115
 30
0.0
 10
225.5353715378237
 20
815.7458133774707
 30
0.0
 10
225.9256219625459
 20
816.2232108038714
 30
0.0
 10
226.4022583009078
 20
816.6108295672743
 30
0.0
 10
227.1016085443148
 20
816.9843280690279
 30
0.0
 10
227.6840008419486
 20
817.0465202567818
 30
0.0
 10
228.0612339659625
 20
817.0868040197558
 30
0.0
  0
SPLINE
  5
229
330
1F
100
AcDbEntity
  8
0
  6
Continuous
 62
     7
370
    15
100
AcDbSpline
210
0.0
220
0.0
230
1.0
 70
     8
 71
     3
 72
    19
 73
    15
 74
     0
 42
0.00000001
 43
0.00000001
 40
0.0
 40
0.0
 40
0.0
 40
0.0
 40
0.1197210430704055
 40
0.1848890296249329
 40
0.2499998440092597
 40
0.3151676945390112
 40
0.3802781969636388
 40
0.5000008551110323
 40
0.6197203956541393
 40
0.6848904044837206
 40
0.7500015545301122
 40
0.8151677749657479
 40
0.8802783622860675
 40
1.0
 40
1.0
 40
1.0
 40
1.0
 10
228.0612339659625
 20
817.0868040197558
 30
0.0
 10
228.4384665636522
 20
817.0465189900127
 30
0.0
 10
229.0210389096744
 20
816.9843055322392
 30
0.0
 10
229.720365662157
 20
816.6107267941047
 30
0.0
 10
230.1970978003556
 20
816.2229592910116
 30
0.0
 10
230.5871984517413
 20
815.7456587609364
 30
0.0
 10
230.9488222031763
 20
815.046514761876
 30
0.0
 10
231.1340509145292
 20
814.0868203374295
 30
0.0
 10
230.9487749228581
 20
813.1269502443474
 30
0.0
 10
230.587103715913
 20
812.4278195390074
 30
0.0
 10
230.1968547052045
 20
811.9504136348685
 30
0.0
 10
229.7201994154546
 20
811.5628280819502
 30
0.0
 10
229.0208593422057
 20
811.1893275553593
 30
0.0
 10
228.4384674727024
 20
811.127117238791
 30
0.0
 10
228.0612339659625
 20
811.0868216627307
 30
0.0
  0
LINE
  5
22A
330
1F
100
AcDbEntity
  8
0
  6
Continuous
 62
     7
370
    15
100
AcDbLine
 10
226.9065336718
 20
816.0868168944
 30
0.0
 11
229.2159342601
 21
816.0868168944
 31
0.0
  0
LINE
  5
22B
330
1F
100
AcDbEntity
  8
0
  6
Continuous
 62
     7
370
    15
100
AcDbLine
 10
225.7518333777
 20
814.0868128412
 30
0.0
 11
226.9065336718
 21
816.0868168944
 31
0.0
  0
LINE
  5
22C
330
1F
100
AcDbEntity
  8
0
  6
Continuous
 62
     7
370
    15
100
AcDbLine
 10
226.9065336718
 20
812.0868087881
 30
0.0
 11
225.7518333777
 21
814.0868128412
 31
0.0
  0
LINE
  5
22D
330
1F
100
AcDbEntity
  8
0
  6
Continuous
 62
     7
370
    15
100
AcDbLine
 10
229.2159342601
 20
812.0868087881
 30
0.0
 11
226.9065336718
 21
812.0868087881
 31
0.0
  0
LINE
  5
22E
330
1F
100
AcDbEntity
  8
0
  6
Continuous
 62
     7
370
    15
100
AcDbLine
 10
230.3706345542
 20
814.0868128412
 30
0.0
 11
229.2159342601
 21
812.0868087881
 31
0.0
  0
LINE
  5
22F
330
1F
100
AcDbEntity
  8
0
  6
Continuous
 62
     7
370
    15
100
AcDbLine
 10
229.2159342601
 20
816.0868168944
 30
0.0
 11
230.3706345542
 21
814.0868128412
 31
0.0
  0
SPLINE
  5
230
330
1F
100
AcDbEntity
  8
0
  6
Continuous
 62
     7
370
    15
100
AcDbSpline
210
0.0
220
0.0
230
1.0
 70
     8
 71
     3
 72
    19
 73
    15
 74
     0
 42
0.00000001
 43
0.00000001
 40
0.0
 40
0.0
 40
0.0
 40
0.0
 40
0.1197216350387595
 40
0.184889620137112
 40
0.2499984265662027
 40
0.3151662756397824
 40
0.3802795947778644
 40
0.4999991326458451
 40
0.6197217881180427
 40
0.6848889774559594
 40
0.7500001260474461
 40
0.8151681976043897
 40
0.8802789596047544
 40
1.0
 40
1.0
 40
1.0
 40
1.0
 10
287.0612343235903
 20
811.0868216627307
 30
0.0
 10
286.6840013490583
 20
811.1271185070597
 30
0.0
 10
286.1014294409663
 20
811.1893501015272
 30
0.0
 10
285.4021128154
 20
811.5629308458721
 30
0.0
 10
284.9253618837424
 20
811.9506652082999
 30
0.0
 10
284.5352621712406
 20
812.4279736700213
 30
0.0
 10
284.1736607422824
 20
813.1271273851264
 30
0.0
 10
283.9884173596148
 20
814.0868213194201
 30
0.0
 10
284.1736787559722
 20
815.0466918541794
 30
0.0
 10
284.5353721612715
 20
815.745812989024
 30
0.0
 10
284.9256221523862
 20
816.2232101325133
 30
0.0
 10
285.4022572987918
 20
816.610830692467
 30
0.0
 10
286.1016087640136
 20
816.9843272557522
 30
0.0
 10
286.6840013635247
 20
817.0465199603775
 30
0.0
 10
287.0612343235903
 20
817.0868040197558
 30
0.0
  0
SPLINE
  5
231
330
1F
100
AcDbEntity
  8
0
  6
Continuous
 62
     7
370
    15
100
AcDbSpline
210
0.0
220
0.0
230
1.0
 70
     8
 71
     3
 72
    19
 73
    15
 74
     0
 42
0.00000001
 43
0.00000001
 40
0.0
 40
0.0
 40
0.0
 40
0.0
 40
0.1197210690083916
 40
0.1848890696817931
 40
0.249999744483
 40
0.3151677345260161
 40
0.3802781598179225
 40
0.5000008439036518
 40
0.6197204103844194
 40
0.6848903420820853
 40
0.7500016316431711
 40
0.8151675587862152
 40
0.8802783363479525
 40
1.0
 40
1.0
 40
1.0
 40
1.0
 10
287.0612343235903
 20
817.0868040197558
 30
0.0
 10
287.4384668357489
 20
817.0465188992089
 30
0.0
 10
288.0210390496826
 20
816.9843053012047
 30
0.0
 10
288.7203660211189
 20
816.6107274816005
 30
0.0
 10
289.1970960936464
 20
816.222957940158
 30
0.0
 10
289.587199415735
 20
815.7456599871808
 30
0.0
 10
289.9488194583632
 20
815.0465137826337
 30
0.0
 10
290.134050260103
 20
814.0868203203728
 30
0.0
 10
289.9487721418341
 20
813.1269512764012
 30
0.0
 10
289.5871047523008
 20
812.4278182159883
 30
0.0
 10
289.1968530269701
 20
811.9504157272792
 30
0.0
 10
288.7202011698938
 20
811.5628262515473
 30
0.0
 10
288.0208596019867
 20
811.1893286087244
 30
0.0
 10
287.438467573698
 20
811.1271176295695
 30
0.0
 10
287.0612343235903
 20
811.0868216627307
 30
0.0
  0
LINE
  5
232
330
1F
100
AcDbEntity
  8
0
  6
Continuous
 62
     7
370
    15
100
AcDbLine
 10
285.9065340295
 20
816.0868168944
 30
0.0
 11
288.2159327551
 21
816.0868168944
 31
0.0
  0
LINE
  5
233
330
1F
100
AcDbEntity
  8
0
  6
Continuous
 62
     7
370
    15
100
AcDbLine
 10
284.7518337353
 20
814.0868128412
 30
0.0
 11
285.9065340295
 21
816.0868168944
 31
0.0
  0
LINE
  5
234
330
1F
100
AcDbEntity
  8
0
  6
Continuous
 62
     7
370
    15
100
AcDbLine
 10
285.9065340295
 20
812.0868087881
 30
0.0
 11
284.7518337353
 21
814.0868128412
 31
0.0
  0
LINE
  5
235
330
1F
100
AcDbEntity
  8
0
  6
Continuous
 62
     7
370
    15
100
AcDbLine
 10
288.2159327551
 20
812.0868087881
 30
0.0
 11
285.9065340295
 21
812.0868087881
 31
0.0
  0
LINE
  5
236
330
1F
100
AcDbEntity
  8
0
  6
Continuous
 62
     7
370
    15
100
AcDbLine
 10
289.3706349119
 20
814.0868128412
 30
0.0
 11
288.2159327551
 21
812.0868087881
 31
0.0
  0
LINE
  5
237
330
1F
100
AcDbEntity
  8
0
  6
Continuous
 62
     7
370
    15
100
AcDbLine
 10
288.2159327551
 20
816.0868168944
 30
0.0
 11
289.3706349119
 21
814.0868128412
 31
0.0
  0
SPLINE
  5
238
330
1F
100
AcDbEntity
  8
0
  6
Continuous
 62
     7
370
    15
100
AcDbSpline
210
0.0
220
0.0
230
1.0
 70
     8
 71
     3
 72
    19
 73
    15
 74
     0
 42
0.00000001
 43
0.00000001
 40
0.0
 40
0.0
 40
0.0
 40
0.0
 40
0.1197208355178542
 40
0.1848887090949005
 40
0.249999410600862
 40
0.3151671481533683
 40
0.3802775377001714
 40
0.4999999882922136
 40
0.6197224388842557
 40
0.6848895167022282
 40
0.7500005538696725
 40
0.815168513905162
 40
0.8802791644821459
 40
1.0
 40
1.0
 40
1.0
 40
1.0
 10
279.0623971655064
 20
894.0868259542651
 30
0.0
 10
278.6851645654623
 20
894.1271109846922
 30
0.0
 10
278.1025922158042
 20
894.1893244435216
 30
0.0
 10
277.4032654811824
 20
894.5629031764686
 30
0.0
 10
276.9265332857514
 20
894.9506706961838
 30
0.0
 10
276.5364328494192
 20
895.4279711638014
 30
0.0
 10
276.174808071271
 20
896.127115461048
 30
0.0
 10
275.989584614766
 20
897.0868176327245
 30
0.0
 10
276.1748407378757
 20
898.0466958941147
 30
0.0
 10
276.5365351732104
 20
898.7458173302992
 30
0.0
 10
276.9267849487941
 20
899.2232144107339
 30
0.0
 10
277.4034201526015
 20
899.6108349874811
 30
0.0
 10
278.102771599926
 20
899.9843315455302
 30
0.0
 10
278.6851642030807
 20
900.0465242512212
 30
0.0
 10
279.0623971655064
 20
900.0868083112903
 30
0.0
  0
SPLINE
  5
239
330
1F
100
AcDbEntity
  8
0
  6
Continuous
 62
     7
370
    15
100
AcDbSpline
210
0.0
220
0.0
230
1.0
 70
     8
 71
     3
 72
    19
 73
    15
 74
     0
 42
0.00000001
 43
0.00000001
 40
0.0
 40
0.0
 40
0.0
 40
0.0
 40
0.1197209152041696
 40
0.1848886560308123
 40
0.2499995545641774
 40
0.3151673354923991
 40
0.3802777683767466
 40
0.5000002614902513
 40
0.619722754603756
 40
0.6848898757970047
 40
0.7500009563024245
 40
0.8151671071382713
 40
0.8802790847958305
 40
1.0
 40
1.0
 40
1.0
 40
1.0
 10
279.0623971655064
 20
900.0868083112903
 30
0.0
 10
279.4396299380965
 20
900.0465235807726
 30
0.0
 10
280.0222019992607
 20
899.9843106443674
 30
0.0
 10
280.7215274463393
 20
899.6107299454638
 30
0.0
 10
281.198261043559
 20
899.2229643107686
 30
0.0
 10
281.5883613109664
 20
898.7456630075994
 30
0.0
 10
281.9499867362405
 20
898.0465189486932
 30
0.0
 10
282.1352060447476
 20
897.0868170521131
 30
0.0
 10
281.9499549528699
 20
896.126936932253
 30
0.0
 10
281.5882572379552
 20
895.4278193917734
 30
0.0
 10
281.1980200707531
 20
894.9504150671889
 30
0.0
 10
280.721354439841
 20
894.562838474461
 30
0.0
 10
280.0220376684233
 20
894.189284170077
 30
0.0
 10
279.4396344097419
 20
894.1271025524961
 30
0.0
 10
279.0623971655064
 20
894.0868259542651
 30
0.0
  0
LINE
  5
23A
330
1F
100
AcDbEntity
  8
0
  6
Continuous
 62
     7
370
    15
100
AcDbLine
 10
277.9076968714
 20
899.0868211859
 30
0.0
 11
280.2170974596
 21
899.0868211859
 31
0.0
  0
LINE
  5
23B
330
1F
100
AcDbEntity
  8
0
  6
Continuous
 62
     7
370
    15
100
AcDbLine
 10
276.7529947146
 20
897.0868171328
 30
0.0
 11
277.9076968714
 21
899.0868211859
 31
0.0
  0
LINE
  5
23C
330
1F
100
AcDbEntity
  8
0
  6
Continuous
 62
     7
370
    15
100
AcDbLine
 10
277.9076968714
 20
895.0868130797
 30
0.0
 11
276.7529947146
 21
897.0868171328
 31
0.0
  0
LINE
  5
23D
330
1F
100
AcDbEntity
  8
0
  6
Continuous
 62
     7
370
    15
100
AcDbLine
 10
280.2170974596
 20
895.0868130797
 30
0.0
 11
277.9076968714
 21
895.0868130797
 31
0.0
  0
LINE
  5
23E
330
1F
100
AcDbEntity
  8
0
  6
Continuous
 62
     7
370
    15
100
AcDbLine
 10
281.3717977538
 20
897.0868171328
 30
0.0
 11
280.2170974596
 21
895.0868130797
 31
0.0
  0
LINE
  5
23F
330
1F
100
AcDbEntity
  8
0
  6
Continuous
 62
     7
370
    15
100
AcDbLine
 10
280.2170974596
 20
899.0868211859
 30
0.0
 11
281.3717977538
 21
897.0868171328
 31
0.0
  0
SPLINE
  5
240
330
1F
100
AcDbEntity
  8
0
  6
Continuous
 62
     7
370
    15
100
AcDbSpline
210
0.0
220
0.0
230
1.0
 70
     8
 71
     3
 72
    19
 73
    15
 74
     0
 42
0.00000001
 43
0.00000001
 40
0.0
 40
0.0
 40
0.0
 40
0.0
 40
0.1197208497888614
 40
0.1848885550079594
 40
0.2499994179648382
 40
0.3151671632854933
 40
0.380277560593609
 40
0.4999999882909433
 40
0.6197224159882778
 40
0.6848895015743203
 40
0.7500005465031544
 40
0.8151686680074679
 40
0.8802791502111386
 40
1.0
 40
1.0
 40
1.0
 40
1.0
 10
236.0612334146195
 20
894.0868259542651
 30
0.0
 10
235.6840006421467
 20
894.1271106846258
 30
0.0
 10
235.1014285811636
 20
894.1893236207889
 30
0.0
 10
234.4021031331953
 20
894.5629043208824
 30
0.0
 10
233.9253695388263
 20
894.950669951765
 30
0.0
 10
233.5352692607076
 20
895.4279712692608
 30
0.0
 10
233.1736438865715
 20
896.1271152597676
 30
0.0
 10
232.9884242218929
 20
897.0868176327447
 30
0.0
 10
233.1736765527461
 20
898.0466960954136
 30
0.0
 10
233.5353715844189
 20
898.7458172248621
 30
0.0
 10
233.9256212023884
 20
899.2232151546239
 30
0.0
 10
234.4022578041386
 20
899.6108338433319
 30
0.0
 10
235.1016079654241
 20
899.9843323683746
 30
0.0
 10
235.6840002797764
 20
900.0465245513875
 30
0.0
 10
236.0612334146195
 20
900.0868083112903
 30
0.0
  0
SPLINE
  5
241
330
1F
100
AcDbEntity
  8
0
  6
Continuous
 62
     7
370
    15
100
AcDbSpline
210
0.0
220
0.0
230
1.0
 70
     8
 71
     3
 72
    19
 73
    15
 74
     0
 42
0.00000001
 43
0.00000001
 40
0.0
 40
0.0
 40
0.0
 40
0.0
 40
0.1197209009341861
 40
0.1848888101194306
 40
0.2499995472023511
 40
0.3151673203629813
 40
0.380277745486573
 40
0.5000002614958294
 40
0.619722777505086
 40
0.6848898909308219
 40
0.7500009636754086
 40
0.8151669530384118
 40
0.880279099065814
 40
1.0
 40
1.0
 40
1.0
 40
1.0
 10
236.0612334146195
 20
900.0868083112903
 30
0.0
 10
236.4384660147809
 20
900.0465232807064
 30
0.0
 10
237.02103836462
 20
899.9843098216348
 30
0.0
 10
237.7203650983523
 20
899.6107310898775
 30
0.0
 10
238.1970972966339
 20
899.2229635663496
 30
0.0
 10
238.5871977222548
 20
898.7456631130589
 30
0.0
 10
238.9488225515411
 20
898.046518747413
 30
0.0
 10
239.1340456518738
 20
897.086817052133
 30
0.0
 10
238.9487907677423
 20
896.1269371335527
 30
0.0
 10
238.5870936491605
 20
895.4278192863343
 30
0.0
 10
238.1968563243672
 20
894.9504158111022
 30
0.0
 10
237.7201920913761
 20
894.5628373302943
 30
0.0
 10
237.020874033883
 20
894.189284992935
 30
0.0
 10
236.4384704864258
 20
894.1271028526708
 30
0.0
 10
236.0612334146195
 20
894.0868259542651
 30
0.0
  0
LINE
  5
242
330
1F
100
AcDbEntity
  8
0
  6
Continuous
 62
     7
370
    15
100
AcDbLine
 10
234.9065331205
 20
899.0868211859
 30
0.0
 11
237.2159337088
 21
899.0868211859
 31
0.0
  0
LINE
  5
243
330
1F
100
AcDbEntity
  8
0
  6
Continuous
 62
     7
370
    15
100
AcDbLine
 10
233.7518328263
 20
897.0868171328
 30
0.0
 11
234.9065331205
 21
899.0868211859
 31
0.0
  0
LINE
  5
244
330
1F
100
AcDbEntity
  8
0
  6
Continuous
 62
     7
370
    15
100
AcDbLine
 10
234.9065331205
 20
895.0868130797
 30
0.0
 11
233.7518328263
 21
897.0868171328
 31
0.0
  0
LINE
  5
245
330
1F
100
AcDbEntity
  8
0
  6
Continuous
 62
     7
370
    15
100
AcDbLine
 10
237.2159337088
 20
895.0868130797
 30
0.0
 11
234.9065331205
 21
895.0868130797
 31
0.0
  0
LINE
  5
246
330
1F
100
AcDbEntity
  8
0
  6
Continuous
 62
     7
370
    15
100
AcDbLine
 10
238.3706358655
 20
897.0868171328
 30
0.0
 11
237.2159337088
 21
895.0868130797
 31
0.0
  0
LINE
  5
247
330
1F
100
AcDbEntity
  8
0
  6
Continuous
 62
     7
370
    15
100
AcDbLine
 10
237.2159337088
 20
899.0868211859
 30
0.0
 11
238.3706358655
 21
897.0868171328
 31
0.0
  0
SPLINE
  5
248
330
1F
100
AcDbEntity
  8
0
  6
Continuous
 62
     7
370
    15
100
AcDbSpline
210
0.0
220
0.0
230
1.0
 70
     8
 71
     3
 72
    11
 73
     7
 74
     0
 42
0.00000001
 43
0.00000001
 40
0.0
 40
0.0
 40
0.0
 40
0.0
 40
0.2501263418815799
 40
0.4999958647057173
 40
0.7496263166200081
 40
1.0
 40
1.0
 40
1.0
 40
1.0
 10
231.2256464197331
 20
901.8598676794238
 30
0.0
 10
231.2741397531107
 20
901.9360313046744
 30
0.0
 10
231.3710766289799
 20
902.0882803536143
 30
0.0
 10
231.5880847152179
 20
902.2537160908541
 30
0.0
 10
231.8365341255352
 20
902.3667972160122
 30
0.0
 10
232.0165393273455
 20
902.380147353153
 30
0.0
 10
232.1066757126742
 20
902.386832343883
 30
0.0
  0
LINE
  5
249
330
1F
100
AcDbEntity
  8
0
  6
Continuous
 62
     7
370
    15
100
AcDbLine
 10
232.1066757127
 20
902.3868323439
 30
0.0
 11
283.0181190207
 21
902.3868323439
 31
0.0
  0
SPLINE
  5
24A
330
1F
100
AcDbEntity
  8
0
  6
Continuous
 62
     7
370
    15
100
AcDbSpline
210
0.0
220
0.0
230
1.0
 70
     8
 71
     3
 72
    11
 73
     7
 74
     0
 42
0.00000001
 43
0.00000001
 40
0.0
 40
0.0
 40
0.0
 40
0.0
 40
0.25012180378895
 40
0.4999851412691058
 40
0.7496223119353507
 40
1.0
 40
1.0
 40
1.0
 40
1.0
 10
283.01811902067
 20
902.386832343883
 30
0.0
 10
283.1081580423347
 20
902.3801247267962
 30
0.0
 10
283.2881430427816
 20
902.3667164240173
 30
0.0
 10
283.5365561563103
 20
902.2538079779539
 30
0.0
 10
283.7537296212825
 20
902.0884184606759
 30
0.0
 10
283.8506263400223
 20
901.9361264541939
 30
0.0
 10
283.8991464509659
 20
901.8598676794238
 30
0.0
  0
LINE
  5
24B
330
1F
100
AcDbEntity
  8
0
  6
Continuous
 62
     7
370
    15
100
AcDbLine
 10
283.899146451
 20
901.8598676794
 30
0.0
 11
296.3887316569
 21
878.5993934744
 31
0.0
  0
SPLINE
  5
24C
330
1F
100
AcDbEntity
  8
0
  6
Continuous
 62
     7
370
    15
100
AcDbSpline
210
0.0
220
0.0
230
1.0
 70
     8
 71
     3
 72
    12
 73
     8
 74
     0
 42
0.00000001
 43
0.00000001
 40
0.0
 40
0.0
 40
0.0
 40
0.0
 40
0.2486133549443504
 40
0.4998766759467618
 40
0.6674290702465195
 40
0.8341998024893214
 40
1.0
 40
1.0
 40
1.0
 40
1.0
 10
296.3887316568785
 20
878.5993934744067
 30
0.0
 10
297.7445634535459
 20
875.7995836459492
 30
0.0
 10
300.4706788378653
 20
870.1701208576536
 30
0.0
 10
302.6839181217949
 20
862.081057020972
 30
0.0
 10
303.8044053656359
 20
854.848356419465
 30
0.0
 10
304.1873977371384
 20
848.59623744035
 30
0.0
 10
303.9350358142611
 20
844.4464166602448
 30
0.0
 10
303.8092230840617
 20
842.3775614374347
 30
0.0
  0
LINE
  5
24D
330
1F
100
AcDbEntity
  8
0
  6
Continuous
 62
     7
370
    15
100
AcDbLine
 10
303.8092230841
 20
842.3775614374
 30
0.0
 11
299.9632408305
 21
799.0983010405
 31
0.0
  0
SPLINE
  5
24E
330
1F
100
AcDbEntity
  8
0
  6
Continuous
 62
     7
370
    15
100
AcDbSpline
210
0.0
220
0.0
230
1.0
 70
     8
 71
     3
 72
    11
 73
     7
 74
     0
 42
0.00000001
 43
0.00000001
 40
0.0
 40
0.0
 40
0.0
 40
0.0
 40
0.241216825586486
 40
0.4999975188001892
 40
0.7587800753688224
 40
0.9999999999999999
 40
0.9999999999999999
 40
0.9999999999999999
 40
0.9999999999999999
 10
299.9632408305102
 20
799.0983010404773
 30
0.0
 10
299.9402818202338
 20
798.9806496972376
 30
0.0
 10
299.8926920712832
 20
798.7367803918511
 30
0.0
 10
299.6573402267294
 20
798.432600295286
 30
0.0
 10
299.3335190066873
 20
798.2250992890731
 30
0.0
 10
299.0863922087361
 20
798.1992820268564
 30
0.0
 10
298.9671689852171
 20
798.186826812572
 30
0.0
  0
LINE
  5
24F
330
1F
100
AcDbEntity
  8
0
  6
Continuous
 62
     7
370
    15
100
AcDbLine
 10
298.9671689852
 20
798.1868268126
 30
0.0
 11
216.1576276108
 21
798.1868268126
 31
0.0
  0
SPLINE
  5
250
330
1F
100
AcDbEntity
  8
0
  6
Continuous
 62
     7
370
    15
100
AcDbSpline
210
0.0
220
0.0
230
1.0
 70
     8
 71
     3
 72
    11
 73
     7
 74
     0
 42
0.00000001
 43
0.00000001
 40
0.0
 40
0.0
 40
0.0
 40
0.0
 40
0.241219404529309
 40
0.5000035592601916
 40
0.7587836945087005
 40
1.0
 40
1.0
 40
1.0
 40
1.0
 10
216.1576276107722
 20
798.186826812572
 30
0.0
 10
216.0384045060607
 20
798.1992822357945
 30
0.0
 10
215.7912768887028
 20
798.2251000424319
 30
0.0
 10
215.4674530190704
 20
798.4325989343539
 30
0.0
 10
215.2321008670488
 20
798.7367805062142
 30
0.0
 10
215.1845110724754
 20
798.9806497344554
 30
0.0
 10
215.1615520401889
 20
799.0983010404773
 30
0.0
  0
LINE
  5
251
330
1F
100
AcDbEntity
  8
0
  6
Continuous
 62
     7
370
    15
100
AcDbLine
 10
215.1615520402
 20
799.0983010405
 30
0.0
 11
211.3155735119
 21
842.3775614374
 31
0.0
  0
SPLINE
  5
252
330
1F
100
AcDbEntity
  8
0
  6
Continuous
 62
     7
370
    15
100
AcDbSpline
210
0.0
220
0.0
230
1.0
 70
    24
 71
     1
 72
     4
 73
     2
 74
     0
 42
0.00000001
 43
0.00000001
 40
0.0
 40
0.0
 40
1.0
 40
1.0
 10
211.3155735119277
 20
842.3775614374347
 30
0.0
 10
211.0623953326636
 20
848.0868221395679
 30
0.0
  0
SPLINE
  5
253
330
1F
100
AcDbEntity
  8
0
  6
Continuous
 62
     7
370
    15
100
AcDbSpline
210
0.0
220
0.0
230
1.0
 70
     8
 71
     3
 72
    11
 73
     7
 74
     0
 42
0.00000001
 43
0.00000001
 40
0.0
 40
0.0
 40
0.0
 40
0.0
 40
0.2490490463418547
 40
0.5000002716651235
 40
0.7509511890315117
 40
1.0
 40
1.0
 40
1.0
 40
1.0
 10
211.0623953326636
 20
848.0868221395679
 30
0.0
 10
211.1551922383032
 20
850.7257899173921
 30
0.0
 10
211.3414948108727
 20
856.0238812982219
 30
0.0
 10
212.8726329261993
 20
863.8527859115709
 30
0.0
 10
215.2272201339061
 20
871.4745979494562
 30
0.0
 10
217.5694175946463
 20
876.2304924476017
 30
0.0
 10
218.7360612138205
 20
878.5993934744067
 30
0.0
  0
LINE
  5
254
330
1F
100
AcDbEntity
  8
0
  6
Continuous
 62
     7
370
    15
100
AcDbLine
 10
218.7360612138
 20
878.5993934744
 30
0.0
 11
231.2256464197
 21
901.8598676794
 31
0.0
  0
CIRCLE
  5
255
330
1F
100
AcDbEntity
  8
0
  6
Continuous
 62
     7
370
    15
100
AcDbCircle
 10
287.0623966942
 20
814.0868181818
 30
0.0
 40
4.85000000000116
  0
CIRCLE
  5
256
330
1F
100
AcDbEntity
  8
0
  6
Continuous
 62
     7
370
    15
100
AcDbCircle
 10
228.0623966942
 20
814.0868181818
 30
0.0
 40
4.849999999996498
  0
CIRCLE
  5
257
330
1F
100
AcDbEntity
  8
0
  6
Continuous
 62
     7
370
    15
100
AcDbCircle
 10
236.0623966942
 20
897.0868181818
 30
0.0
 40
4.849999999999113
  0
CIRCLE
  5
258
330
1F
100
AcDbEntity
  8
0
  6
Continuous
 62
     7
370
    15
100
AcDbCircle
 10
279.0623966942
 20
897.0868181818
 30
0.0
 40
4.849999999998431
  0
LINE
  5
259
330
1F
100
AcDbEntity
  8
0
  6
Continuous
 62
     7
370
    15
100
AcDbLine
 10
232.1066757127
 20
904.3868065947
 30
0.0
 11
283.0181190207
 21
904.3868065947
 31
0.0
  0
LINE
  5
25A
330
1F
100
AcDbEntity
  8
0
  6
Continuous
 62
     7
370
    15
100
AcDbLine
 10
283.0181190207
 20
904.3868065947
 30
0.0
 11
283.0181190207
 21
902.3868323439
 31
0.0
  0
LINE
  5
25B
330
1F
100
AcDbEntity
  8
0
  6
Continuous
 62
     7
370
    15
100
AcDbLine
 10
232.1066757127
 20
904.3868065947
 30
0.0
 11
232.1066757127
 21
902.3868323439
 31
0.0
  0
LINE
  5
25C
330
1F
100
AcDbEntity
  8
0
  6
Continuous
 62
     7
370
    15
100
AcDbLine
 10
229.4635896965
 20
902.8060020083
 30
0.0
 11
216.9740063532
 21
879.5455278032
 31
0.0
  0
LWPOLYLINE
  5
25D
330
1F
100
AcDbEntity
  8
0
  6
Continuous
 62
     7
370
    15
100
AcDbPolyline
 90
        9
 70
   128
 43
0.0
 10
229.4635896965
 20
902.8060020083
 10
229.4974469974
 20
902.7878225916
 10
229.5977187737
 20
902.7339995974
 10
229.76054935
 20
902.6465595835
 10
229.9796839639
 20
902.5289000147
 10
230.2466997339
 20
902.3855210417
 10
230.5513372107
 20
902.2219360941
 10
230.8818859442
 20
902.0444632643
 10
231.2256464197
 20
901.8598676794
  0
LWPOLYLINE
  5
25E
330
1F
100
AcDbEntity
  8
0
  6
Continuous
 62
     7
370
    15
100
AcDbPolyline
 90
        9
 70
   128
 43
0.0
 10
216.9740063532
 20
879.5455278032
 10
217.0078617915
 20
879.5273483866
 10
217.1081317051
 20
879.47349559
 10
217.2709641441
 20
879.3860853785
 10
217.4901006206
 20
879.2684258097
 10
217.757114528
 20
879.1250468367
 10
218.0617501422
 20
878.9614618891
 10
218.3923026009
 20
878.7839890593
 10
218.7360612138
 20
878.5993934744
  0
LINE
  5
25F
330
1F
100
AcDbEntity
  8
0
  6
Continuous
 62
     7
370
    15
100
AcDbLine
 10
285.6612031742
 20
902.8060020083
 30
0.0
 11
298.1507902428
 21
879.5455278032
 31
0.0
  0
LWPOLYLINE
  5
260
330
1F
100
AcDbEntity
  8
0
  6
Continuous
 62
     7
370
    15
100
AcDbPolyline
 90
        9
 70
   128
 43
0.0
 10
298.1507902428
 20
879.5455278032
 10
298.1169310792
 20
879.5273483866
 10
298.0166611656
 20
879.47349559
 10
297.8538287266
 20
879.3860853785
 10
297.6346959754
 20
879.2684258097
 10
297.3676783427
 20
879.1250468367
 10
297.0630427285
 20
878.9614618891
 10
296.732493995
 20
878.7839890593
 10
296.3887316569
 20
878.5993934744
  0
LWPOLYLINE
  5
261
330
1F
100
AcDbEntity
  8
0
  6
Continuous
 62
     7
370
    15
100
AcDbPolyline
 90
        9
 70
   128
 43
0.0
 10
285.6612031742
 20
902.8060020083
 10
285.6273458733
 20
902.7878225916
 10
285.5270759597
 20
902.7339995974
 10
285.3642435207
 20
902.6465595835
 10
285.1451089068
 20
902.5289000147
 10
284.8780931368
 20
902.3855210417
 10
284.5734575226
 20
902.2219360941
 10
284.2429069265
 20
902.0444632643
 10
283.899146451
 20
901.8598676794
  0
LINE
  5
262
330
1F
100
AcDbEntity
  8
0
  6
Continuous
 62
     7
370
    15
100
AcDbLine
 10
305.8013704999
 20
842.2005356425
 30
0.0
 11
301.9553919717
 21
798.9212752455
 31
0.0
  0
LWPOLYLINE
  5
263
330
1F
100
AcDbEntity
  8
0
  6
Continuous
 62
     7
370
    15
100
AcDbPolyline
 90
        9
 70
   128
 43
0.0
 10
301.9553919717
 20
798.9212752455
 10
301.9171146139
 20
798.9246727102
 10
301.8037503048
 20
798.9347458952
 10
301.6196539088
 20
798.9511073702
 10
301.3719034775
 20
798.9731312864
 10
301.0700208529
 20
798.9999533766
 10
300.7256065889
 20
799.0305603617
 10
300.3518929168
 20
799.0637601488
 10
299.9632408305
 20
799.0983010405
  0
LWPOLYLINE
  5
264
330
1F
100
AcDbEntity
  8
0
  6
Continuous
 62
     7
370
    15
100
AcDbPolyline
 90
        9
 70
   128
 43
0.0
 10
305.8013704999
 20
842.2005356425
 10
305.7630931421
 20
842.2039331072
 10
305.649728833
 20
842.2140062922
 10
305.4656324371
 20
842.2303677672
 10
305.2178857311
 20
842.2523916834
 10
304.9159993812
 20
842.2792137736
 10
304.5715851172
 20
842.3098207586
 10
304.197871445
 20
842.3430503481
 10
303.8092230841
 20
842.3775614374
  0
LINE
  5
265
330
1F
100
AcDbEntity
  8
0
  6
Continuous
 62
     7
370
    15
100
AcDbLine
 10
298.9671689852
 20
796.1868227595
 30
0.0
 11
298.9671689852
 21
798.1868268126
 31
0.0
  0
LINE
  5
266
330
1F
100
AcDbEntity
  8
0
  6
Continuous
 62
     7
370
    15
100
AcDbLine
 10
298.9671689852
 20
796.1868227595
 30
0.0
 11
216.1576276108
 21
796.1868227595
 31
0.0
  0
LINE
  5
267
330
1F
100
AcDbEntity
  8
0
  6
Continuous
 62
     7
370
    15
100
AcDbLine
 10
216.1576276108
 20
796.1868227595
 30
0.0
 11
216.1576276108
 21
798.1868268126
 31
0.0
  0
LWPOLYLINE
  5
268
330
1F
100
AcDbEntity
  8
0
  6
Continuous
 62
     7
370
    15
100
AcDbPolyline
 90
        9
 70
   128
 43
0.0
 10
213.169400899
 20
798.9212752455
 10
213.2076819821
 20
798.9246727102
 10
213.3210462912
 20
798.9347458952
 10
213.5051389619
 20
798.9511073702
 10
213.7528893932
 20
798.9731312864
 10
214.0547720178
 20
798.9999533766
 10
214.3991900071
 20
799.0305603617
 10
214.7729036792
 20
799.0637601488
 10
215.1615520402
 20
799.0983010405
  0
LINE
  5
269
330
1F
100
AcDbEntity
  8
0
  6
Continuous
 62
     7
370
    15
100
AcDbLine
 10
209.3234223708
 20
842.2005356425
 30
0.0
 11
213.169400899
 21
798.9212752455
 31
0.0
  0
LWPOLYLINE
  5
26A
330
1F
100
AcDbEntity
  8
0
  6
Continuous
 62
     7
370
    15
100
AcDbPolyline
 90
        9
 70
   128
 43
0.0
 10
209.3234223708
 20
842.2005356425
 10
209.3616997286
 20
842.2039331072
 10
209.4750640377
 20
842.2140062922
 10
209.6591604336
 20
842.2303677672
 10
209.9069108649
 20
842.2523916834
 10
210.2087934895
 20
842.2792137736
 10
210.5532077535
 20
842.3098207586
 10
210.9269214257
 20
842.3430503481
 10
211.3155735119
 20
842.3775614374
  0
CIRCLE
  5
26B
330
1F
100
AcDbEntity
  8
0
  6
Continuous
 62
     7
370
    15
100
AcDbCircle
 10
287.0612339035
 20
814.0868181818
 30
0.0
 40
4.000000000000057
  0
CIRCLE
  5
26C
330
1F
100
AcDbEntity
  8
0
  6
Continuous
 62
     7
370
    15
100
AcDbCircle
 10
228.0612339035
 20
814.0868181818
 30
0.0
 40
4.000000000000028
  0
CIRCLE
  5
26D
330
1F
100
AcDbEntity
  8
0
  6
Continuous
 62
     7
370
    15
100
AcDbCircle
 10
279.0623966942
 20
897.0868181818
 30
0.0
 40
4.0
  0
CIRCLE
  5
26E
330
1F
100
AcDbEntity
  8
0
  6
Continuous
 62
     7
370
    15
100
AcDbCircle
 10
236.0612339035
 20
897.0868181818
 30
0.0
 40
4.0
  0
ARC
  5
26F
330
1F
100
AcDbEntity
  8
0
  6
Continuous
 62
     7
370
    15
100
AcDbCircle
 10
232.1066749196
 20
901.3868181818
 30
0.0
 40
3.0
100
AcDbArc
 50
90.0
 51
151.7666751207
  0
ARC
  5
270
330
1F
100
AcDbEntity
  8
0
  6
Continuous
 62
     7
370
    15
100
AcDbCircle
 10
283.0181184688
 20
901.3868181818
 30
0.0
 40
3.0
100
AcDbArc
 50
28.2333248793
 51
90.0
  0
ARC
  5
271
330
1F
100
AcDbEntity
  8
0
  6
Continuous
 62
     7
370
    15
100
AcDbCircle
 10
298.9671674264
 20
799.1868181818
 30
0.0
 40
3.0
100
AcDbArc
 50
270.0
 51
354.9217933762
  0
ARC
  5
272
330
1F
100
AcDbEntity
  8
0
  6
Continuous
 62
     7
370
    15
100
AcDbCircle
 10
239.5623966942
 20
848.0868181818
 30
0.0
 40
66.50000000000001
100
AcDbArc
 50
354.9217933762
 51
28.2333248793
  0
ARC
  5
273
330
1F
100
AcDbEntity
  8
0
  6
Continuous
 62
     7
370
    15
100
AcDbCircle
 10
216.157625962
 20
799.1868181818
 30
0.0
 40
3.0
100
AcDbArc
 50
185.0782066238
 51
270.0
  0
ARC
  5
274
330
1F
100
AcDbEntity
  8
0
  6
Continuous
 62
     7
370
    15
100
AcDbCircle
 10
275.5623966942
 20
848.0868181818
 30
0.0
 40
66.50000000000001
100
AcDbArc
 50
151.7666751207
 51
185.0782066238
  0
CIRCLE
  5
275
330
1F
100
AcDbEntity
  8
0
  6
Continuous
 62
     7
370
    15
100
AcDbCircle
 10
287.0623966942
 20
814.0868181818
 30
0.0
 40
4.500365940284496
  0
CIRCLE
  5
276
330
1F
100
AcDbEntity
  8
0
  6
Continuous
 62
     7
370
    15
100
AcDbCircle
 10
228.0623966942
 20
814.0868181818
 30
0.0
 40
4.500365940279949
  0
CIRCLE
  5
277
330
1F
100
AcDbEntity
  8
0
  6
Continuous
 62
     7
370
    15
100
AcDbCircle
 10
279.0623966942
 20
897.0868181818
 30
0.0
 40
4.500365940281768
  0
CIRCLE
  5
278
330
1F
100
AcDbEntity
  8
0
  6
Continuous
 62
     7
370
    15
100
AcDbCircle
 10
236.0623966942
 20
897.0868181818
 30
0.0
 40
4.50036594028245
  0
ARC
  5
279
330
1F
100
AcDbEntity
  8
0
  6
Continuous
 62
     7
370
    15
100
AcDbCircle
 10
205.6051858337
 20
865.1158712565
 30
0.0
 40
4.99999999999992
100
AcDbArc
 50
275.0
 51
346.3190783769
  0
ARC
  5
27A
330
1F
100
AcDbEntity
  8
0
  6
Continuous
 62
     7
370
    15
100
AcDbCircle
 10
275.5623966942
 20
848.0868181818
 30
0.0
 40
67.00000000000009
100
AcDbArc
 50
151.774875858
 51
166.3190783769
  0
LINE
  5
27B
330
1F
100
AcDbEntity
  8
0
  6
Continuous
 62
     7
370
    15
100
AcDbLine
 10
229.2136785968
 20
903.4056247347
 30
0.0
 11
216.5289533719
 21
879.7736049765
 31
0.0
  0
ARC
  5
27C
330
1F
100
AcDbEntity
  8
0
  6
Continuous
 62
     7
370
    15
100
AcDbCircle
 10
231.8569664264
 20
901.9868181818
 30
0.0
 40
3.000000000000114
100
AcDbArc
 50
90.0
 51
151.774875858
  0
LINE
  5
27D
330
1F
100
AcDbEntity
  8
0
  6
Continuous
 62
     7
370
    15
100
AcDbLine
 10
283.267827092
 20
904.9868167513
 30
0.0
 11
231.8569657787
 21
904.9868167513
 31
0.0
  0
ARC
  5
27E
330
1F
100
AcDbEntity
  8
0
  6
Continuous
 62
     7
370
    15
100
AcDbCircle
 10
283.267826962
 20
901.9868181818
 30
0.0
 40
3.000000000000114
100
AcDbArc
 50
28.225124142
 51
90.0
  0
LINE
  5
27F
330
1F
100
AcDbEntity
  8
0
  6
Continuous
 62
     7
370
    15
100
AcDbLine
 10
298.5958394988
 20
879.7736049765
 30
0.0
 11
285.9111161365
 21
903.4056247347
 31
0.0
  0
ARC
  5
280
330
1F
100
AcDbEntity
  8
0
  6
Continuous
 62
     7
370
    15
100
AcDbCircle
 10
239.5623966942
 20
848.0868181818
 30
0.0
 40
67.00000000000001
100
AcDbArc
 50
354.7562578805
 51
28.225124142
  0
LINE
  5
281
330
1F
100
AcDbEntity
  8
0
  6
Continuous
 62
     7
370
    15
100
AcDbLine
 10
302.3125653549
 20
798.7126291865
 30
0.0
 11
306.2819962784
 21
841.9634879702
 31
0.0
  0
ARC
  5
282
330
1F
100
AcDbEntity
  8
0
  6
Continuous
 62
     7
370
    15
100
AcDbCircle
 10
299.325119525
 20
798.9868181818
 30
0.0
 40
2.999999999999971
100
AcDbArc
 50
270.0
 51
354.7562578805
  0
LINE
  5
283
330
1F
100
AcDbEntity
  8
0
  6
Continuous
 62
     7
370
    15
100
AcDbLine
 10
215.7996756419
 20
795.9868193739
 30
0.0
 11
299.3251209541
 21
795.9868193739
 31
0.0
  0
ARC
  5
284
330
1F
100
AcDbEntity
  8
0
  6
Continuous
 62
     7
370
    15
100
AcDbCircle
 10
215.7996738634
 20
798.9868181818
 30
0.0
 40
3.000000000000056
100
AcDbArc
 50
185.2437421195
 51
270.0
  0
LINE
  5
285
330
1F
100
AcDbEntity
  8
0
  6
Continuous
 62
     7
370
    15
100
AcDbLine
 10
211.8678626998
 20
809.0024174326
 30
0.0
 11
212.8122275158
 21
798.7126291865
 31
0.0
  0
ARC
  5
286
330
1F
100
AcDbEntity
  8
0
  6
Continuous
 62
     7
370
    15
100
AcDbCircle
 10
206.8887890856
 20
808.5454643741
 30
0.0
 40
4.999999999999994
100
AcDbArc
 50
5.2437421195
 51
85.0
  0
LINE
  5
287
330
1F
100
AcDbEntity
  8
0
  6
Continuous
 62
     7
370
    15
100
AcDbLine
 10
204.8009311243
 20
813.7472153776
 30
0.0
 11
207.3245694323
 21
813.5264397734
 31
0.0
  0
ARC
  5
288
330
1F
100
AcDbEntity
  8
0
  6
Continuous
 62
     7
370
    15
100
AcDbCircle
 10
205.0623966942
 20
816.7358117039
 30
0.0
 40
3.0
100
AcDbArc
 50
180.0
 51
265.0
  0
LINE
  5
289
330
1F
100
AcDbEntity
  8
0
  6
Continuous
 62
     7
370
    15
100
AcDbLine
 10
202.0623957201
 20
857.0378304594
 30
0.0
 11
202.0623957201
 21
816.735822069
 31
0.0
  0
ARC
  5
28A
330
1F
100
AcDbEntity
  8
0
  6
Continuous
 62
     7
370
    15
100
AcDbCircle
 10
205.0623966942
 20
857.0378246598
 30
0.0
 40
3.0
100
AcDbArc
 50
95.0
 51
180.0
  0
LINE
  5
28B
330
1F
100
AcDbEntity
  8
0
  6
Continuous
 62
     7
370
    15
100
AcDbLine
 10
204.8009311243
 20
860.0264073485
 30
0.0
 11
206.0409647807
 21
860.134887802
 31
0.0
  0
LINE
  5
28C
330
1F
100
AcDbEntity
  8
0
  6
Continuous
 62
     7
370
    15
100
AcDbLine
 10
241.7648493706
 20
910.1868153685
 30
0.0
 11
241.7648493706
 21
908.6868048781
 31
0.0
  0
LINE
  5
28D
330
1F
100
AcDbEntity
  8
0
  6
Continuous
 62
     7
370
    15
100
AcDbLine
 10
276.812396331
 20
910.1868153685
 30
0.0
 11
241.7648493706
 21
910.1868153685
 31
0.0
  0
LINE
  5
28E
330
1F
100
AcDbEntity
  8
0
  6
Continuous
 62
     7
370
    15
100
AcDbLine
 10
238.3123965397
 20
906.6868306273
 30
0.0
 11
276.812396331
 21
906.6868306273
 31
0.0
  0
SPLINE
  5
28F
330
1F
100
AcDbEntity
  8
0
  6
Continuous
 62
     7
370
    15
100
AcDbSpline
210
0.0
220
0.0
230
1.0
 70
    24
 71
     1
 72
     4
 73
     2
 74
     0
 42
0.00000001
 43
0.00000001
 40
0.0
 40
0.0
 40
1.0
 40
1.0
 10
243.4896168693003
 20
913.0868197553816
 30
0.0
 10
241.7648493706283
 20
910.1868153684798
 30
0.0
  0
LINE
  5
290
330
1F
100
AcDbEntity
  8
0
  6
Continuous
 62
     7
370
    15
100
AcDbLine
 10
273.9123975321
 20
913.0868197554
 30
0.0
 11
243.4896168693
 21
913.0868197554
 31
0.0
  0
LINE
  5
291
330
1F
100
AcDbEntity
  8
0
  6
Continuous
 62
     7
370
    15
100
AcDbLine
 10
270.0623966216
 20
905.6868136995
 30
0.0
 11
245.0623962491
 21
905.6868136995
 31
0.0
  0
LINE
  5
292
330
1F
100
AcDbEntity
  8
0
  6
Continuous
 62
     7
370
    15
100
AcDbLine
 10
270.0473967402
 20
906.0868204706
 30
0.0
 11
245.0773970618
 21
906.0868204706
 31
0.0
  0
LINE
  5
293
330
1F
100
AcDbEntity
  8
0
  6
Continuous
 62
     7
370
    15
100
AcDbLine
 10
225.7930723413
 20
910.1868153685
 30
0.0
 11
241.7648493706
 21
910.1868153685
 31
0.0
  0
ELLIPSE
  5
294
330
1F
100
AcDbEntity
  8
0
  6
Continuous
 62
     7
370
    15
100
AcDbEllipse
 10
226.0123966942
 20
911.6868181818
 30
0.0
 11
1.135558726259148
 21
1.135558726259205
 31
0.0
210
0.0
220
0.0
230
1.0
 40
0.8630590836
 41
3.141592653589764
 42
3.8536195021454
  0
LINE
  5
295
330
1F
100
AcDbEntity
  8
0
  6
Continuous
 62
     7
370
    15
100
AcDbLine
 10
227.4123964294
 20
913.0868197554
 30
0.0
 11
224.8768371924
 21
910.551267969
 31
0.0
  0
LINE
  5
296
330
1F
100
AcDbEntity
  8
0
  6
Continuous
 62
     7
370
    15
100
AcDbLine
 10
227.4123964294
 20
913.0868197554
 30
0.0
 11
243.4896168693
 21
913.0868197554
 31
0.0
  0
LINE
  5
297
330
1F
100
AcDbEntity
  8
0
  6
Continuous
 62
     7
370
    15
100
AcDbLine
 10
225.7930723413
 20
908.6868048781
 30
0.0
 11
225.7930723413
 21
910.1868153685
 31
0.0
  0
LINE
  5
298
330
1F
100
AcDbEntity
  8
0
  6
Continuous
 62
     7
370
    15
100
AcDbLine
 10
241.7648493706
 20
908.6868048781
 30
0.0
 11
225.7930723413
 21
908.6868048781
 31
0.0
  0
LINE
  5
299
330
1F
100
AcDbEntity
  8
0
  6
Continuous
 62
     7
370
    15
100
AcDbLine
 10
224.5123957678
 20
910.1868153685
 30
0.0
 11
224.5123957678
 21
908.6868048781
 31
0.0
  0
LWPOLYLINE
  5
29A
330
1F
100
AcDbEntity
  8
0
  6
Continuous
 62
     7
370
    15
100
AcDbPolyline
 90
        5
 70
   128
 43
0.0
 10
224.8768371924
 20
910.551267969
 10
224.7212467178
 20
910.3956700438
 10
224.6064556225
 20
910.2808714979
 10
224.5360997899
 20
910.2105082148
 10
224.5123957678
 20
910.1868153685
  0
LINE
  5
29B
330
1F
100
AcDbEntity
  8
0
  6
Continuous
 62
     7
370
    15
100
AcDbLine
 10
225.7930723413
 20
908.6868048781
 30
0.0
 11
224.5123957678
 21
908.6868048781
 31
0.0
  0
LINE
  5
29C
330
1F
100
AcDbEntity
  8
0
  6
Continuous
 62
     7
370
    15
100
AcDbLine
 10
248.0555245115
 20
913.0868197554
 30
0.0
 11
248.0555245115
 21
924.8868108862
 31
0.0
  0
LINE
  5
29D
330
1F
100
AcDbEntity
  8
0
  6
Continuous
 62
     7
370
    15
100
AcDbLine
 10
248.0555245115
 20
924.8868108862
 30
0.0
 11
267.0692692905
 21
924.8868108862
 31
0.0
  0
LINE
  5
29E
330
1F
100
AcDbEntity
  8
0
  6
Continuous
 62
     7
370
    15
100
AcDbLine
 10
267.0692692905
 20
924.8868108862
 30
0.0
 11
267.0692692905
 21
913.0868197554
 31
0.0
  0
LINE
  5
29F
330
1F
100
AcDbEntity
  8
0
  6
Continuous
 62
     7
370
    15
100
AcDbLine
 10
269.8253740951
 20
920.8868325823
 30
0.0
 11
269.8253740951
 21
924.3868173235
 31
0.0
  0
LINE
  5
2A0
330
1F
100
AcDbEntity
  8
0
  6
Continuous
 62
     7
370
    15
100
AcDbLine
 10
269.9873962834
 20
920.8868325823
 30
0.0
 11
269.8253740951
 21
920.8868325823
 31
0.0
  0
LINE
  5
2A1
330
1F
100
AcDbEntity
  8
0
  6
Continuous
 62
     7
370
    15
100
AcDbLine
 10
269.7332895755
 20
924.8868108862
 30
0.0
 11
267.0692692905
 21
924.8868108862
 31
0.0
  0
ARC
  5
2A2
330
1F
100
AcDbEntity
  8
0
  6
Continuous
 62
     7
370
    15
100
AcDbCircle
 10
257.5623966942
 20
922.3868181818
 30
0.0
 40
12.42500000000001
100
AcDbArc
 50
9.2629588366
 51
11.6075642206
  0
LINE
  5
2A3
330
1F
100
AcDbEntity
  8
0
  6
Continuous
 62
     7
370
    15
100
AcDbLine
 10
245.2994187756
 20
920.8868325823
 30
0.0
 11
245.1373965873
 21
920.8868325823
 31
0.0
  0
LINE
  5
2A4
330
1F
100
AcDbEntity
  8
0
  6
Continuous
 62
     7
370
    15
100
AcDbLine
 10
245.2994187756
 20
924.3868173235
 30
0.0
 11
245.2994187756
 21
920.8868325823
 31
0.0
  0
ARC
  5
2A5
330
1F
100
AcDbEntity
  8
0
  6
Continuous
 62
     7
370
    15
100
AcDbCircle
 10
257.5623966942
 20
922.3868181818
 30
0.0
 40
12.42500000000004
100
AcDbArc
 50
168.3924357794
 51
170.7370411634
  0
LINE
  5
2A6
330
1F
100
AcDbEntity
  8
0
  6
Continuous
 62
     7
370
    15
100
AcDbLine
 10
248.0555245115
 20
924.8868108862
 30
0.0
 11
245.3915042265
 21
924.8868108862
 31
0.0
  0
LINE
  5
2A7
330
1F
100
AcDbEntity
  8
0
  6
Continuous
 62
     7
370
    15
100
AcDbLine
 10
516.7090932933
 20
176.3227609205
 30
0.0
 11
516.7090932933
 21
171.3227619635
 31
0.0
  0
LINE
  5
2A8
330
1F
100
AcDbEntity
  8
0
  6
Continuous
 62
     7
370
    15
100
AcDbLine
 10
896.7090885249
 20
171.3227619635
 30
0.0
 11
896.7090885249
 21
176.3227609205
 31
0.0
  0
LINE
  5
2A9
330
1F
100
AcDbEntity
  8
0
  6
Continuous
 62
     7
370
    15
100
AcDbLine
 10
516.7090932933
 20
121.3227612185
 30
0.0
 11
516.7090932933
 21
116.3227622616
 31
0.0
  0
LINE
  5
2AA
330
1F
100
AcDbEntity
  8
0
  6
Continuous
 62
     7
370
    15
100
AcDbLine
 10
896.7090885249
 20
116.3227622616
 30
0.0
 11
896.7090885249
 21
121.3227612185
 31
0.0
  0
LINE
  5
2AB
330
1F
100
AcDbEntity
  8
0
  6
Continuous
 62
     7
370
    15
100
AcDbLine
 10
819.2090879289
 20
196.3323400574
 30
0.0
 11
594.2090938893
 21
196.3323400574
 31
0.0
  0
ARC
  5
2AC
330
1F
100
AcDbEntity
  8
0
  6
Continuous
 62
     7
370
    15
100
AcDbCircle
 10
826.2090909091
 20
100.8323415978
 30
0.0
 40
2.000000000000014
100
AcDbArc
 50
270.0
 51
0.0
  0
ARC
  5
2AD
330
1F
100
AcDbEntity
  8
0
  6
Continuous
 62
     7
370
    15
100
AcDbCircle
 10
587.2090909091
 20
193.8323415978
 30
0.0
 40
2.000000000000028
100
AcDbArc
 50
90.0
 51
180.0
  0
ARC
  5
2AE
330
1F
100
AcDbEntity
  8
0
  6
Continuous
 62
     7
370
    15
100
AcDbCircle
 10
826.2090909091
 20
193.8323415978
 30
0.0
 40
2.000000000000028
100
AcDbArc
 50
0.0
 51
90.0
  0
ARC
  5
2AF
330
1F
100
AcDbEntity
  8
0
  6
Continuous
 62
     7
370
    15
100
AcDbCircle
 10
587.2090909091
 20
100.8323415978
 30
0.0
 40
2.000000000000014
100
AcDbArc
 50
180.0
 51
270.0
  0
LINE
  5
2B0
330
1F
100
AcDbEntity
  8
0
  6
Continuous
 62
     7
370
    15
100
AcDbLine
 10
826.2090872136
 20
195.8323427694
 30
0.0
 11
819.2090879289
 21
195.8323427694
 31
0.0
  0
LINE
  5
2B1
330
1F
100
AcDbEntity
  8
0
  6
Continuous
 62
     7
370
    15
100
AcDbLine
 10
819.2090879289
 20
98.8323399084
 30
0.0
 11
826.2090872136
 21
98.8323399084
 31
0.0
  0
LINE
  5
2B2
330
1F
100
AcDbEntity
  8
0
  6
Continuous
 62
     7
370
    15
100
AcDbLine
 10
594.2090938893
 20
195.8323427694
 30
0.0
 11
587.2090946046
 21
195.8323427694
 31
0.0
  0
LINE
  5
2B3
330
1F
100
AcDbEntity
  8
0
  6
Continuous
 62
     7
370
    15
100
AcDbLine
 10
587.2090946046
 20
98.8323399084
 30
0.0
 11
594.2090938893
 21
98.8323399084
 31
0.0
  0
LINE
  5
2B4
330
1F
100
AcDbEntity
  8
0
  6
Continuous
 62
     7
370
    15
100
AcDbLine
 10
835.2090905515
 20
138.0947371232
 30
0.0
 11
836.209092578
 21
139.8323415066
 31
0.0
  0
LINE
  5
2B5
330
1F
100
AcDbEntity
  8
0
  6
Continuous
 62
     7
370
    15
100
AcDbLine
 10
836.209092578
 20
154.832341637
 30
0.0
 11
835.2090905515
 21
156.5699455547
 31
0.0
  0
LINE
  5
2B6
330
1F
100
AcDbEntity
  8
0
  6
Continuous
 62
     7
370
    15
100
AcDbLine
 10
829.2090932933
 20
156.5699455547
 30
0.0
 11
828.2090912667
 21
154.832341637
 31
0.0
  0
LINE
  5
2B7
330
1F
100
AcDbEntity
  8
0
  6
Continuous
 62
     7
370
    15
100
AcDbLine
 10
828.2090912667
 20
139.8323415066
 30
0.0
 11
829.2090932933
 21
138.0947371232
 31
0.0
  0
LINE
  5
2B8
330
1F
100
AcDbEntity
  8
0
  6
Continuous
 62
     7
370
    15
100
AcDbLine
 10
578.2090912667
 20
156.5699455547
 30
0.0
 11
577.2090892402
 21
154.832341637
 31
0.0
  0
LINE
  5
2B9
330
1F
100
AcDbEntity
  8
0
  6
Continuous
 62
     7
370
    15
100
AcDbLine
 10
577.2090892402
 20
139.8323415066
 30
0.0
 11
578.2090912667
 21
138.0947371232
 31
0.0
  0
LINE
  5
2BA
330
1F
100
AcDbEntity
  8
0
  6
Continuous
 62
     7
370
    15
100
AcDbLine
 10
584.2090885249
 20
138.0947371232
 30
0.0
 11
585.2090905515
 21
139.8323415066
 31
0.0
  0
LINE
  5
2BB
330
1F
100
AcDbEntity
  8
0
  6
Continuous
 62
     7
370
    15
100
AcDbLine
 10
585.2090905515
 20
154.832341637
 30
0.0
 11
584.2090885249
 21
156.5699455547
 31
0.0
  0
LINE
  5
2BC
330
1F
100
AcDbEntity
  8
0
  6
Continuous
 62
     7
370
    15
100
AcDbLine
 10
836.209092578
 20
142.3323414507
 30
0.0
 11
838.0090932456
 21
142.3323414507
 31
0.0
  0
LINE
  5
2BD
330
1F
100
AcDbEntity
  8
0
  6
Continuous
 62
     7
370
    15
100
AcDbLine
 10
838.0090932456
 20
152.3323416928
 30
0.0
 11
836.209092578
 21
152.3323416928
 31
0.0
  0
LINE
  5
2BE
330
1F
100
AcDbEntity
  8
0
  6
Continuous
 62
     7
370
    15
100
AcDbLine
 10
838.0090932456
 20
142.3323414507
 30
0.0
 11
838.5090868083
 21
142.8323415326
 31
0.0
  0
LINE
  5
2BF
330
1F
100
AcDbEntity
  8
0
  6
Continuous
 62
     7
370
    15
100
AcDbLine
 10
838.5090868083
 20
151.8323416109
 30
0.0
 11
838.0090932456
 21
152.3323416928
 31
0.0
  0
LINE
  5
2C0
330
1F
100
AcDbEntity
  8
0
  6
Continuous
 62
     7
370
    15
100
AcDbLine
 10
575.4090885726
 20
152.3323416928
 30
0.0
 11
574.9090950099
 21
151.8323416109
 31
0.0
  0
LINE
  5
2C1
330
1F
100
AcDbEntity
  8
0
  6
Continuous
 62
     7
370
    15
100
AcDbLine
 10
574.9090950099
 20
142.8323415326
 30
0.0
 11
575.4090885726
 21
142.3323414507
 31
0.0
  0
LINE
  5
2C2
330
1F
100
AcDbEntity
  8
0
  6
Continuous
 62
     7
370
    15
100
AcDbLine
 10
577.2090892402
 20
152.3323416928
 30
0.0
 11
575.4090885726
 21
152.3323416928
 31
0.0
  0
LINE
  5
2C3
330
1F
100
AcDbEntity
  8
0
  6
Continuous
 62
     7
370
    15
100
AcDbLine
 10
575.4090885726
 20
142.3323414507
 30
0.0
 11
577.2090892402
 21
142.3323414507
 31
0.0
  0
LINE
  5
2C4
330
1F
100
AcDbEntity
  8
0
  6
Continuous
 62
     7
370
    15
100
AcDbLine
 10
516.7090932933
 20
176.3227609205
 30
0.0
 11
585.097056171
 21
176.3227609205
 31
0.0
  0
LINE
  5
2C5
330
1F
100
AcDbEntity
  8
0
  6
Continuous
 62
     7
370
    15
100
AcDbLine
 10
828.3044661489
 20
176.3227609205
 30
0.0
 11
896.7090885249
 21
176.3227609205
 31
0.0
  0
LINE
  5
2C6
330
1F
100
AcDbEntity
  8
0
  6
Continuous
 62
     7
370
    15
100
AcDbLine
 10
516.7090932933
 20
116.3227622616
 30
0.0
 11
585.097056171
 21
116.3227622616
 31
0.0
  0
LINE
  5
2C7
330
1F
100
AcDbEntity
  8
0
  6
Continuous
 62
     7
370
    15
100
AcDbLine
 10
828.3044661489
 20
116.3227622616
 30
0.0
 11
896.7090885249
 21
116.3227622616
 31
0.0
  0
LINE
  5
2C8
330
1F
100
AcDbEntity
  8
0
  6
Continuous
 62
     7
370
    15
100
AcDbLine
 10
897.8860269395
 20
121.3227612185
 30
0.0
 11
897.8860269395
 21
171.3227619635
 31
0.0
  0
LINE
  5
2C9
330
1F
100
AcDbEntity
  8
0
  6
Continuous
 62
     7
370
    15
100
AcDbLine
 10
897.8860269395
 20
121.3227612185
 30
0.0
 11
828.2898928133
 21
121.3227612185
 31
0.0
  0
LINE
  5
2CA
330
1F
100
AcDbEntity
  8
0
  6
Continuous
 62
     7
370
    15
100
AcDbLine
 10
897.8860269395
 20
171.3227619635
 30
0.0
 11
828.2898928133
 21
171.3227619635
 31
0.0
  0
LINE
  5
2CB
330
1F
100
AcDbEntity
  8
0
  6
Continuous
 62
     7
370
    15
100
AcDbLine
 10
515.5321548787
 20
171.3227619635
 30
0.0
 11
515.5321548787
 21
121.3227612185
 31
0.0
  0
LINE
  5
2CC
330
1F
100
AcDbEntity
  8
0
  6
Continuous
 62
     7
370
    15
100
AcDbLine
 10
585.1056094376
 20
121.3227612185
 30
0.0
 11
515.5321548787
 21
121.3227612185
 31
0.0
  0
LINE
  5
2CD
330
1F
100
AcDbEntity
  8
0
  6
Continuous
 62
     7
370
    15
100
AcDbLine
 10
585.2090905515
 20
171.3227619635
 30
0.0
 11
515.5321548787
 21
171.3227619635
 31
0.0
  0
LINE
  5
2CE
330
1F
100
AcDbEntity
  8
0
  6
Continuous
 62
     7
370
    15
100
AcDbLine
 10
905.7291935292
 20
171.3227619635
 30
0.0
 11
905.7291935292
 21
121.3227612185
 31
0.0
  0
LINE
  5
2CF
330
1F
100
AcDbEntity
  8
0
  6
Continuous
 62
     7
370
    15
100
AcDbLine
 10
905.7291935292
 20
121.3227612185
 30
0.0
 11
897.8860269395
 21
121.3227612185
 31
0.0
  0
LINE
  5
2D0
330
1F
100
AcDbEntity
  8
0
  6
Continuous
 62
     7
370
    15
100
AcDbLine
 10
897.8860269395
 20
171.3227619635
 30
0.0
 11
905.7291935292
 21
171.3227619635
 31
0.0
  0
LINE
  5
2D1
330
1F
100
AcDbEntity
  8
0
  6
Continuous
 62
     7
370
    15
100
AcDbLine
 10
507.688988289
 20
121.3227612185
 30
0.0
 11
507.688988289
 21
171.3227619635
 31
0.0
  0
LINE
  5
2D2
330
1F
100
AcDbEntity
  8
0
  6
Continuous
 62
     7
370
    15
100
AcDbLine
 10
515.5321548787
 20
121.3227612185
 30
0.0
 11
507.688988289
 21
121.3227612185
 31
0.0
  0
LINE
  5
2D3
330
1F
100
AcDbEntity
  8
0
  6
Continuous
 62
     7
370
    15
100
AcDbLine
 10
507.688988289
 20
171.3227619635
 30
0.0
 11
515.5321548787
 21
171.3227619635
 31
0.0
  0
LINE
  5
2D4
330
1F
100
AcDbEntity
  8
0
  6
Continuous
 62
     7
370
    15
100
AcDbLine
 10
906.7090938893
 20
121.3227612185
 30
0.0
 11
906.7090938893
 21
171.3227619635
 31
0.0
  0
LINE
  5
2D5
330
1F
100
AcDbEntity
  8
0
  6
Continuous
 62
     7
370
    15
100
AcDbLine
 10
906.7090938893
 20
121.3227612185
 30
0.0
 11
905.7291935292
 21
121.3227612185
 31
0.0
  0
LINE
  5
2D6
330
1F
100
AcDbEntity
  8
0
  6
Continuous
 62
     7
370
    15
100
AcDbLine
 10
906.7090938893
 20
171.3227619635
 30
0.0
 11
905.7291935292
 21
171.3227619635
 31
0.0
  0
LINE
  5
2D7
330
1F
100
AcDbEntity
  8
0
  6
Continuous
 62
     7
370
    15
100
AcDbLine
 10
506.7090879289
 20
121.3227612185
 30
0.0
 11
506.7090879289
 21
171.3227619635
 31
0.0
  0
LINE
  5
2D8
330
1F
100
AcDbEntity
  8
0
  6
Continuous
 62
     7
370
    15
100
AcDbLine
 10
507.688988289
 20
121.3227612185
 30
0.0
 11
506.7090879289
 21
121.3227612185
 31
0.0
  0
LINE
  5
2D9
330
1F
100
AcDbEntity
  8
0
  6
Continuous
 62
     7
370
    15
100
AcDbLine
 10
507.688988289
 20
171.3227619635
 30
0.0
 11
506.7090879289
 21
171.3227619635
 31
0.0
  0
LINE
  5
2DA
330
1F
100
AcDbEntity
  8
0
  6
Continuous
 62
     7
370
    15
100
AcDbLine
 10
709.2090908532
 20
147.3323415718
 30
0.0
 11
709.2090908532
 21
135.1614491301
 31
0.0
  0
LINE
  5
2DB
330
1F
100
AcDbEntity
  8
0
  6
Continuous
 62
     7
370
    15
100
AcDbLine
 10
709.2090908532
 20
159.5032344791
 30
0.0
 11
709.2090908532
 21
147.3323415718
 31
0.0
  0
ARC
  5
2DC
330
1F
100
AcDbEntity
  8
0
  6
Continuous
 62
     7
370
    15
100
AcDbCircle
 10
706.7090909091
 20
147.3323415978
 30
0.0
 40
12.42499999999998
100
AcDbArc
 50
281.6075642206
 51
310.080493961
  0
LINE
  5
2DD
330
1F
100
AcDbEntity
  8
0
  6
Continuous
 62
     7
370
    15
100
AcDbLine
 10
714.7090912891
 20
137.8254694151
 30
0.0
 11
714.7090912891
 21
156.8392141941
 31
0.0
  0
ARC
  5
2DE
330
1F
100
AcDbEntity
  8
0
  6
Continuous
 62
     7
370
    15
100
AcDbCircle
 10
706.7090909091
 20
147.3323415978
 30
0.0
 40
12.42500000000001
100
AcDbArc
 50
49.919506039
 51
78.3924357794
  0
LINE
  5
2DF
330
1F
100
AcDbEntity
  8
0
  6
Continuous
 62
     7
370
    15
100
AcDbLine
 10
708.7090910041
 20
159.5953189986
 30
0.0
 11
708.7090910041
 21
148.8323415848
 31
0.0
  0
ARC
  5
2E0
330
1F
100
AcDbEntity
  8
0
  6
Continuous
 62
     7
370
    15
100
AcDbCircle
 10
706.7090909091
 20
147.3323415978
 30
0.0
 40
2.500000000000017
100
AcDbArc
 50
0.0
 51
36.8698976458
  0
ARC
  5
2E1
330
1F
100
AcDbEntity
  8
0
  6
Continuous
 62
     7
370
    15
100
AcDbCircle
 10
706.7090909091
 20
147.3323415978
 30
0.0
 40
12.42500000000004
100
AcDbArc
 50
78.3924357794
 51
80.7370411634
  0
LINE
  5
2E2
330
1F
100
AcDbEntity
  8
0
  6
Continuous
 62
     7
370
    15
100
AcDbLine
 10
704.7090908141
 20
159.5953189986
 30
0.0
 11
704.7090908141
 21
148.8323415848
 31
0.0
  0
ARC
  5
2E3
330
1F
100
AcDbEntity
  8
0
  6
Continuous
 62
     7
370
    15
100
AcDbCircle
 10
706.7090909091
 20
147.3323415978
 30
0.0
 40
2.500000000000017
100
AcDbArc
 50
143.1301023542
 51
180.0
  0
LINE
  5
2E4
330
1F
100
AcDbEntity
  8
0
  6
Continuous
 62
     7
370
    15
100
AcDbLine
 10
704.209090965
 20
147.3323415718
 30
0.0
 11
704.209090965
 21
159.5032344791
 31
0.0
  0
ARC
  5
2E5
330
1F
100
AcDbEntity
  8
0
  6
Continuous
 62
     7
370
    15
100
AcDbCircle
 10
706.7090909091
 20
147.3323415978
 30
0.0
 40
12.42500000000004
100
AcDbArc
 50
99.2629588366
 51
101.6075642206
  0
ARC
  5
2E6
330
1F
100
AcDbEntity
  8
0
  6
Continuous
 62
     7
370
    15
100
AcDbCircle
 10
706.7090909091
 20
147.3323415978
 30
0.0
 40
12.42500000000001
100
AcDbArc
 50
229.919506039
 51
258.3924357794
  0
LINE
  5
2E7
330
1F
100
AcDbEntity
  8
0
  6
Continuous
 62
     7
370
    15
100
AcDbLine
 10
698.7090905291
 20
156.8392141941
 30
0.0
 11
698.7090905291
 21
137.8254694151
 31
0.0
  0
LINE
  5
2E8
330
1F
100
AcDbEntity
  8
0
  6
Continuous
 62
     7
370
    15
100
AcDbLine
 10
704.209090965
 20
135.1614491301
 30
0.0
 11
704.209090965
 21
147.3323415718
 31
0.0
  0
ARC
  5
2E9
330
1F
100
AcDbEntity
  8
0
  6
Continuous
 62
     7
370
    15
100
AcDbCircle
 10
706.7090909091
 20
147.3323415978
 30
0.0
 40
12.42500000000001
100
AcDbArc
 50
101.6075642206
 51
130.080493961
  0
ARC
  5
2EA
330
1F
100
AcDbEntity
  8
0
  6
Continuous
 62
     7
370
    15
100
AcDbCircle
 10
706.7090909091
 20
147.3323415978
 30
0.0
 40
12.42500000000001
100
AcDbArc
 50
258.3924357794
 51
260.7370411634
  0
ARC
  5
2EB
330
1F
100
AcDbEntity
  8
0
  6
Continuous
 62
     7
370
    15
100
AcDbCircle
 10
706.7090909091
 20
147.3323415978
 30
0.0
 40
2.5
100
AcDbArc
 50
180.0
 51
216.8698976458
  0
LINE
  5
2EC
330
1F
100
AcDbEntity
  8
0
  6
Continuous
 62
     7
370
    15
100
AcDbLine
 10
704.7090908141
 20
145.8323416169
 30
0.0
 11
704.7090908141
 21
135.0693636792
 31
0.0
  0
LINE
  5
2ED
330
1F
100
AcDbEntity
  8
0
  6
Continuous
 62
     7
370
    15
100
AcDbLine
 10
708.7090910041
 20
145.8323416169
 30
0.0
 11
708.7090910041
 21
135.0693636792
 31
0.0
  0
ARC
  5
2EE
330
1F
100
AcDbEntity
  8
0
  6
Continuous
 62
     7
370
    15
100
AcDbCircle
 10
706.7090909091
 20
147.3323415978
 30
0.0
 40
2.5
100
AcDbArc
 50
323.1301023542
 51
0.0
  0
ARC
  5
2EF
330
1F
100
AcDbEntity
  8
0
  6
Continuous
 62
     7
370
    15
100
AcDbCircle
 10
706.7090909091
 20
147.3323415978
 30
0.0
 40
12.42499999999998
100
AcDbArc
 50
279.2629588366
 51
281.6075642206
  0
ARC
  5
2F0
330
1F
100
AcDbEntity
  8
0
  6
Continuous
 62
     7
370
    15
100
AcDbCircle
 10
706.7090909091
 20
147.3323415978
 30
0.0
 40
2.500000000000034
100
AcDbArc
 50
36.8698976458
 51
143.1301023542
  0
ARC
  5
2F1
330
1F
100
AcDbEntity
  8
0
  6
Continuous
 62
     7
370
    15
100
AcDbCircle
 10
706.7090909091
 20
147.3323415978
 30
0.0
 40
12.42500000000007
100
AcDbArc
 50
80.7370411634
 51
99.2629588366
  0
ARC
  5
2F2
330
1F
100
AcDbEntity
  8
0
  6
Continuous
 62
     7
370
    15
100
AcDbCircle
 10
706.7090909091
 20
147.3323415978
 30
0.0
 40
2.5
100
AcDbArc
 50
216.8698976458
 51
323.1301023542
  0
ARC
  5
2F3
330
1F
100
AcDbEntity
  8
0
  6
Continuous
 62
     7
370
    15
100
AcDbCircle
 10
706.7090909091
 20
147.3323415978
 30
0.0
 40
12.42500000000001
100
AcDbArc
 50
260.7370411634
 51
279.2629588366
  0
ARC
  5
2F4
330
1F
100
AcDbEntity
  8
0
  6
Continuous
 62
     7
370
    15
100
AcDbCircle
 10
706.7090909091
 20
147.3323415978
 30
0.0
 40
12.4000000000001
100
AcDbArc
 50
140.7234193842
 51
219.2765806158
  0
LINE
  5
2F5
330
1F
100
AcDbEntity
  8
0
  6
Continuous
 62
     7
370
    15
100
AcDbLine
 10
697.1102629882
 20
139.4823416355
 30
0.0
 11
698.7090905291
 21
139.4823416355
 31
0.0
  0
LINE
  5
2F6
330
1F
100
AcDbEntity
  8
0
  6
Continuous
 62
     7
370
    15
100
AcDbLine
 10
714.7090912891
 20
139.4823416355
 30
0.0
 11
716.3079188299
 21
139.4823416355
 31
0.0
  0
ARC
  5
2F7
330
1F
100
AcDbEntity
  8
0
  6
Continuous
 62
     7
370
    15
100
AcDbCircle
 10
706.7090909091
 20
147.3323415978
 30
0.0
 40
12.39999999999993
100
AcDbArc
 50
320.7234193842
 51
39.2765806158
  0
LINE
  5
2F8
330
1F
100
AcDbEntity
  8
0
  6
Continuous
 62
     7
370
    15
100
AcDbLine
 10
698.7090905291
 20
155.1823419737
 30
0.0
 11
697.1102629882
 21
155.1823419737
 31
0.0
  0
LINE
  5
2F9
330
1F
100
AcDbEntity
  8
0
  6
Continuous
 62
     7
370
    15
100
AcDbLine
 10
712.6562197787
 20
117.182341333
 30
0.0
 11
715.0325144735
 21
133.2595617729
 31
0.0
  0
LINE
  5
2FA
330
1F
100
AcDbEntity
  8
0
  6
Continuous
 62
     7
370
    15
100
AcDbLine
 10
700.7619620395
 20
117.182341333
 30
0.0
 11
712.6562197787
 21
117.182341333
 31
0.0
  0
LINE
  5
2FB
330
1F
100
AcDbEntity
  8
0
  6
Continuous
 62
     7
370
    15
100
AcDbLine
 10
698.3856673447
 20
133.2595617729
 30
0.0
 11
700.7619620395
 21
117.182341333
 31
0.0
  0
ARC
  5
2FC
330
1F
100
AcDbEntity
  8
0
  6
Continuous
 62
     7
370
    15
100
AcDbCircle
 10
706.7090909091
 20
147.3323415978
 30
0.0
 40
16.34999999999999
100
AcDbArc
 50
300.6024274364
 51
239.3975725636
  0
LINE
  5
2FD
330
1F
100
AcDbEntity
  8
0
  6
Continuous
 62
     7
370
    15
100
AcDbLine
 10
716.3079188299
 20
155.1823419737
 30
0.0
 11
714.7090912891
 21
155.1823419737
 31
0.0
  0
SPLINE
  5
2FE
330
1F
100
AcDbEntity
  8
0
  6
Continuous
 62
     7
370
    15
100
AcDbSpline
210
0.0
220
0.0
230
1.0
 70
    24
 71
     1
 72
     4
 73
     2
 74
     0
 42
0.00000001
 43
0.00000001
 40
0.0
 40
0.0
 40
1.0
 40
1.0
 10
695.709090968695
 20
131.5347942742088
 30
0.0
 10
698.3856673446563
 20
133.2595617728808
 30
0.0
  0
ARC
  5
2FF
330
1F
100
AcDbEntity
  8
0
  6
Continuous
 62
     7
370
    15
100
AcDbCircle
 10
706.7090909091
 20
147.3323415978
 30
0.0
 40
19.24999999999999
100
AcDbArc
 50
304.849904579
 51
235.150095421
  0
SPLINE
  5
300
330
1F
100
AcDbEntity
  8
0
  6
Continuous
 62
     7
370
    15
100
AcDbSpline
210
0.0
220
0.0
230
1.0
 70
    24
 71
     1
 72
     4
 73
     2
 74
     0
 42
0.00000001
 43
0.00000001
 40
0.0
 40
0.0
 40
1.0
 40
1.0
 10
715.0325144735244
 20
133.2595617728808
 30
0.0
 10
717.7090908494857
 20
131.5347942742088
 30
0.0
  0
LINE
  5
301
330
1F
100
AcDbEntity
  8
0
  6
Continuous
 62
     7
370
    15
100
AcDbLine
 10
715.3483809066
 20
115.5630172449
 30
0.0
 11
717.7090908495
 21
131.5347942742
 31
0.0
  0
ARC
  5
302
330
1F
100
AcDbEntity
  8
0
  6
Continuous
 62
     7
370
    15
100
AcDbCircle
 10
713.8645022838
 20
115.7823415978
 30
0.0
 40
1.500000000000061
100
AcDbArc
 50
310.7961333222
 51
351.5922666445
  0
LINE
  5
303
330
1F
100
AcDbEntity
  8
0
  6
Continuous
 62
     7
370
    15
100
AcDbLine
 10
712.6562197787
 20
117.182341333
 30
0.0
 11
714.8445568142
 21
114.646782096
 31
0.0
  0
ARC
  5
304
330
1F
100
AcDbEntity
  8
0
  6
Continuous
 62
     7
370
    15
100
AcDbCircle
 10
713.8645022838
 20
115.7823415978
 30
0.0
 40
1.500000000000061
100
AcDbArc
 50
270.0
 51
310.7961333222
  0
LINE
  5
305
330
1F
100
AcDbEntity
  8
0
  6
Continuous
 62
     7
370
    15
100
AcDbLine
 10
699.553679498
 20
114.2823406714
 30
0.0
 11
713.8645023202
 21
114.2823406714
 31
0.0
  0
ARC
  5
306
330
1F
100
AcDbEntity
  8
0
  6
Continuous
 62
     7
370
    15
100
AcDbCircle
 10
699.5536795344
 20
115.7823415978
 30
0.0
 40
1.500000000000093
100
AcDbArc
 50
229.2038666778
 51
270.0
  0
LINE
  5
307
330
1F
100
AcDbEntity
  8
0
  6
Continuous
 62
     7
370
    15
100
AcDbLine
 10
698.573625004
 20
114.646782096
 30
0.0
 11
700.7619620395
 21
117.182341333
 31
0.0
  0
ARC
  5
308
330
1F
100
AcDbEntity
  8
0
  6
Continuous
 62
     7
370
    15
100
AcDbCircle
 10
699.5536795344
 20
115.7823415978
 30
0.0
 40
1.500000000000093
100
AcDbArc
 50
188.4077333555
 51
229.2038666778
  0
LINE
  5
309
330
1F
100
AcDbEntity
  8
0
  6
Continuous
 62
     7
370
    15
100
AcDbLine
 10
695.7090909687
 20
131.5347942742
 30
0.0
 11
698.0698009116
 21
115.5630172449
 31
0.0
  0
CIRCLE
  5
30A
330
1F
100
AcDbEntity
  8
0
  6
Continuous
 62
     7
370
    15
100
AcDbCircle
 10
666.7090909091
 20
132.3323415978
 30
0.0
 40
2.0
  0
CIRCLE
  5
30B
330
1F
100
AcDbEntity
  8
0
  6
Continuous
 62
     7
370
    15
100
AcDbCircle
 10
746.7090909091
 20
132.3323415978
 30
0.0
 40
2.0
  0
LINE
  5
30C
330
1F
100
AcDbEntity
  8
0
  6
Continuous
 62
     7
370
    15
100
AcDbLine
 10
819.2090879289
 20
173.0377719956
 30
0.0
 11
819.2090879289
 21
121.6269106823
 31
0.0
  0
LINE
  5
30D
330
1F
100
AcDbEntity
  8
0
  6
Continuous
 62
     7
370
    15
100
AcDbLine
 10
594.2090938893
 20
173.0377719956
 30
0.0
 11
594.2090938893
 21
121.6269106823
 31
0.0
  0
LINE
  5
30E
330
1F
100
AcDbEntity
  8
0
  6
Continuous
 62
     7
370
    15
100
AcDbLine
 10
594.2090938893
 20
173.0377719956
 30
0.0
 11
819.2090879289
 21
173.0377719956
 31
0.0
  0
CIRCLE
  5
30F
330
1F
100
AcDbEntity
  8
0
  6
Continuous
 62
     7
370
    15
100
AcDbCircle
 10
746.7090909091
 20
162.3323415978
 30
0.0
 40
2.0
  0
CIRCLE
  5
310
330
1F
100
AcDbEntity
  8
0
  6
Continuous
 62
     7
370
    15
100
AcDbCircle
 10
666.7090909091
 20
162.3323415978
 30
0.0
 40
2.0
  0
LINE
  5
311
330
1F
100
AcDbEntity
  8
0
  6
Continuous
 62
     7
370
    15
100
AcDbLine
 10
819.2090879289
 20
175.6810610401
 30
0.0
 11
594.2090938893
 21
175.6810610401
 31
0.0
  0
LINE
  5
312
330
1F
100
AcDbEntity
  8
0
  6
Continuous
 62
     7
370
    15
100
AcDbLine
 10
594.2090938893
 20
175.6810610401
 30
0.0
 11
594.2090938893
 21
173.0377719956
 31
0.0
  0
LINE
  5
313
330
1F
100
AcDbEntity
  8
0
  6
Continuous
 62
     7
370
    15
100
AcDbLine
 10
819.2090879289
 20
175.6810610401
 30
0.0
 11
819.2090879289
 21
173.0377719956
 31
0.0
  0
LINE
  5
314
330
1F
100
AcDbEntity
  8
0
  6
Continuous
 62
     7
370
    15
100
AcDbLine
 10
594.2090938893
 20
121.6269106823
 30
0.0
 11
594.2090938893
 21
118.9836235004
 31
0.0
  0
LINE
  5
315
330
1F
100
AcDbEntity
  8
0
  6
Continuous
 62
     7
370
    15
100
AcDbLine
 10
819.2090879289
 20
121.6269106823
 30
0.0
 11
819.2090879289
 21
118.9836235004
 31
0.0
  0
LINE
  5
316
330
1F
100
AcDbEntity
  8
0
  6
Continuous
 62
     7
370
    15
100
AcDbLine
 10
826.2090872136
 20
119.2335346001
 30
0.0
 11
826.2090872136
 21
121.8766206163
 31
0.0
  0
LINE
  5
317
330
1F
100
AcDbEntity
  8
0
  6
Continuous
 62
     7
370
    15
100
AcDbLine
 10
826.2090872136
 20
121.8766206163
 30
0.0
 11
828.2090912667
 21
121.8766206163
 31
0.0
  0
SPLINE
  5
318
330
1F
100
AcDbEntity
  8
0
  6
Continuous
 62
     7
370
    15
100
AcDbSpline
210
0.0
220
0.0
230
1.0
 70
    24
 71
     3
 72
    11
 73
     7
 74
     0
 42
0.00000001
 43
0.00000001
 40
0.0
 40
0.0
 40
0.0
 40
0.0
 40
0.2501263418815799
 40
0.4999958647057173
 40
0.7496263166200081
 40
1.0
 40
1.0
 40
1.0
 40
1.0
 10
828.2090912667182
 20
120.995591323314
 30
0.0
 10
828.2090912667182
 20
121.0440846566916
 30
0.0
 10
828.2090912667182
 20
121.1410215325608
 30
0.0
 10
828.2090912667182
 20
121.3580296187988
 30
0.0
 10
828.2090912667182
 20
121.6064790291161
 30
0.0
 10
828.2090912667182
 20
121.7864842309264
 30
0.0
 10
828.2090912667182
 20
121.8766206162551
 30
0.0
  0
ARC
  5
319
330
1F
100
AcDbEntity
  8
0
  6
Continuous
 62
     7
370
    15
100
AcDbCircle
 10
826.3209863783
 20
121.1225948258
 30
0.0
 40
1.89237151726347
100
AcDbArc
 50
266.6100250519
 51
356.1517923999
  0
LINE
  5
31A
330
1F
100
AcDbEntity
  8
0
  6
Continuous
 62
     7
370
    15
100
AcDbLine
 10
826.2090872136
 20
172.7880639243
 30
0.0
 11
826.2090872136
 21
175.4311480778
 31
0.0
  0
ARC
  5
31B
330
1F
100
AcDbEntity
  8
0
  6
Continuous
 62
     7
370
    15
100
AcDbCircle
 10
826.3209889669
 20
173.5420907902
 30
0.0
 40
1.892368737350486
100
AcDbArc
 50
3.8481241023
 51
93.3900584459
  0
SPLINE
  5
31C
330
1F
100
AcDbEntity
  8
0
  6
Continuous
 62
     7
370
    15
100
AcDbSpline
210
0.0
220
0.0
230
1.0
 70
    24
 71
     3
 72
    11
 73
     7
 74
     0
 42
0.00000001
 43
0.00000001
 40
0.0
 40
0.0
 40
0.0
 40
0.0
 40
0.25012180378895
 40
0.4999851412691058
 40
0.7496223119353507
 40
1.0
 40
1.0
 40
1.0
 40
1.0
 10
828.2090912667182
 20
172.7880639242509
 30
0.0
 10
828.2090912667182
 20
172.8781029459155
 30
0.0
 10
828.2090912667182
 20
173.0580879463625
 30
0.0
 10
828.2090912667182
 20
173.3065010598912
 30
0.0
 10
828.2090912667182
 20
173.5236745248634
 30
0.0
 10
828.2090912667182
 20
173.6205712436031
 30
0.0
 10
828.2090912667182
 20
173.6690913545468
 30
0.0
  0
LINE
  5
31D
330
1F
100
AcDbEntity
  8
0
  6
Continuous
 62
     7
370
    15
100
AcDbLine
 10
826.2090872136
 20
172.7880639243
 30
0.0
 11
828.2090912667
 21
172.7880639243
 31
0.0
  0
LINE
  5
31E
330
1F
100
AcDbEntity
  8
0
  6
Continuous
 62
     7
370
    15
100
AcDbLine
 10
587.2090946046
 20
175.4311480778
 30
0.0
 11
587.2090946046
 21
172.7880639243
 31
0.0
  0
LINE
  5
31F
330
1F
100
AcDbEntity
  8
0
  6
Continuous
 62
     7
370
    15
100
AcDbLine
 10
585.2090905515
 20
172.7880639243
 30
0.0
 11
587.2090946046
 21
172.7880639243
 31
0.0
  0
SPLINE
  5
320
330
1F
100
AcDbEntity
  8
0
  6
Continuous
 62
     7
370
    15
100
AcDbSpline
210
0.0
220
0.0
230
1.0
 70
    24
 71
     3
 72
    11
 73
     7
 74
     0
 42
0.00000001
 43
0.00000001
 40
0.0
 40
0.0
 40
0.0
 40
0.0
 40
0.2501267714208686
 40
0.499996723343262
 40
0.749627603945255
 40
1.0
 40
1.0
 40
1.0
 40
1.0
 10
585.2090905514625
 20
173.6690913545468
 30
0.0
 10
585.2090905514625
 20
173.6205980212687
 30
0.0
 10
585.2090905514625
 20
173.5236611455982
 30
0.0
 10
585.2090905514624
 20
173.3066530578713
 30
0.0
 10
585.2090905514625
 20
173.0582042221851
 30
0.0
 10
585.2090905514625
 20
172.8781996737486
 30
0.0
 10
585.2090905514625
 20
172.7880639242509
 30
0.0
  0
ARC
  5
321
330
1F
100
AcDbEntity
  8
0
  6
Continuous
 62
     7
370
    15
100
AcDbCircle
 10
587.0971928513
 20
173.5420907902
 30
0.0
 40
1.89236873735057
100
AcDbArc
 50
86.6099415541
 51
176.1518758977
  0
LINE
  5
322
330
1F
100
AcDbEntity
  8
0
  6
Continuous
 62
     7
370
    15
100
AcDbLine
 10
587.2090946046
 20
121.8766206163
 30
0.0
 11
587.2090946046
 21
119.2335346001
 31
0.0
  0
ARC
  5
323
330
1F
100
AcDbEntity
  8
0
  6
Continuous
 62
     7
370
    15
100
AcDbCircle
 10
587.0971954399
 20
121.1225948258
 30
0.0
 40
1.892371517263583
100
AcDbArc
 50
183.8482076001
 51
273.3899749481
  0
SPLINE
  5
324
330
1F
100
AcDbEntity
  8
0
  6
Continuous
 62
     7
370
    15
100
AcDbSpline
210
0.0
220
0.0
230
1.0
 70
    24
 71
     3
 72
    11
 73
     7
 74
     0
 42
0.00000001
 43
0.00000001
 40
0.0
 40
0.0
 40
0.0
 40
0.0
 40
0.2501214057403016
 40
0.4999859370023673
 40
0.7496227103912183
 40
0.9999999999999999
 40
0.9999999999999999
 40
0.9999999999999999
 40
0.9999999999999999
 10
585.2090905514625
 20
121.8766206162551
 30
0.0
 10
585.2090905514625
 20
121.7865816324703
 30
0.0
 10
585.2090905514625
 20
121.6065961348632
 30
0.0
 10
585.2090905514625
 20
121.3581819949057
 30
0.0
 10
585.2090905514625
 20
121.1410081740516
 30
0.0
 10
585.2090905514625
 20
121.0441114412827
 30
0.0
 10
585.2090905514625
 20
120.995591323314
 30
0.0
  0
LINE
  5
325
330
1F
100
AcDbEntity
  8
0
  6
Continuous
 62
     7
370
    15
100
AcDbLine
 10
585.2090905515
 20
121.8766206163
 30
0.0
 11
587.2090946046
 21
121.8766206163
 31
0.0
  0
LINE
  5
326
330
1F
100
AcDbEntity
  8
0
  6
Continuous
 62
     7
370
    15
100
AcDbLine
 10
826.2090872136
 20
121.8766206163
 30
0.0
 11
826.2090872136
 21
172.7880639243
 31
0.0
  0
LINE
  5
327
330
1F
100
AcDbEntity
  8
0
  6
Continuous
 62
     7
370
    15
100
AcDbLine
 10
828.2090912667
 20
121.8766206163
 30
0.0
 11
828.2090912667
 21
172.7880639243
 31
0.0
  0
LINE
  5
328
330
1F
100
AcDbEntity
  8
0
  6
Continuous
 62
     7
370
    15
100
AcDbLine
 10
587.2090946046
 20
172.7880639243
 30
0.0
 11
587.2090946046
 21
121.8766206163
 31
0.0
  0
LINE
  5
329
330
1F
100
AcDbEntity
  8
0
  6
Continuous
 62
     7
370
    15
100
AcDbLine
 10
585.2090905515
 20
172.7880639243
 30
0.0
 11
585.2090905515
 21
121.8766206163
 31
0.0
  0
LINE
  5
32A
330
1F
100
AcDbEntity
  8
0
  6
Continuous
 62
     7
370
    15
100
AcDbLine
 10
819.2090879289
 20
121.8766206163
 30
0.0
 11
826.2090872136
 21
121.8766206163
 31
0.0
  0
LINE
  5
32B
330
1F
100
AcDbEntity
  8
0
  6
Continuous
 62
     7
370
    15
100
AcDbLine
 10
819.2090879289
 20
172.7880639243
 30
0.0
 11
826.2090872136
 21
172.7880639243
 31
0.0
  0
LINE
  5
32C
330
1F
100
AcDbEntity
  8
0
  6
Continuous
 62
     7
370
    15
100
AcDbLine
 10
819.2090879289
 20
175.4311480778
 30
0.0
 11
826.2090872136
 21
175.4311480778
 31
0.0
  0
LINE
  5
32D
330
1F
100
AcDbEntity
  8
0
  6
Continuous
 62
     7
370
    15
100
AcDbLine
 10
819.2090879289
 20
119.2335346001
 30
0.0
 11
826.2090872136
 21
119.2335346001
 31
0.0
  0
LINE
  5
32E
330
1F
100
AcDbEntity
  8
0
  6
Continuous
 62
     7
370
    15
100
AcDbLine
 10
594.2090938893
 20
175.4311480778
 30
0.0
 11
587.2090946046
 21
175.4311480778
 31
0.0
  0
LINE
  5
32F
330
1F
100
AcDbEntity
  8
0
  6
Continuous
 62
     7
370
    15
100
AcDbLine
 10
587.2090946046
 20
172.7880639243
 30
0.0
 11
594.2090938893
 21
172.7880639243
 31
0.0
  0
LINE
  5
330
330
1F
100
AcDbEntity
  8
0
  6
Continuous
 62
     7
370
    15
100
AcDbLine
 10
587.2090946046
 20
121.8766206163
 30
0.0
 11
594.2090938893
 21
121.8766206163
 31
0.0
  0
LINE
  5
331
330
1F
100
AcDbEntity
  8
0
  6
Continuous
 62
     7
370
    15
100
AcDbLine
 10
587.2090946046
 20
119.2335346001
 30
0.0
 11
594.2090938893
 21
119.2335346001
 31
0.0
  0
LINE
  5
332
330
1F
100
AcDbEntity
  8
0
  6
Continuous
 62
     7
370
    15
100
AcDbLine
 10
819.2090879289
 20
188.3657844024
 30
0.0
 11
594.2090938893
 21
188.3657844024
 31
0.0
  0
LINE
  5
333
330
1F
100
AcDbEntity
  8
0
  6
Continuous
 62
     7
370
    15
100
AcDbLine
 10
594.2090938893
 20
188.3657844024
 30
0.0
 11
594.2090938893
 21
175.6810610401
 31
0.0
  0
LINE
  5
334
330
1F
100
AcDbEntity
  8
0
  6
Continuous
 62
     7
370
    15
100
AcDbLine
 10
819.2090879289
 20
188.3657844024
 30
0.0
 11
819.2090879289
 21
175.6810610401
 31
0.0
  0
LINE
  5
335
330
1F
100
AcDbEntity
  8
0
  6
Continuous
 62
     7
370
    15
100
AcDbLine
 10
819.2090879289
 20
106.2988982754
 30
0.0
 11
594.2090938893
 21
106.2988982754
 31
0.0
  0
LINE
  5
336
330
1F
100
AcDbEntity
  8
0
  6
Continuous
 62
     7
370
    15
100
AcDbLine
 10
594.2090938893
 20
118.9836235004
 30
0.0
 11
594.2090938893
 21
106.2988982754
 31
0.0
  0
LINE
  5
337
330
1F
100
AcDbEntity
  8
0
  6
Continuous
 62
     7
370
    15
100
AcDbLine
 10
819.2090879289
 20
118.9836235004
 30
0.0
 11
819.2090879289
 21
106.2988982754
 31
0.0
  0
LINE
  5
338
330
1F
100
AcDbEntity
  8
0
  6
Continuous
 62
     7
370
    15
100
AcDbLine
 10
826.2090872136
 20
175.4311480778
 30
0.0
 11
826.2090872136
 21
187.9207351463
 31
0.0
  0
ARC
  5
339
330
1F
100
AcDbEntity
  8
0
  6
Continuous
 62
     7
370
    15
100
AcDbCircle
 10
826.3209864577
 20
186.031675145
 30
0.0
 40
1.892371297990167
100
AcDbArc
 50
3.8481447151
 51
93.3899777492
  0
LINE
  5
33A
330
1F
100
AcDbEntity
  8
0
  6
Continuous
 62
     7
370
    15
100
AcDbLine
 10
828.2090912667
 20
173.6690913545
 30
0.0
 11
828.2090912667
 21
186.1586765605
 31
0.0
  0
LINE
  5
33B
330
1F
100
AcDbEntity
  8
0
  6
Continuous
 62
     7
370
    15
100
AcDbLine
 10
826.2090872136
 20
119.2335346001
 30
0.0
 11
826.2090872136
 21
106.7439512568
 31
0.0
  0
LINE
  5
33C
330
1F
100
AcDbEntity
  8
0
  6
Continuous
 62
     7
370
    15
100
AcDbLine
 10
828.2090912667
 20
108.5060061174
 30
0.0
 11
828.2090912667
 21
120.9955913233
 31
0.0
  0
ARC
  5
33D
330
1F
100
AcDbEntity
  8
0
  6
Continuous
 62
     7
370
    15
100
AcDbCircle
 10
826.320991476
 20
108.6330058306
 30
0.0
 40
1.892366176722832
100
AcDbArc
 50
266.6098608576
 51
356.1518965103
  0
LINE
  5
33E
330
1F
100
AcDbEntity
  8
0
  6
Continuous
 62
     7
370
    15
100
AcDbLine
 10
587.2090946046
 20
175.4311480778
 30
0.0
 11
587.2090946046
 21
187.9207351463
 31
0.0
  0
LINE
  5
33F
330
1F
100
AcDbEntity
  8
0
  6
Continuous
 62
     7
370
    15
100
AcDbLine
 10
585.2090905515
 20
186.1586765605
 30
0.0
 11
585.2090905515
 21
173.6690913545
 31
0.0
  0
ARC
  5
340
330
1F
100
AcDbEntity
  8
0
  6
Continuous
 62
     7
370
    15
100
AcDbCircle
 10
587.0971953605
 20
186.031675145
 30
0.0
 40
1.89237129799015
100
AcDbArc
 50
86.6100222508
 51
176.1518552849
  0
LINE
  5
341
330
1F
100
AcDbEntity
  8
0
  6
Continuous
 62
     7
370
    15
100
AcDbLine
 10
587.2090946046
 20
119.2335346001
 30
0.0
 11
587.2090946046
 21
106.7439512568
 31
0.0
  0
ARC
  5
342
330
1F
100
AcDbEntity
  8
0
  6
Continuous
 62
     7
370
    15
100
AcDbCircle
 10
587.0971903422
 20
108.6330058306
 30
0.0
 40
1.892366176722832
100
AcDbArc
 50
183.8481034897
 51
273.3901391424
  0
LINE
  5
343
330
1F
100
AcDbEntity
  8
0
  6
Continuous
 62
     7
370
    15
100
AcDbLine
 10
585.2090905515
 20
120.9955913233
 30
0.0
 11
585.2090905515
 21
108.5060061174
 31
0.0
  0
LINE
  5
344
330
1F
100
AcDbEntity
  8
0
  6
Continuous
 62
     7
370
    15
100
AcDbLine
 10
819.2090879289
 20
187.9207351463
 30
0.0
 11
826.2090872136
 21
187.9207351463
 31
0.0
  0
LINE
  5
345
330
1F
100
AcDbEntity
  8
0
  6
Continuous
 62
     7
370
    15
100
AcDbLine
 10
826.2090872136
 20
106.7439512568
 30
0.0
 11
819.2090879289
 21
106.7439512568
 31
0.0
  0
LINE
  5
346
330
1F
100
AcDbEntity
  8
0
  6
Continuous
 62
     7
370
    15
100
AcDbLine
 10
587.2090946046
 20
187.9207351463
 30
0.0
 11
594.2090938893
 21
187.9207351463
 31
0.0
  0
LINE
  5
347
330
1F
100
AcDbEntity
  8
0
  6
Continuous
 62
     7
370
    15
100
AcDbLine
 10
587.2090946046
 20
106.7439512568
 30
0.0
 11
594.2090938893
 21
106.7439512568
 31
0.0
  0
LINE
  5
348
330
1F
100
AcDbEntity
  8
0
  6
Continuous
 62
     7
370
    15
100
AcDbLine
 10
594.2090938893
 20
196.3323400574
 30
0.0
 11
594.2090938893
 21
188.3657844024
 31
0.0
  0
LINE
  5
349
330
1F
100
AcDbEntity
  8
0
  6
Continuous
 62
     7
370
    15
100
AcDbLine
 10
819.2090879289
 20
196.3323400574
 30
0.0
 11
819.2090879289
 21
188.3657844024
 31
0.0
  0
LINE
  5
34A
330
1F
100
AcDbEntity
  8
0
  6
Continuous
 62
     7
370
    15
100
AcDbLine
 10
594.2090938893
 20
100.2332688528
 30
0.0
 11
819.2090879289
 21
100.2332688528
 31
0.0
  0
LINE
  5
34B
330
1F
100
AcDbEntity
  8
0
  6
Continuous
 62
     7
370
    15
100
AcDbLine
 10
594.2090938893
 20
106.2988982754
 30
0.0
 11
594.2090938893
 21
100.2332688528
 31
0.0
  0
LINE
  5
34C
330
1F
100
AcDbEntity
  8
0
  6
Continuous
 62
     7
370
    15
100
AcDbLine
 10
819.2090879289
 20
106.2988982754
 30
0.0
 11
819.2090879289
 21
100.2332688528
 31
0.0
  0
SPLINE
  5
34D
330
1F
100
AcDbEntity
  8
0
  6
Continuous
 62
     7
370
    15
100
AcDbSpline
210
0.0
220
0.0
230
1.0
 70
    24
 71
     3
 72
    11
 73
     7
 74
     0
 42
0.00000001
 43
0.00000001
 40
0.0
 40
0.0
 40
0.0
 40
0.0
 40
0.2490490463418547
 40
0.5000002716651235
 40
0.7509511890315117
 40
1.0
 40
1.0
 40
1.0
 40
1.0
 10
828.2090912667185
 20
100.8323402362447
 30
0.0
 10
828.2090912667185
 20
100.9251371418842
 30
0.0
 10
828.2090912667184
 20
101.1114397144537
 30
0.0
 10
828.2090912667184
 20
102.6425778297803
 30
0.0
 10
828.2090912667184
 20
104.9971650374871
 30
0.0
 10
828.2090912667184
 20
107.3393624982272
 30
0.0
 10
828.2090912667184
 20
108.5060061174015
 30
0.0
  0
SPLINE
  5
34E
330
1F
100
AcDbEntity
  8
0
  6
Continuous
 62
     7
370
    15
100
AcDbSpline
210
0.0
220
0.0
230
1.0
 70
    24
 71
     3
 72
    11
 73
     7
 74
     0
 42
0.00000001
 43
0.00000001
 40
0.0
 40
0.0
 40
0.0
 40
0.0
 40
0.2490490463418547
 40
0.5000002716651235
 40
0.7509511890315117
 40
1.0
 40
1.0
 40
1.0
 40
1.0
 10
585.2090905514626
 20
193.8323424416165
 30
0.0
 10
585.2090905514627
 20
193.7395455359769
 30
0.0
 10
585.2090905514627
 20
193.5532429634074
 30
0.0
 10
585.2090905514626
 20
192.0221048480807
 30
0.0
 10
585.2090905514626
 20
189.667517640374
 30
0.0
 10
585.2090905514626
 20
187.3253201796338
 30
0.0
 10
585.2090905514626
 20
186.1586765604595
 30
0.0
  0
SPLINE
  5
34F
330
1F
100
AcDbEntity
  8
0
  6
Continuous
 62
     7
370
    15
100
AcDbSpline
210
0.0
220
0.0
230
1.0
 70
    24
 71
     3
 72
    12
 73
     8
 74
     0
 42
0.00000001
 43
0.00000001
 40
0.0
 40
0.0
 40
0.0
 40
0.0
 40
0.2933463974829816
 40
0.589819569860089
 40
0.7875196944913015
 40
0.9842975124809081
 40
1.0
 40
1.0
 40
1.0
 40
1.0
 10
828.2090912667184
 20
186.1586765604595
 30
0.0
 10
828.2090912667184
 20
187.5132020253106
 30
0.0
 10
828.2090912667184
 20
190.2366908218258
 30
0.0
 10
828.2090912667184
 20
192.4675771840447
 30
0.0
 10
828.2090912667185
 20
193.5416742089965
 30
0.0
 10
828.2090912667184
 20
193.9158793815202
 30
0.0
 10
828.2090912667185
 20
193.8176625221424
 30
0.0
 10
828.2090912667185
 20
193.8104042070489
 30
0.0
  0
SPLINE
  5
350
330
1F
100
AcDbEntity
  8
0
  6
Continuous
 62
     7
370
    15
100
AcDbSpline
210
0.0
220
0.0
230
1.0
 70
    24
 71
     3
 72
    12
 73
     8
 74
     0
 42
0.00000001
 43
0.00000001
 40
0.0
 40
0.0
 40
0.0
 40
0.0
 40
0.2933463974829816
 40
0.589819569860089
 40
0.7875196944913015
 40
0.9842975124809081
 40
1.0
 40
1.0
 40
1.0
 40
1.0
 10
585.2090905514626
 20
108.5060061174015
 30
0.0
 10
585.2090905514626
 20
107.1514806525504
 30
0.0
 10
585.2090905514626
 20
104.4279918560352
 30
0.0
 10
585.2090905514627
 20
102.1971054938164
 30
0.0
 10
585.2090905514626
 20
101.1230084688646
 30
0.0
 10
585.2090905514627
 20
100.748803296341
 30
0.0
 10
585.2090905514627
 20
100.8470201557188
 30
0.0
 10
585.2090905514627
 20
100.8542784708123
 30
0.0
  0
LINE
  5
351
330
1F
100
AcDbEntity
  8
0
  6
Continuous
 62
     7
370
    15
100
AcDbLine
 10
819.2090879289
 20
95.8109096842
 30
0.0
 11
594.2090938893
 21
95.8109096842
 31
0.0
  0
LINE
  5
352
330
1F
100
AcDbEntity
  8
0
  6
Continuous
 62
     7
370
    15
100
AcDbLine
 10
594.2090938893
 20
100.2332688528
 30
0.0
 11
594.2090938893
 21
95.8109096842
 31
0.0
  0
LINE
  5
353
330
1F
100
AcDbEntity
  8
0
  6
Continuous
 62
     7
370
    15
100
AcDbLine
 10
819.2090879289
 20
100.2332688528
 30
0.0
 11
819.2090879289
 21
95.8109096842
 31
0.0
  0
SPLINE
  5
354
330
1F
100
AcDbEntity
  8
0
  6
Continuous
 62
     7
370
    15
100
AcDbSpline
210
0.0
220
0.0
230
1.0
 70
     8
 71
     3
 72
    11
 73
     7
 74
     0
 42
0.00000001
 43
0.00000001
 40
0.0
 40
0.0
 40
0.0
 40
0.0
 40
0.2645350054653738
 40
0.5347680293465472
 40
0.7652627630607993
 40
1.0
 40
1.0
 40
1.0
 40
1.0
 10
835.2090905514626
 20
142.7135394638906
 30
0.0
 10
835.4147733413982
 20
142.3127237878084
 30
0.0
 10
835.8305692775573
 20
141.5024589653791
 30
0.0
 10
835.9828609270756
 20
140.3019488513983
 30
0.0
 10
835.7597620973111
 20
139.1540415662132
 30
0.0
 10
835.3937602708322
 20
138.4499787471574
 30
0.0
 10
835.2090905514626
 20
138.0947371231894
 30
0.0
  0
SPLINE
  5
355
330
1F
100
AcDbEntity
  8
0
  6
Continuous
 62
     7
370
    15
100
AcDbSpline
210
0.0
220
0.0
230
1.0
 70
     8
 71
     3
 72
    11
 73
     7
 74
     0
 42
0.00000001
 43
0.00000001
 40
0.0
 40
0.0
 40
0.0
 40
0.0
 40
0.2477412402716938
 40
0.4999975907088516
 40
0.7472711326969903
 40
1.0
 40
1.0
 40
1.0
 40
1.0
 10
835.2090905514626
 20
151.9511439124624
 30
0.0
 10
835.4029942404406
 20
151.2009109441413
 30
0.0
 10
835.7943355335261
 20
149.6867719327294
 30
0.0
 10
835.9840713721595
 20
147.3479237709897
 30
0.0
 10
835.797130531838
 20
144.9935433463872
 30
0.0
 10
835.4065244602032
 20
143.4790487719096
 30
0.0
 10
835.2090905514626
 20
142.7135394638906
 30
0.0
  0
SPLINE
  5
356
330
1F
100
AcDbEntity
  8
0
  6
Continuous
 62
     7
370
    15
100
AcDbSpline
210
0.0
220
0.0
230
1.0
 70
     8
 71
     3
 72
    11
 73
     7
 74
     0
 42
0.00000001
 43
0.00000001
 40
0.0
 40
0.0
 40
0.0
 40
0.0
 40
0.2645376654038468
 40
0.5347707226259988
 40
0.7652654389021548
 40
1.0
 40
1.0
 40
1.0
 40
1.0
 10
835.2090905514626
 20
156.5699455546717
 30
0.0
 10
835.4147732789592
 20
156.1691314230951
 30
0.0
 10
835.8305670021217
 20
155.358873789443
 30
0.0
 10
835.9828607895246
 20
154.1583532108735
 30
0.0
 10
835.7597646112307
 20
153.0104560011145
 30
0.0
 10
835.3937604252804
 20
152.306386775777
 30
0.0
 10
835.2090905514626
 20
151.9511439124624
 30
0.0
  0
LINE
  5
357
330
1F
100
AcDbEntity
  8
0
  6
Continuous
 62
     7
370
    15
100
AcDbLine
 10
836.209092578
 20
139.8323415066
 30
0.0
 11
836.209092578
 21
154.832341637
 31
0.0
  0
SPLINE
  5
358
330
1F
100
AcDbEntity
  8
0
  6
Continuous
 62
     7
370
    15
100
AcDbSpline
210
0.0
220
0.0
230
1.0
 70
     8
 71
     3
 72
    11
 73
     7
 74
     0
 42
0.00000001
 43
0.00000001
 40
0.0
 40
0.0
 40
0.0
 40
0.0
 40
0.2645351790196867
 40
0.5347681350553614
 40
0.7652627765969725
 40
1.0
 40
1.0
 40
1.0
 40
1.0
 10
829.2090932932763
 20
151.9511439124624
 30
0.0
 10
829.003405431609
 20
152.3519593311347
 30
0.0
 10
828.5875994333486
 20
153.1622232617738
 30
0.0
 10
828.4353384139688
 20
154.3627350003409
 30
0.0
 10
828.658418126786
 20
155.5106417189672
 30
0.0
 10
829.0244223389003
 20
156.2147040943375
 30
0.0
 10
829.2090932932763
 20
156.5699455546717
 30
0.0
  0
SPLINE
  5
359
330
1F
100
AcDbEntity
  8
0
  6
Continuous
 62
     7
370
    15
100
AcDbSpline
210
0.0
220
0.0
230
1.0
 70
     8
 71
     3
 72
    11
 73
     7
 74
     0
 42
0.00000001
 43
0.00000001
 40
0.0
 40
0.0
 40
0.0
 40
0.0
 40
0.2477411957814595
 40
0.4999975913285405
 40
0.7472711776022885
 40
0.9999999999999999
 40
0.9999999999999999
 40
0.9999999999999999
 40
0.9999999999999999
 10
829.2090932932763
 20
142.7135394638906
 30
0.0
 10
829.0151906423448
 20
143.4637724046459
 30
0.0
 10
828.6238513735077
 20
144.9779116342146
 30
0.0
 10
828.4340997341579
 20
147.3167593731374
 30
0.0
 10
828.6210564727359
 20
149.6711393732498
 30
0.0
 10
829.0116604685873
 20
151.1856341643549
 30
0.0
 10
829.2090932932763
 20
151.9511434468011
 30
0.0
  0
SPLINE
  5
35A
330
1F
100
AcDbEntity
  8
0
  6
Continuous
 62
     7
370
    15
100
AcDbSpline
210
0.0
220
0.0
230
1.0
 70
     8
 71
     3
 72
    11
 73
     7
 74
     0
 42
0.00000001
 43
0.00000001
 40
0.0
 40
0.0
 40
0.0
 40
0.0
 40
0.2645378805119999
 40
0.5347708008258333
 40
0.7652654330464506
 40
1.0
 40
1.0
 40
1.0
 40
1.0
 10
829.2090932932763
 20
138.0947371231894
 30
0.0
 10
829.0034054967915
 20
138.4955515505037
 30
0.0
 10
828.5876018038256
 20
139.3058092416235
 30
0.0
 10
828.4353385413954
 20
140.5063299209177
 30
0.0
 10
828.6584156313764
 20
141.6542273457201
 30
0.0
 10
829.0244221877816
 20
142.3582965450993
 30
0.0
 10
829.2090932932763
 20
142.7135394638906
 30
0.0
  0
LINE
  5
35B
330
1F
100
AcDbEntity
  8
0
  6
Continuous
 62
     7
370
    15
100
AcDbLine
 10
829.2090932933
 20
151.9511439125
 30
0.0
 11
835.2090905515
 21
151.9511439125
 31
0.0
  0
LINE
  5
35C
330
1F
100
AcDbEntity
  8
0
  6
Continuous
 62
     7
370
    15
100
AcDbLine
 10
835.2090905515
 20
156.5699455547
 30
0.0
 11
829.2090932933
 21
156.5699455547
 31
0.0
  0
LINE
  5
35D
330
1F
100
AcDbEntity
  8
0
  6
Continuous
 62
     7
370
    15
100
AcDbLine
 10
835.2090905515
 20
142.7135394639
 30
0.0
 11
829.2090932933
 21
142.7135394639
 31
0.0
  0
LINE
  5
35E
330
1F
100
AcDbEntity
  8
0
  6
Continuous
 62
     7
370
    15
100
AcDbLine
 10
835.2090905515
 20
138.0947371232
 30
0.0
 11
829.2090932933
 21
138.0947371232
 31
0.0
  0
SPLINE
  5
35F
330
1F
100
AcDbEntity
  8
0
  6
Continuous
 62
     7
370
    15
100
AcDbSpline
210
0.0
220
0.0
230
1.0
 70
     8
 71
     3
 72
    11
 73
     7
 74
     0
 42
0.00000001
 43
0.00000001
 40
0.0
 40
0.0
 40
0.0
 40
0.0
 40
0.2645350029344451
 40
0.5347680614093128
 40
0.76526277875397
 40
1.0
 40
1.0
 40
1.0
 40
1.0
 10
578.2090912667184
 20
151.9511439124624
 30
0.0
 10
578.003408476649
 20
152.3519594460453
 30
0.0
 10
577.5876125113117
 20
153.162224036739
 30
0.0
 10
577.4353208899535
 20
154.3627349158669
 30
0.0
 10
577.6584197181679
 20
155.5106415236789
 30
0.0
 10
578.0244215461894
 20
156.2147040683926
 30
0.0
 10
578.2090912667184
 20
156.5699455546717
 30
0.0
  0
SPLINE
  5
360
330
1F
100
AcDbEntity
  8
0
  6
Continuous
 62
     7
370
    15
100
AcDbSpline
210
0.0
220
0.0
230
1.0
 70
     8
 71
     3
 72
    11
 73
     7
 74
     0
 42
0.00000001
 43
0.00000001
 40
0.0
 40
0.0
 40
0.0
 40
0.0
 40
0.247741216045917
 40
0.4999975664812947
 40
0.7472711084676884
 40
0.9999999999999999
 40
0.9999999999999999
 40
0.9999999999999999
 40
0.9999999999999999
 10
578.2090912667184
 20
142.7135394638906
 30
0.0
 10
578.015187576736
 20
143.4637723540958
 30
0.0
 10
577.6238462623178
 20
144.9779112825464
 30
0.0
 10
577.4341104460902
 20
147.3167593745166
 30
0.0
 10
577.6210513077511
 20
149.6711398690911
 30
0.0
 10
578.0116573589473
 20
151.1856345263194
 30
0.0
 10
578.2090912667184
 20
151.9511439124624
 30
0.0
  0
SPLINE
  5
361
330
1F
100
AcDbEntity
  8
0
  6
Continuous
 62
     7
370
    15
100
AcDbSpline
210
0.0
220
0.0
230
1.0
 70
     8
 71
     3
 72
    11
 73
     7
 74
     0
 42
0.00000001
 43
0.00000001
 40
0.0
 40
0.0
 40
0.0
 40
0.0
 40
0.2645377044280476
 40
0.5347707271805958
 40
0.7652654352038436
 40
1.0
 40
1.0
 40
1.0
 40
1.0
 10
578.2090912667184
 20
138.0947371231894
 30
0.0
 10
578.0034085418644
 20
138.4955516654151
 30
0.0
 10
577.5876148818395
 20
139.305810016579
 30
0.0
 10
577.435321017387
 20
140.5063298364471
 30
0.0
 10
577.6584172227077
 20
141.6542271504311
 30
0.0
 10
578.0244213950494
 20
142.3582965191548
 30
0.0
 10
578.2090912667184
 20
142.7135394638906
 30
0.0
  0
LINE
  5
362
330
1F
100
AcDbEntity
  8
0
  6
Continuous
 62
     7
370
    15
100
AcDbLine
 10
577.2090892402
 20
154.832341637
 30
0.0
 11
577.2090892402
 21
139.8323415066
 31
0.0
  0
SPLINE
  5
363
330
1F
100
AcDbEntity
  8
0
  6
Continuous
 62
     7
370
    15
100
AcDbSpline
210
0.0
220
0.0
230
1.0
 70
     8
 71
     3
 72
    11
 73
     7
 74
     0
 42
0.00000001
 43
0.00000001
 40
0.0
 40
0.0
 40
0.0
 40
0.0
 40
0.2645351815506035
 40
0.5347681029925803
 40
0.7652627609037996
 40
1.0
 40
1.0
 40
1.0
 40
1.0
 10
584.2090885249047
 20
142.7135394638906
 30
0.0
 10
584.4147763864385
 20
142.3127239027189
 30
0.0
 10
584.8305823555206
 20
141.5024597403442
 30
0.0
 10
584.9828434030602
 20
140.3019487669242
 30
0.0
 10
584.7597636886933
 20
139.1540413709249
 30
0.0
 10
584.3937594781215
 20
138.4499787212125
 30
0.0
 10
584.2090885249047
 20
138.0947371231894
 30
0.0
  0
SPLINE
  5
364
330
1F
100
AcDbEntity
  8
0
  6
Continuous
 62
     7
370
    15
100
AcDbSpline
210
0.0
220
0.0
230
1.0
 70
     8
 71
     3
 72
    11
 73
     7
 74
     0
 42
0.00000001
 43
0.00000001
 40
0.0
 40
0.0
 40
0.0
 40
0.0
 40
0.2477412080011586
 40
0.499997591325129
 40
0.7472711656172087
 40
0.9999999999999999
 40
0.9999999999999999
 40
0.9999999999999999
 40
0.9999999999999999
 10
584.2090885249047
 20
151.9511439124624
 30
0.0
 10
584.4029911741003
 20
151.2009108937515
 30
0.0
 10
584.7943304201287
 20
149.686771581545
 30
0.0
 10
584.9840820930347
 20
147.3479237704085
 30
0.0
 10
584.7971253217274
 20
144.9935436978062
 30
0.0
 10
584.406521347849
 20
143.4790488242895
 30
0.0
 10
584.2090885249047
 20
142.7135394638906
 30
0.0
  0
SPLINE
  5
365
330
1F
100
AcDbEntity
  8
0
  6
Continuous
 62
     7
370
    15
100
AcDbSpline
210
0.0
220
0.0
230
1.0
 70
     8
 71
     3
 72
    11
 73
     7
 74
     0
 42
0.00000001
 43
0.00000001
 40
0.0
 40
0.0
 40
0.0
 40
0.0
 40
0.2645378414878261
 40
0.5347707962712581
 40
0.7652654367447717
 40
1.0
 40
1.0
 40
1.0
 40
1.0
 10
584.2090885249047
 20
156.5699455546717
 30
0.0
 10
584.4147763240312
 20
156.1691315380065
 30
0.0
 10
584.8305800801345
 20
155.3588745643984
 30
0.0
 10
584.9828432655158
 20
154.1583531264029
 30
0.0
 10
584.7597662025617
 20
153.0104558058255
 30
0.0
 10
584.3937596325482
 20
152.3063867498325
 30
0.0
 10
584.2090885249047
 20
151.9511439124624
 30
0.0
  0
LINE
  5
366
330
1F
100
AcDbEntity
  8
0
  6
Continuous
 62
     7
370
    15
100
AcDbLine
 10
578.2090912667
 20
156.5699455547
 30
0.0
 11
584.2090885249
 21
156.5699455547
 31
0.0
  0
LINE
  5
367
330
1F
100
AcDbEntity
  8
0
  6
Continuous
 62
     7
370
    15
100
AcDbLine
 10
578.2090912667
 20
151.9511439125
 30
0.0
 11
584.2090885249
 21
151.9511439125
 31
0.0
  0
LINE
  5
368
330
1F
100
AcDbEntity
  8
0
  6
Continuous
 62
     7
370
    15
100
AcDbLine
 10
584.2090885249
 20
142.7135394639
 30
0.0
 11
578.2090912667
 21
142.7135394639
 31
0.0
  0
LINE
  5
369
330
1F
100
AcDbEntity
  8
0
  6
Continuous
 62
     7
370
    15
100
AcDbLine
 10
578.2090912667
 20
138.0947371232
 30
0.0
 11
584.2090885249
 21
138.0947371232
 31
0.0
  0
LINE
  5
36A
330
1F
100
AcDbEntity
  8
0
  6
Continuous
 62
     7
370
    15
100
AcDbLine
 10
819.2090879289
 20
94.5708760279
 30
0.0
 11
594.2090938893
 21
94.5708760279
 31
0.0
  0
LINE
  5
36B
330
1F
100
AcDbEntity
  8
0
  6
Continuous
 62
     7
370
    15
100
AcDbLine
 10
594.2090938893
 20
95.8109096842
 30
0.0
 11
594.2090938893
 21
94.5708760279
 31
0.0
  0
LINE
  5
36C
330
1F
100
AcDbEntity
  8
0
  6
Continuous
 62
     7
370
    15
100
AcDbLine
 10
819.2090879289
 20
94.5708760279
 30
0.0
 11
819.2090879289
 21
95.8109096842
 31
0.0
  0
LINE
  5
36D
330
1F
100
AcDbEntity
  8
0
  6
Continuous
 62
     7
370
    15
100
AcDbLine
 10
594.2090938893
 20
91.8323406237
 30
0.0
 11
819.2090879289
 21
91.8323406237
 31
0.0
  0
LINE
  5
36E
330
1F
100
AcDbEntity
  8
0
  6
Continuous
 62
     7
370
    15
100
AcDbLine
 10
594.2090938893
 20
94.5708760279
 30
0.0
 11
594.2090938893
 21
91.8323406237
 31
0.0
  0
LINE
  5
36F
330
1F
100
AcDbEntity
  8
0
  6
Continuous
 62
     7
370
    15
100
AcDbLine
 10
819.2090879289
 20
94.5708760279
 30
0.0
 11
819.2090879289
 21
91.8323406237
 31
0.0
  0
LINE
  5
370
330
1F
100
AcDbEntity
  8
0
  6
Continuous
 62
     7
370
    15
100
AcDbLine
 10
838.0090932456
 20
142.3323414507
 30
0.0
 11
838.0090932456
 21
152.3323416928
 31
0.0
  0
LINE
  5
371
330
1F
100
AcDbEntity
  8
0
  6
Continuous
 62
     7
370
    15
100
AcDbLine
 10
838.5090868083
 20
142.8323415326
 30
0.0
 11
838.5090868083
 21
151.8323416109
 31
0.0
  0
LINE
  5
372
330
1F
100
AcDbEntity
  8
0
  6
Continuous
 62
     7
370
    15
100
AcDbLine
 10
574.9090950099
 20
151.8323416109
 30
0.0
 11
574.9090950099
 21
142.8323415326
 31
0.0
  0
LINE
  5
373
330
1F
100
AcDbEntity
  8
0
  6
Continuous
 62
     7
370
    15
100
AcDbLine
 10
575.4090885726
 20
152.3323416928
 30
0.0
 11
575.4090885726
 21
142.3323414507
 31
0.0
  0
LINE
  5
374
330
1F
100
AcDbEntity
  8
0
  6
Continuous
 62
     7
370
    15
100
AcDbLine
 10
819.2090879289
 20
121.6269106823
 30
0.0
 11
716.2446559501
 21
121.6269106823
 31
0.0
  0
LINE
  5
375
330
1F
100
AcDbEntity
  8
0
  6
Continuous
 62
     7
370
    15
100
AcDbLine
 10
697.1735258681
 20
121.6269106823
 30
0.0
 11
594.2090938893
 21
121.6269106823
 31
0.0
  0
LINE
  5
376
330
1F
100
AcDbEntity
  8
0
  6
Continuous
 62
     7
370
    15
100
AcDbLine
 10
594.2090938893
 20
118.9836235004
 30
0.0
 11
697.5642175508
 21
118.9836235004
 31
0.0
  0
LINE
  5
377
330
1F
100
AcDbEntity
  8
0
  6
Continuous
 62
     7
370
    15
100
AcDbLine
 10
715.8539642674
 20
118.9836235004
 30
0.0
 11
819.2090879289
 21
118.9836235004
 31
0.0
  0
LINE
  5
378
330
1F
100
AcDbEntity
  8
0
  6
Continuous
 62
     7
370
    15
100
AcDbLine
 10
826.2090872136
 20
98.8323399084
 30
0.0
 11
826.2090872136
 21
106.7439512568
 31
0.0
  0
LINE
  5
379
330
1F
100
AcDbEntity
  8
0
  6
Continuous
 62
     7
370
    15
100
AcDbLine
 10
587.2090946046
 20
195.8323427694
 30
0.0
 11
587.2090946046
 21
187.9207351463
 31
0.0
  0
LINE
  5
37A
330
1F
100
AcDbEntity
  8
0
  6
Continuous
 62
     7
370
    15
100
AcDbLine
 10
826.2090872136
 20
187.9207351463
 30
0.0
 11
826.2090872136
 21
195.8323427694
 31
0.0
  0
LINE
  5
37B
330
1F
100
AcDbEntity
  8
0
  6
Continuous
 62
     7
370
    15
100
AcDbLine
 10
587.2090946046
 20
106.7439512568
 30
0.0
 11
587.2090946046
 21
98.8323399084
 31
0.0
  0
ENDSEC
  0
SECTION
  2
OBJECTS
  0
DICTIONARY
  5
C
330
0
100
AcDbDictionary
281
     1
  3
ACAD_GROUP
350
D
  3
ACAD_LAYOUT
350
1A
  3
ACAD_MLINESTYLE
350
17
  3
ACAD_PLOTSETTINGS
350
19
  3
ACAD_PLOTSTYLENAME
350
E
  0
DICTIONARY
  5
D
102
{ACAD_REACTORS
330
C
102
}
330
C
100
AcDbDictionary
281
     1
  0
DICTIONARY
  5
1A
102
{ACAD_REACTORS
330
C
102
}
330
C
100
AcDbDictionary
281
     1
  3
Layout1
350
1E
  3
Layout2
350
26
  3
Model
350
22
  0
DICTIONARY
  5
17
102
{ACAD_REACTORS
330
C
102
}
330
C
100
AcDbDictionary
281
     1
  3
Standard
350
18
  0
DICTIONARY
  5
19
102
{ACAD_REACTORS
330
C
102
}
330
C
100
AcDbDictionary
281
     1
  0
ACDBDICTIONARYWDFLT
  5
E
102
{ACAD_REACTORS
330
C
102
}
330
C
100
AcDbDictionary
281
     1
  3
Normal
350
F
100
AcDbDictionaryWithDefault
340
F
  0
LAYOUT
  5
1E
102
{ACAD_REACTORS
330
1A
102
}
330
1A
100
AcDbPlotSettings
  1

  2
none_device
  4

  6

 40
0.0
 41
0.0
 42
0.0
 43
0.0
 44
0.0
 45
0.0
 46
0.0
 47
0.0
 48
0.0
 49
0.0
140
0.0
141
0.0
142
1.0
143
1.0
 70
   688
 72
     0
 73
     0
 74
     5
  7

 75
    16
147
1.0
148
0.0
149
0.0
100
AcDbLayout
  1
Layout1
 70
     1
 71
     1
 10
0.0
 20
0.0
 11
420.0
 21
297.0
 12
0.0
 22
0.0
 32
0.0
 14
1.0000000000E+20
 24
1.0000000000E+20
 34
1.0000000000E+20
 15
-1.0000000000E+20
 25
-1.0000000000E+20
 35
-1.0000000000E+20
146
0.0
 13
0.0
 23
0.0
 33
0.0
 16
1.0
 26
0.0
 36
0.0
 17
0.0
 27
1.0
 37
0.0
 76
     0
330
1B
  0
LAYOUT
  5
26
102
{ACAD_REACTORS
330
1A
102
}
330
1A
100
AcDbPlotSettings
  1

  2
none_device
  4

  6

 40
0.0
 41
0.0
 42
0.0
 43
0.0
 44
0.0
 45
0.0
 46
0.0
 47
0.0
 48
0.0
 49
0.0
140
0.0
141
0.0
142
1.0
143
1.0
 70
   688
 72
     0
 73
     0
 74
     5
  7

 75
    16
147
1.0
148
0.0
149
0.0
100
AcDbLayout
  1
Layout2
 70
     1
 71
     2
 10
0.0
 20
0.0
 11
0.0
 21
0.0
 12
0.0
 22
0.0
 32
0.0
 14
0.0
 24
0.0
 34
0.0
 15
0.0
 25
0.0
 35
0.0
146
0.0
 13
0.0
 23
0.0
 33
0.0
 16
1.0
 26
0.0
 36
0.0
 17
0.0
 27
1.0
 37
0.0
 76
     0
330
23
  0
LAYOUT
  5
22
102
{ACAD_REACTORS
330
1A
102
}
330
1A
100
AcDbPlotSettings
  1

  2
none_device
  4

  6

 40
0.0
 41
0.0
 42
0.0
 43
0.0
 44
0.0
 45
0.0
 46
0.0
 47
0.0
 48
0.0
 49
0.0
140
0.0
141
0.0
142
1.0
143
1.0
 70
  1712
 72
     0
 73
     0
 74
     0
  7

 75
     0
147
1.0
148
0.0
149
0.0
100
AcDbLayout
  1
Model
 70
     1
 71
     0
 10
0.0
 20
0.0
 11
0.0
 21
0.0
 12
0.0
 22
0.0
 32
0.0
 14
0.0
 24
0.0
 34
0.0
 15
1000.0
 25
1000.0
 35
0.0
146
0.0
 13
0.0
 23
0.0
 33
0.0
 16
1.0
 26
0.0
 36
0.0
 17
0.0
 27
1.0
 37
0.0
 76
     0
330
1F
  0
MLINESTYLE
  5
18
102
{ACAD_REACTORS
330
17
102
}
330
17
100
AcDbMlineStyle
  2
Standard
 70
     0
  3

 62
   256
 51
90.0
 52
90.0
 71
     2
 49
0.5
 62
   256
  6
BYLAYER
 49
-0.5
 62
   256
  6
BYLAYER
  0
ACDBPLACEHOLDER
  5
F
102
{ACAD_REACTORS
330
E
102
}
330
E
  0
ENDSEC
  0
EOF
